  0
SECTION
  2
HEADER
  9
$ACADVER
  1
AC1015
  9
$ACADMAINTVER
 70
     6
  9
$DWGCODEPAGE
  3
ANSI_1252
  9
$INSBASE
 10
0.0
 20
0.0
 30
0.0
  9
$EXTMIN
 10
0.0
 20
0.0
 30
0.0
  9
$EXTMAX
 10
34.0
 20
22.0
 30
0.0
  9
$LIMMIN
 10
0.0
 20
0.0
  9
$LIMMAX
 10
12.0
 20
9.0
  9
$ORTHOMODE
 70
     0
  9
$REGENMODE
 70
     1
  9
$FILLMODE
 70
     1
  9
$QTEXTMODE
 70
     0
  9
$MIRRTEXT
 70
     1
  9
$LTSCALE
 40
1.0
  9
$ATTMODE
 70
     1
  9
$TEXTSIZE
 40
0.1388888889
  9
$TRACEWID
 40
0.05
  9
$TEXTSTYLE
  7
Standard
  9
$CLAYER
  8
0
  9
$CELTYPE
  6
ByLayer
  9
$CECOLOR
 62
   256
  9
$CELTSCALE
 40
1.0
  9
$DISPSILH
 70
     0
  9
$DIMSCALE
 40
1.0
  9
$DIMASZ
 40
0.13
  9
$DIMEXO
 40
0.05
  9
$DIMDLI
 40
0.38
  9
$DIMRND
 40
0.0
  9
$DIMDLE
 40
0.0
  9
$DIMEXE
 40
0.125
  9
$DIMTP
 40
0.0
  9
$DIMTM
 40
0.0
  9
$DIMTXT
 40
0.5
  9
$DIMCEN
 40
0.09
  9
$DIMTSZ
 40
0.0
  9
$DIMTOL
 70
     0
  9
$DIMLIM
 70
     0
  9
$DIMTIH
 70
     1
  9
$DIMTOH
 70
     1
  9
$DIMSE1
 70
     0
  9
$DIMSE2
 70
     0
  9
$DIMTAD
 70
     0
  9
$DIMZIN
 70
     0
  9
$DIMBLK
  1

  9
$DIMASO
 70
     1
  9
$DIMSHO
 70
     1
  9
$DIMPOST
  1

  9
$DIMAPOST
  1

  9
$DIMALT
 70
     0
  9
$DIMALTD
 70
     2
  9
$DIMALTF
 40
25.4
  9
$DIMLFAC
 40
1.0
  9
$DIMTOFL
 70
     0
  9
$DIMTVP
 40
0.0
  9
$DIMTIX
 70
     0
  9
$DIMSOXD
 70
     0
  9
$DIMSAH
 70
     0
  9
$DIMBLK1
  1

  9
$DIMBLK2
  1

  9
$DIMSTYLE
  2
Standard
  9
$DIMCLRD
 70
     0
  9
$DIMCLRE
 70
     0
  9
$DIMCLRT
 70
     0
  9
$DIMTFAC
 40
1.0
  9
$DIMGAP
 40
0.06
  9
$DIMJUST
 70
     0
  9
$DIMSD1
 70
     0
  9
$DIMSD2
 70
     0
  9
$DIMTOLJ
 70
     1
  9
$DIMTZIN
 70
     0
  9
$DIMALTZ
 70
     0
  9
$DIMALTTZ
 70
     0
  9
$DIMUPT
 70
     0
  9
$DIMDEC
 70
     3
  9
$DIMTDEC
 70
     3
  9
$DIMALTU
 70
     2
  9
$DIMALTTD
 70
     2
  9
$DIMTXSTY
  7
Standard
  9
$DIMAUNIT
 70
     0
  9
$DIMADEC
 70
     0
  9
$DIMALTRND
 40
0.0
  9
$DIMAZIN
 70
     0
  9
$DIMDSEP
 70
    46
  9
$DIMATFIT
 70
     3
  9
$DIMFRAC
 70
     0
  9
$DIMLDRBLK
  1

  9
$DIMLUNIT
 70
     2
  9
$DIMLWD
 70
    -2
  9
$DIMLWE
 70
    -2
  9
$DIMTMOVE
 70
     0
  9
$LUNITS
 70
     2
  9
$LUPREC
 70
     3
  9
$SKETCHINC
 40
0.1
  9
$FILLETRAD
 40
0.5
  9
$AUNITS
 70
     0
  9
$AUPREC
 70
     0
  9
$MENU
  1
.
  9
$ELEVATION
 40
0.0
  9
$PELEVATION
 40
0.0
  9
$THICKNESS
 40
0.0
  9
$LIMCHECK
 70
     0
  9
$CHAMFERA
 40
0.0
  9
$CHAMFERB
 40
0.0
  9
$CHAMFERC
 40
0.0
  9
$CHAMFERD
 40
0.0
  9
$SKPOLY
 70
     0
  9
$TDCREATE
 40
2459458.56067956
  9
$TDUCREATE
 40
2459458.727346227
  9
$TDUPDATE
 40
2459458.560680556
  9
$TDUUPDATE
 40
2459458.727347222
  9
$TDINDWG
 40
0.0000000116
  9
$TDUSRTIMER
 40
0.0000000116
  9
$USRTIMER
 70
     1
  9
$ANGBASE
 50
0.0
  9
$ANGDIR
 70
     0
  9
$PDMODE
 70
     0
  9
$PDSIZE
 40
-1.0
  9
$PLINEWID
 40
0.0
  9
$SPLFRAME
 70
     0
  9
$SPLINETYPE
 70
     6
  9
$SPLINESEGS
 70
     8
  9
$HANDSEED
  5
374
  9
$SURFTAB1
 70
     6
  9
$SURFTAB2
 70
     6
  9
$SURFTYPE
 70
     6
  9
$SURFU
 70
     6
  9
$SURFV
 70
     6
  9
$UCSBASE
  2

  9
$UCSNAME
  2

  9
$UCSORG
 10
0.0
 20
0.0
 30
0.0
  9
$UCSXDIR
 10
1.0
 20
0.0
 30
0.0
  9
$UCSYDIR
 10
0.0
 20
1.0
 30
0.0
  9
$UCSORTHOREF
  2

  9
$UCSORTHOVIEW
 70
     0
  9
$UCSORGTOP
 10
0.0
 20
0.0
 30
0.0
  9
$UCSORGBOTTOM
 10
0.0
 20
0.0
 30
0.0
  9
$UCSORGLEFT
 10
0.0
 20
0.0
 30
0.0
  9
$UCSORGRIGHT
 10
0.0
 20
0.0
 30
0.0
  9
$UCSORGFRONT
 10
0.0
 20
0.0
 30
0.0
  9
$UCSORGBACK
 10
0.0
 20
0.0
 30
0.0
  9
$PUCSBASE
  2

  9
$PUCSNAME
  2

  9
$PUCSORG
 10
0.0
 20
0.0
 30
0.0
  9
$PUCSXDIR
 10
1.0
 20
0.0
 30
0.0
  9
$PUCSYDIR
 10
0.0
 20
1.0
 30
0.0
  9
$PUCSORTHOREF
  2

  9
$PUCSORTHOVIEW
 70
     0
  9
$PUCSORGTOP
 10
0.0
 20
0.0
 30
0.0
  9
$PUCSORGBOTTOM
 10
0.0
 20
0.0
 30
0.0
  9
$PUCSORGLEFT
 10
0.0
 20
0.0
 30
0.0
  9
$PUCSORGRIGHT
 10
0.0
 20
0.0
 30
0.0
  9
$PUCSORGFRONT
 10
0.0
 20
0.0
 30
0.0
  9
$PUCSORGBACK
 10
0.0
 20
0.0
 30
0.0
  9
$USERI1
 70
     0
  9
$USERI2
 70
     0
  9
$USERI3
 70
     0
  9
$USERI4
 70
     0
  9
$USERI5
 70
     0
  9
$USERR1
 40
0.0
  9
$USERR2
 40
0.0
  9
$USERR3
 40
0.0
  9
$USERR4
 40
0.0
  9
$USERR5
 40
0.0
  9
$WORLDVIEW
 70
     1
  9
$SHADEDGE
 70
     3
  9
$SHADEDIF
 70
    70
  9
$TILEMODE
 70
     0
  9
$MAXACTVP
 70
    64
  9
$PINSBASE
 10
0.0
 20
0.0
 30
0.0
  9
$PLIMCHECK
 70
     0
  9
$PEXTMIN
 10
0.0
 20
0.0
 30
0.0
  9
$PEXTMAX
 10
34.0
 20
22.0
 30
0.0
  9
$PLIMMIN
 10
0.0
 20
0.0
  9
$PLIMMAX
 10
34.0
 20
22.0
  9
$UNITMODE
 70
     0
  9
$VISRETAIN
 70
     1
  9
$PLINEGEN
 70
     0
  9
$PSLTSCALE
 70
     1
  9
$TREEDEPTH
 70
  3020
  9
$CMLSTYLE
  2
Standard
  9
$CMLJUST
 70
     0
  9
$CMLSCALE
 40
1.0
  9
$PROXYGRAPHICS
 70
     1
  9
$MEASUREMENT
 70
     0
  9
$CELWEIGHT
370
    -1
  9
$ENDCAPS
280
     0
  9
$JOINSTYLE
280
     0
  9
$LWDISPLAY
290
     1
  9
$INSUNITS
 70
     1
  9
$HYPERLINKBASE
  1

  9
$STYLESHEET
  1

  9
$XEDIT
290
     1
  9
$CEPSNTYPE
380
     0
  9
$PSTYLEMODE
290
     1
  9
$FINGERPRINTGUID
  2
{7dd12826-6d99-4a70-89b8-ad7252baa3bc}
  9
$VERSIONGUID
  2
{FAEB1C32-E019-11D5-929B-00C0DF256EC4}
  9
$EXTNAMES
290
     1
  9
$PSVPSCALE
 40
0.0
  9
$OLESTARTUP
290
     0
  0
ENDSEC
  0
SECTION
  2
CLASSES
  0
CLASS
  1
ACDBDICTIONARYWDFLT
  2
AcDbDictionaryWithDefault
  3
ObjectDBX Classes
 90
        0
280
     0
281
     0
  0
CLASS
  1
VISUALSTYLE
  2
AcDbVisualStyle
  3
ObjectDBX Classes
 90
     4095
280
     0
281
     0
  0
CLASS
  1
MATERIAL
  2
AcDbMaterial
  3
ObjectDBX Classes
 90
     1153
280
     0
281
     0
  0
CLASS
  1
SCALE
  2
AcDbScale
  3
ObjectDBX Classes
 90
     1153
280
     0
281
     0
  0
CLASS
  1
TABLESTYLE
  2
AcDbTableStyle
  3
ObjectDBX Classes
 90
     4095
280
     0
281
     0
  0
CLASS
  1
MLEADERSTYLE
  2
AcDbMLeaderStyle
  3
ACDB_MLEADERSTYLE_CLASS
 90
     4095
280
     0
281
     0
  0
CLASS
  1
SUN
  2
AcDbSun
  3
SCENEOE
 90
     1153
280
     0
281
     0
  0
CLASS
  1
ACDBPLACEHOLDER
  2
AcDbPlaceHolder
  3
ObjectDBX Classes
 90
        0
280
     0
281
     0
  0
CLASS
  1
LAYOUT
  2
AcDbLayout
  3
ObjectDBX Classes
 90
        0
280
     0
281
     0
  0
ENDSEC
  0
SECTION
  2
TABLES
  0
TABLE
  2
VPORT
  5
8
330
0
100
AcDbSymbolTable
 70
     1
  0
VPORT
  5
29
330
8
100
AcDbSymbolTableRecord
100
AcDbViewportTableRecord
  2
*Active
 70
     0
 10
0.0
 20
0.0
 11
1.0
 21
1.0
 12
17.0
 22
11.0
 13
0.0
 23
0.0
 14
0.5
 24
0.5
 15
0.5
 25
0.5
 16
0.0
 26
0.0
 36
1.0
 17
0.0
 27
0.0
 37
0.0
 40
22.0
 41
1.5454545455
 42
50.0
 43
0.0
 44
0.0
 50
0.0
 51
0.0
 71
     0
 72
  2000
 73
     1
 74
     3
 75
     0
 76
     0
 77
     0
 78
     0
281
     0
 65
     1
110
0.0
120
0.0
130
0.0
111
1.0
121
0.0
131
0.0
112
0.0
122
1.0
132
0.0
 79
     0
146
0.0
  0
ENDTAB
  0
TABLE
  2
LTYPE
  5
5
330
0
100
AcDbSymbolTable
 70
     6
  0
LTYPE
  5
14
330
5
100
AcDbSymbolTableRecord
100
AcDbLinetypeTableRecord
  2
ByBlock
 70
     0
  3

 72
    65
 73
     0
 40
0.0
  0
LTYPE
  5
15
330
5
100
AcDbSymbolTableRecord
100
AcDbLinetypeTableRecord
  2
ByLayer
 70
     0
  3

 72
    65
 73
     0
 40
0.0
  0
LTYPE
  5
16
330
5
100
AcDbSymbolTableRecord
100
AcDbLinetypeTableRecord
  2
Continuous
 70
     0
  3
Solid line
 72
    65
 73
     0
 40
0.0
  0
LTYPE
  5
6E
330
5
100
AcDbSymbolTableRecord
100
AcDbLinetypeTableRecord
  2
HIDDEN
 70
     0
  3
Hidden __ __ __ __ __ __ __ __ __ __ __ __ __ __
 72
    65
 73
     2
 40
0.075
 49
0.05
 74
     0
 49
-0.025
 74
     0
  0
LTYPE
  5
6F
330
5
100
AcDbSymbolTableRecord
100
AcDbLinetypeTableRecord
  2
PHANTOM
 70
     0
  3
Phantom ______  __  __  ______  __  __  ______
 72
    65
 73
     6
 40
0.5
 49
0.25
 74
     0
 49
-0.05
 74
     0
 49
0.05
 74
     0
 49
-0.05
 74
     0
 49
0.05
 74
     0
 49
-0.05
 74
     0
  0
LTYPE
  5
70
330
5
100
AcDbSymbolTableRecord
100
AcDbLinetypeTableRecord
  2
CENTER
 70
     0
  3
Center ____ _ ____ _ ____ _ ____ _ ____ _ ____
 72
    65
 73
     4
 40
0.4
 49
0.25
 74
     0
 49
-0.05
 74
     0
 49
0.05
 74
     0
 49
-0.05
 74
     0
  0
LTYPE
  5
71
330
5
100
AcDbSymbolTableRecord
100
AcDbLinetypeTableRecord
  2
CENTERX2
 70
     0
  3
Center (2x) ________  __  ________  __  _____
 72
    65
 73
     4
 40
0.8
 49
0.5
 74
     0
 49
-0.1
 74
     0
 49
0.1
 74
     0
 49
-0.1
 74
     0
  0
LTYPE
  5
72
330
5
100
AcDbSymbolTableRecord
100
AcDbLinetypeTableRecord
  2
DOT2
 70
     0
  3
Dot (.5x) ........................................
 72
    65
 73
     2
 40
0.025
 49
0.0
 74
     0
 49
-0.025
 74
     0
  0
ENDTAB
  0
TABLE
  2
LAYER
  5
2
330
0
100
AcDbSymbolTable
 70
     7
  0
LAYER
  5
10
330
2
100
AcDbSymbolTableRecord
100
AcDbLayerTableRecord
  2
0
 70
     0
 62
     7
  6
Continuous
370
    -3
390
F
  0
LAYER
  5
73
330
2
100
AcDbSymbolTableRecord
100
AcDbLayerTableRecord
  2
FORMAT
 70
     0
 62
     7
  6
Continuous
370
    -3
390
F
  0
LAYER
  5
74
330
2
100
AcDbSymbolTableRecord
100
AcDbLayerTableRecord
  2
DEFAULT
 70
     0
 62
   179
  6
Continuous
370
    -3
390
F
  0
LAYER
  5
75
330
2
100
AcDbSymbolTableRecord
100
AcDbLayerTableRecord
  2
INSPECTION_TAGS
 70
     0
 62
     7
  6
Continuous
370
    -3
390
F
  0
LAYER
  5
76
330
2
100
AcDbSymbolTableRecord
100
AcDbLayerTableRecord
  2
REVISIONS
 70
     0
 62
     7
  6
Continuous
370
    -3
390
F
  0
LAYER
  5
77
330
2
100
AcDbSymbolTableRecord
100
AcDbLayerTableRecord
  2
DIMENSIONS_&_ANNOTATIONS
 70
     0
 62
     7
  6
Continuous
370
    -3
390
F
  0
LAYER
  5
78
330
2
100
AcDbSymbolTableRecord
100
AcDbLayerTableRecord
  2
DIMENSION_&_ANNOTATIONS
 70
     0
 62
     7
  6
Continuous
370
    -3
390
F
  0
ENDTAB
  0
TABLE
  2
STYLE
  5
3
330
0
100
AcDbSymbolTable
 70
     1
  0
STYLE
  5
11
330
3
100
AcDbSymbolTableRecord
100
AcDbTextStyleTableRecord
  2
Standard
 70
     0
 40
0.0
 41
1.0
 50
0.0
 71
     0
 42
0.1388888889
  3
txt
  4

  0
ENDTAB
  0
TABLE
  2
VIEW
  5
6
330
0
100
AcDbSymbolTable
 70
     0
  0
ENDTAB
  0
TABLE
  2
UCS
  5
7
330
0
100
AcDbSymbolTable
 70
     0
  0
ENDTAB
  0
TABLE
  2
APPID
  5
9
330
0
100
AcDbSymbolTable
 70
     1
  0
APPID
  5
12
330
9
100
AcDbSymbolTableRecord
100
AcDbRegAppTableRecord
  2
ACAD
 70
     0
  0
ENDTAB
  0
TABLE
  2
DIMSTYLE
  5
A
330
0
100
AcDbSymbolTable
 70
     1
100
AcDbDimStyleTable
  0
DIMSTYLE
105
27
330
A
100
AcDbSymbolTableRecord
100
AcDbDimStyleTableRecord
  2
Standard
 70
     0
178
     0
340
11
  0
ENDTAB
  0
TABLE
  2
BLOCK_RECORD
  5
1
330
0
100
AcDbSymbolTable
 70
     0
  0
BLOCK_RECORD
  5
1F
330
1
100
AcDbSymbolTableRecord
100
AcDbBlockTableRecord
  2
*Model_Space
340
22
  0
BLOCK_RECORD
  5
1B
330
1
100
AcDbSymbolTableRecord
100
AcDbBlockTableRecord
  2
*Paper_Space
340
1E
  0
ENDTAB
  0
ENDSEC
  0
SECTION
  2
BLOCKS
  0
BLOCK
  5
20
330
1F
100
AcDbEntity
  8
0
100
AcDbBlockBegin
  2
*Model_Space
 70
     0
 10
0.0
 20
0.0
 30
0.0
  3
*Model_Space
  1

  0
ENDBLK
  5
21
330
1F
100
AcDbEntity
  8
0
100
AcDbBlockEnd
  0
BLOCK
  5
1C
330
1B
100
AcDbEntity
 67
     1
  8
0
100
AcDbBlockBegin
  2
*Paper_Space
 70
     0
 10
0.0
 20
0.0
 30
0.0
  3
*Paper_Space
  1

  0
ENDBLK
  5
1D
330
1B
100
AcDbEntity
 67
     1
  8
0
100
AcDbBlockEnd
  0
ENDSEC
  0
SECTION
  2
ENTITIES
  0
VIEWPORT
  5
79
330
1B
100
AcDbEntity
 67
     1
  8
0
100
AcDbViewport
 10
17.0
 20
11.0
 30
0.0
 40
35.972
 41
23.276
 68
     1
 69
     1
 12
17.0
 22
11.0
 13
0.0
 23
0.0
 14
0.5
 24
0.5
 15
0.5
 25
0.5
 16
0.0
 26
0.0
 36
1.0
 17
0.0
 27
0.0
 37
0.0
 42
50.0
 43
0.0
 44
0.0
 45
23.276
 50
0.0
 51
0.0
 72
   100
 90
   557152
  1

281
     0
 71
     1
 74
     0
110
0.0
120
0.0
130
0.0
111
1.0
121
0.0
131
0.0
112
0.0
122
1.0
132
0.0
 79
     0
146
0.0
  0
ARC
  5
7B
330
1B
100
AcDbEntity
 67
     1
  8
0
  6
Continuous
 62
     7
370
    25
100
AcDbCircle
 10
16.4252149455
 20
9.9589668737
 30
0.0
 40
0.0300000000000011
100
AcDbArc
 50
0.0
 51
60.0026882663
  0
LINE
  5
7C
330
1B
100
AcDbEntity
 67
     1
  8
0
  6
Continuous
 62
     7
370
    25
100
AcDbLine
 10
16.4546625565
 20
9.9403465348
 30
0.0
 11
16.4552087855
 21
9.9584109884
 31
0.0
  0
LINE
  5
7D
330
1B
100
AcDbEntity
 67
     1
  8
0
  6
Continuous
 62
     7
370
    25
100
AcDbLine
 10
16.4402136752
 20
9.9849483214
 30
0.0
 11
13.6167427802
 21
11.6149033745
 31
0.0
  0
LINE
  5
7E
330
1B
100
AcDbEntity
 67
     1
  8
0
  6
Continuous
 62
     7
370
    25
100
AcDbLine
 10
14.8665675935
 20
10.389059294
 30
0.0
 11
14.8659406539
 21
10.4037508767
 31
0.0
  0
LINE
  5
7F
330
1B
100
AcDbEntity
 67
     1
  8
0
  6
Continuous
 62
     7
370
    25
100
AcDbLine
 10
14.82408888
 20
10.4037634941
 30
0.0
 11
14.823461759
 21
10.3890721659
 31
0.0
  0
LINE
  5
80
330
1B
100
AcDbEntity
 67
     1
  8
0
  6
Continuous
 62
     7
370
    25
100
AcDbLine
 10
14.7820649382
 20
10.4416145978
 30
0.0
 11
14.7814369486
 21
10.4562981655
 31
0.0
  0
LINE
  5
81
330
1B
100
AcDbEntity
 67
     1
  8
0
  6
Continuous
 62
     7
370
    25
100
AcDbLine
 10
14.6593011257
 20
10.4899171254
 30
0.0
 11
14.6587006317
 21
10.4751153534
 31
0.0
  0
LINE
  5
82
330
1B
100
AcDbEntity
 67
     1
  8
0
  6
Continuous
 62
     7
370
    25
100
AcDbLine
 10
14.6865103505
 20
10.4800505804
 30
0.0
 11
14.6859140112
 21
10.4946361309
 31
0.0
  0
LINE
  5
83
330
1B
100
AcDbEntity
 67
     1
  8
0
  6
Continuous
 62
     7
370
    25
100
AcDbLine
 10
14.7097416488
 20
10.4906292799
 30
0.0
 11
14.7091132508
 21
10.5053181123
 31
0.0
  0
LINE
  5
84
330
1B
100
AcDbEntity
 67
     1
  8
0
  6
Continuous
 62
     7
370
    25
100
AcDbLine
 10
14.4969545298
 20
10.5503972228
 30
0.0
 11
14.4963344155
 21
10.5356592227
 31
0.0
  0
LINE
  5
85
330
1B
100
AcDbEntity
 67
     1
  8
0
  6
Continuous
 62
     7
370
    25
100
AcDbLine
 10
14.5745375368
 20
10.5584686975
 30
0.0
 11
14.5739089865
 21
10.5731602521
 31
0.0
  0
LINE
  5
86
330
1B
100
AcDbEntity
 67
     1
  8
0
  6
Continuous
 62
     7
370
    25
100
AcDbLine
 10
14.531978607
 20
10.5731607731
 30
0.0
 11
14.5313500891
 21
10.5584692933
 31
0.0
  0
LINE
  5
87
330
1B
100
AcDbEntity
 67
     1
  8
0
  6
Continuous
 62
     7
370
    25
100
AcDbLine
 10
14.4407707727
 20
10.6202245432
 30
0.0
 11
14.4401494075
 21
10.6055387528
 31
0.0
  0
LINE
  5
88
330
1B
100
AcDbEntity
 67
     1
  8
0
  6
Continuous
 62
     7
370
    25
100
AcDbLine
 10
14.4918391363
 20
10.614227635
 30
0.0
 11
14.4912109522
 21
10.6289141887
 31
0.0
  0
SPLINE
  5
89
330
1B
100
AcDbEntity
 67
     1
  8
0
  6
Continuous
 62
     7
370
    25
100
AcDbSpline
210
0.0
220
0.0
230
1.0
 70
     8
 71
     3
 72
    11
 73
     7
 74
     0
 42
0.000000001
 43
0.00000001
 40
0.0
 40
0.0
 40
0.0
 40
0.0
 40
0.1633501570035932
 40
0.4685855063105553
 40
0.7732085525426281
 40
1.0
 40
1.0
 40
1.0
 40
1.0
 10
13.0618561853359
 20
11.31189133837789
 30
0.0
 10
13.05453566755444
 20
11.30734571487969
 30
0.0
 10
13.03353606404012
 20
11.29430616029662
 30
0.0
 10
13.00054613363496
 20
11.26516407189786
 30
0.0
 10
12.96796443505789
 20
11.22710372332752
 30
0.0
 10
12.95087045375992
 20
11.19946753863795
 30
0.0
 10
12.94357526552661
 20
11.1876732605323
 30
0.0
  0
LINE
  5
8A
330
1B
100
AcDbEntity
 67
     1
  8
0
  6
Continuous
 62
     7
370
    25
100
AcDbLine
 10
12.9435752655
 20
11.1876732605
 30
0.0
 11
12.9120117977
 21
11.1330260398
 31
0.0
  0
LINE
  5
8B
330
1B
100
AcDbEntity
 67
     1
  8
0
  6
Continuous
 62
     7
370
    25
100
AcDbLine
 10
13.5867454038
 20
11.6149034344
 30
0.0
 11
13.0618561853
 21
11.3118913384
 31
0.0
  0
ARC
  5
8C
330
1B
100
AcDbEntity
 67
     1
  8
0
  6
Continuous
 62
     7
370
    25
100
AcDbCircle
 10
13.6017440309
 20
11.5889219381
 30
0.0
 40
0.0299999999999996
100
AcDbArc
 50
60.0026882663
 51
119.9973117336
  0
SPLINE
  5
8D
330
1B
100
AcDbEntity
 67
     1
  8
0
  6
Continuous
 62
     7
370
    25
100
AcDbSpline
210
0.0
220
0.0
230
1.0
 70
     8
 71
     3
 72
    13
 73
     9
 74
     0
 42
0.000000001
 43
0.00000001
 40
0.0
 40
0.0
 40
0.0
 40
0.0
 40
0.0542230901197694
 40
0.2363641526213607
 40
0.4366589567796695
 40
0.6474606509313516
 40
0.8357258023090327
 40
1.0
 40
1.0
 40
1.0
 40
1.0
 10
19.35445191526858
 20
7.327290608171473
 30
0.0
 10
19.35452763813126
 20
7.328000902129877
 30
0.0
 10
19.35485772205367
 20
7.331097148198102
 30
0.0
 10
19.35734433903229
 20
7.338911529436499
 30
0.0
 10
19.36238695076599
 20
7.349359643244548
 30
0.0
 10
19.36928022093565
 20
7.359103662862415
 30
0.0
 10
19.37651008600841
 20
7.366372912936481
 30
0.0
 10
19.38028385768526
 20
7.3688298342838
 30
0.0
 10
19.38204233745814
 20
7.369974695940201
 30
0.0
  0
LINE
  5
8E
330
1B
100
AcDbEntity
 67
     1
  8
0
  6
Continuous
 62
     7
370
    25
100
AcDbLine
 10
19.3820423375
 20
7.3699746959
 30
0.0
 11
19.7958717063
 21
7.6088733055
 31
0.0
  0
SPLINE
  5
8F
330
1B
100
AcDbEntity
 67
     1
  8
0
  6
Continuous
 62
     7
370
    25
100
AcDbSpline
210
0.0
220
0.0
230
1.0
 70
     8
 71
     3
 72
     9
 73
     5
 74
     0
 42
0.000000001
 43
0.00000001
 40
0.0
 40
0.0
 40
0.0
 40
0.0
 40
0.5986076495945486
 40
1.0
 40
1.0
 40
1.0
 40
1.0
 10
19.79587170627448
 20
7.60887330545799
 30
0.0
 10
19.79737988639519
 20
7.609569886520375
 30
0.0
 10
19.79989936659517
 20
7.61073355534896
 30
0.0
 10
19.7997718868354
 20
7.610651863256527
 30
0.0
 10
19.799720717435
 20
7.610619072675537
 30
0.0
  0
LINE
  5
90
330
1B
100
AcDbEntity
 67
     1
  8
0
  6
Continuous
 62
     7
370
    25
100
AcDbLine
 10
20.5005220042
 20
7.988902738
 30
0.0
 11
21.2459832905
 21
8.4635349572
 31
0.0
  0
LINE
  5
91
330
1B
100
AcDbEntity
 67
     1
  8
0
  6
Continuous
 62
     7
370
    25
100
AcDbLine
 10
19.7653079816
 20
7.5912291709
 30
0.0
 11
19.7884821109
 21
7.5778510308
 31
0.0
  0
ARC
  5
92
330
1B
100
AcDbEntity
 67
     1
  8
0
  6
Continuous
 62
     7
370
    25
100
AcDbCircle
 10
21.2299251005
 20
8.490629767
 30
0.0
 40
0.0300000000000011
100
AcDbArc
 50
358.2683945312
 51
0.0
  0
ARC
  5
93
330
1B
100
AcDbEntity
 67
     1
  8
0
  6
Continuous
 62
     7
370
    25
100
AcDbCircle
 10
21.2299251005
 20
8.490629767
 30
0.0
 40
0.0300000000000011
100
AcDbArc
 50
0.0
 51
60.0026882664
  0
LINE
  5
94
330
1B
100
AcDbEntity
 67
     1
  8
0
  6
Continuous
 62
     7
370
    25
100
AcDbLine
 10
21.2449240191
 20
8.5166111705
 30
0.0
 11
20.4255220814
 21
8.9896418404
 31
0.0
  0
LINE
  5
95
330
1B
100
AcDbEntity
 67
     1
  8
0
  6
Continuous
 62
     7
370
    25
100
AcDbLine
 10
21.2598573195
 20
8.4879344982
 30
0.0
 11
21.2599112476
 21
8.4897232701
 31
0.0
  0
ARC
  5
96
330
1B
100
AcDbEntity
 67
     1
  8
0
  6
Continuous
 62
     7
370
    25
100
AcDbCircle
 10
21.2298710234
 20
8.4888409945
 30
0.0
 40
0.0300000000000003
100
AcDbArc
 50
302.4847342995
 51
358.2683945312
  0
SPLINE
  5
97
330
1B
100
AcDbEntity
 67
     1
  8
0
  6
Continuous
 62
     7
370
    25
100
AcDbSpline
210
0.0
220
0.0
230
1.0
 70
     8
 71
     3
 72
     9
 73
     5
 74
     0
 42
0.000000001
 43
0.00000001
 40
0.0
 40
0.0
 40
0.0
 40
0.0
 40
0.5970770802754963
 40
1.0
 40
1.0
 40
1.0
 40
1.0
 10
20.42552208135743
 20
8.989641840437605
 30
0.0
 10
20.42419522598957
 20
8.990580691142789
 30
0.0
 10
20.4219729746058
 20
8.992153102371088
 30
0.0
 10
20.42210981866714
 20
8.992080588242413
 30
0.0
 10
20.42216495627587
 20
8.992051370637967
 30
0.0
  0
SPLINE
  5
98
330
1B
100
AcDbEntity
 67
     1
  8
0
  6
Continuous
 62
     7
370
    25
100
AcDbSpline
210
0.0
220
0.0
230
1.0
 70
     8
 71
     3
 72
    13
 73
     9
 74
     0
 42
0.000000001
 43
0.00000001
 40
0.0
 40
0.0
 40
0.0
 40
0.0
 40
0.1464362402596707
 40
0.3087152190748417
 40
0.4865792624849493
 40
0.6738164708095498
 40
0.8598423297349588
 40
1.0
 40
1.0
 40
1.0
 40
1.0
 10
15.7395079033265
 20
9.527496524938815
 30
0.0
 10
15.73767096738463
 20
9.526565078361104
 30
0.0
 10
15.73379835988861
 20
9.524601413261637
 30
0.0
 10
15.72433519715701
 20
9.52211742034543
 30
0.0
 10
15.71280043572021
 20
9.521042638570313
 30
0.0
 10
15.70062316397276
 20
9.521919646779613
 30
0.0
 10
15.69047932801112
 20
9.524533293295455
 30
0.0
 10
15.6864128741355
 20
9.526605933148783
 30
0.0
 10
15.68466556119526
 20
9.527496524938815
 30
0.0
  0
LINE
  5
99
330
1B
100
AcDbEntity
 67
     1
  8
0
  6
Continuous
 62
     7
370
    25
100
AcDbLine
 10
16.4815110532
 20
9.9558458257
 30
0.0
 11
15.7395079033
 21
9.5274965249
 31
0.0
  0
LINE
  5
9A
330
1B
100
AcDbEntity
 67
     1
  8
0
  6
Continuous
 62
     7
370
    25
100
AcDbLine
 10
15.6846655612
 20
9.5274965249
 30
0.0
 11
12.8243271668
 21
11.1787347324
 31
0.0
  0
SPLINE
  5
9B
330
1B
100
AcDbEntity
 67
     1
  8
0
  6
Continuous
 62
     7
370
    25
100
AcDbSpline
210
0.0
220
0.0
230
1.0
 70
     8
 71
     3
 72
     9
 73
     5
 74
     0
 42
0.000000001
 43
0.00000001
 40
0.0
 40
0.0
 40
0.0
 40
0.0
 40
0.5453692447419718
 40
0.9999999999999999
 40
0.9999999999999999
 40
0.9999999999999999
 40
0.9999999999999999
 10
16.48494886290059
 20
9.958392246187342
 30
0.0
 10
16.48491036927729
 20
9.958278178071858
 30
0.0
 10
16.48483978659652
 20
9.958069020484439
 30
0.0
 10
16.48255141655405
 20
9.956540663673753
 30
0.0
 10
16.48151105315333
 20
9.955845825662609
 30
0.0
  0
ARC
  5
9C
330
1B
100
AcDbEntity
 67
     1
  8
0
  6
Continuous
 62
     7
370
    25
100
AcDbCircle
 10
24.1015256506
 20
10.1466119242
 30
0.0
 40
0.030000000000002
100
AcDbArc
 50
240.0026882663
 51
297.3738053932
  0
LINE
  5
9D
330
1B
100
AcDbEntity
 67
     1
  8
0
  6
Continuous
 62
     7
370
    25
100
AcDbLine
 10
24.1153193733
 20
10.1199712264
 30
0.0
 11
24.8594799564
 21
10.5052756731
 31
0.0
  0
LINE
  5
9E
330
1B
100
AcDbEntity
 67
     1
  8
0
  6
Continuous
 62
     7
370
    25
100
AcDbLine
 10
23.2666144866
 20
10.5939558194
 30
0.0
 11
24.0865270815
 21
10.1206303533
 31
0.0
  0
ARC
  5
9F
330
1B
100
AcDbEntity
 67
     1
  8
0
  6
Continuous
 62
     7
370
    25
100
AcDbCircle
 10
15.7973791298
 20
10.38244085
 30
0.0
 40
0.0300000000000011
100
AcDbArc
 50
119.9973117337
 51
178.2683945312
  0
LINE
  5
A0
330
1B
100
AcDbEntity
 67
     1
  8
0
  6
Continuous
 62
     7
370
    25
100
AcDbLine
 10
15.7673928038
 20
10.3833473355
 30
0.0
 11
15.7670960958
 21
10.3735309141
 31
0.0
  0
LINE
  5
A1
330
1B
100
AcDbEntity
 67
     1
  8
0
  6
Continuous
 62
     7
370
    25
100
AcDbLine
 10
15.8679570615
 20
10.4578247083
 30
0.0
 11
15.7823802916
 21
10.4084222906
 31
0.0
  0
SPLINE
  5
A2
330
1B
100
AcDbEntity
 67
     1
  8
0
  6
Continuous
 62
     7
370
    25
100
AcDbSpline
210
0.0
220
0.0
230
1.0
 70
     8
 71
     3
 72
     9
 73
     5
 74
     0
 42
0.000000001
 43
0.00000001
 40
0.0
 40
0.0
 40
0.0
 40
0.0
 40
0.5032908570427493
 40
1.0
 40
1.0
 40
1.0
 40
1.0
 10
15.8748792976115
 20
10.46337088189779
 30
0.0
 10
15.87468512378921
 20
10.46297134560777
 30
0.0
 10
15.87429931542497
 20
10.46217749790634
 30
0.0
 10
15.87004709063357
 20
10.45926399409924
 30
0.0
 10
15.86793497170177
 20
10.45781683012021
 30
0.0
  0
SPLINE
  5
A3
330
1B
100
AcDbEntity
 67
     1
  8
0
  6
Continuous
 62
     7
370
    25
100
AcDbSpline
210
0.0
220
0.0
230
1.0
 70
     8
 71
     3
 72
    10
 73
     6
 74
     0
 42
0.000000001
 43
0.00000001
 40
0.0
 40
0.0
 40
0.0
 40
0.0
 40
0.3224565304619055
 40
0.9971735193423678
 40
1.0
 40
1.0
 40
1.0
 40
1.0
 10
23.26255505229342
 20
10.59526661829628
 30
0.0
 10
23.26250392078607
 20
10.5952708866935
 30
0.0
 10
23.26234580029442
 20
10.59528408640346
 30
0.0
 10
23.26573002865975
 20
10.59479445379475
 30
0.0
 10
23.26656495727355
 20
10.59398137881635
 30
0.0
 10
23.26656844031144
 20
10.59397798694438
 30
0.0
  0
SPLINE
  5
A4
330
1B
100
AcDbEntity
 67
     1
  8
0
  6
Continuous
 62
     7
370
    25
100
AcDbSpline
210
0.0
220
0.0
230
1.0
 70
     8
 71
     3
 72
    13
 73
     9
 74
     0
 42
0.000000001
 43
0.00000001
 40
0.0
 40
0.0
 40
0.0
 40
0.0
 40
0.0542228656803556
 40
0.2363631742663507
 40
0.4366571493673641
 40
0.647462049913962
 40
0.835721626331491
 40
1.0
 40
1.0
 40
1.0
 40
1.0
 10
25.53739355473878
 20
10.89662684117965
 30
0.0
 10
25.53746927753196
 20
10.89733713521258
 30
0.0
 10
25.53779936115138
 20
10.90043338160571
 30
0.0
 10
25.5402859848901
 20
10.90824775559505
 30
0.0
 10
25.54532859871876
 20
10.91869597617493
 30
0.0
 10
25.55222200288258
 20
10.92843984269507
 30
0.0
 10
25.55945180946396
 20
10.93570926151592
 30
0.0
 10
25.56322563008388
 20
10.93816616275437
 30
0.0
 10
25.56498418434394
 20
10.93931104868685
 30
0.0
  0
LINE
  5
A5
330
1B
100
AcDbEntity
 67
     1
  8
0
  6
Continuous
 62
     7
370
    25
100
AcDbLine
 10
25.5649841843
 20
10.9393110487
 30
0.0
 11
25.9788135532
 21
11.1782096582
 31
0.0
  0
SPLINE
  5
A6
330
1B
100
AcDbEntity
 67
     1
  8
0
  6
Continuous
 62
     7
370
    25
100
AcDbSpline
210
0.0
220
0.0
230
1.0
 70
     8
 71
     3
 72
     9
 73
     5
 74
     0
 42
0.000000001
 43
0.00000001
 40
0.0
 40
0.0
 40
0.0
 40
0.0
 40
0.5970688393591299
 40
1.0
 40
1.0
 40
1.0
 40
1.0
 10
12.82432716680686
 20
11.17873473242573
 30
0.0
 10
12.82300043457298
 20
11.17967356368282
 30
0.0
 10
12.82077835874785
 20
11.18124596404138
 30
0.0
 10
12.82091498909924
 20
11.1811735572978
 30
0.0
 10
12.8209700417253
 20
11.18114438236457
 30
0.0
  0
SPLINE
  5
A7
330
1B
100
AcDbEntity
 67
     1
  8
0
  6
Continuous
 62
     7
370
    25
100
AcDbSpline
210
0.0
220
0.0
230
1.0
 70
     8
 71
     3
 72
     9
 73
     5
 74
     0
 42
0.000000001
 43
0.00000001
 40
0.0
 40
0.0
 40
0.0
 40
0.0
 40
0.5986076495945486
 40
1.0
 40
1.0
 40
1.0
 40
1.0
 10
25.97881355316028
 20
11.17820965820464
 30
0.0
 10
25.98032173328098
 20
11.17890623926702
 30
0.0
 10
25.98284121348096
 20
11.18006990809561
 30
0.0
 10
25.9827137337212
 20
11.17998821600317
 30
0.0
 10
25.98266256432079
 20
11.17995542542218
 30
0.0
  0
SPLINE
  5
A8
330
1B
100
AcDbEntity
 67
     1
  8
0
  6
Continuous
 62
     7
370
    25
100
AcDbSpline
210
0.0
220
0.0
230
1.0
 70
     8
 71
     3
 72
    11
 73
     7
 74
     0
 42
0.000000001
 43
0.00000001
 40
0.0
 40
0.0
 40
0.0
 40
0.0
 40
0.2096493680515169
 40
0.5117804195894542
 40
0.8174626389747395
 40
1.0
 40
1.0
 40
1.0
 40
1.0
 10
26.13978195022379
 20
11.33460624130189
 30
0.0
 10
26.14021279888768
 20
11.34148050211429
 30
0.0
 10
26.14126455455018
 20
11.35826143551578
 30
0.0
 10
26.12853696238725
 20
11.38307022329306
 30
0.0
 10
26.11028062033268
 20
11.40284980830118
 30
0.0
 10
26.0952906228102
 20
11.41232604472655
 30
0.0
 10
26.08968610652425
 20
11.41586905541056
 30
0.0
  0
LINE
  5
A9
330
1B
100
AcDbEntity
 67
     1
  8
0
  6
Continuous
 62
     7
370
    25
100
AcDbLine
 10
26.1394330772
 20
11.2441771603
 30
0.0
 11
26.1414205334
 21
11.3371344417
 31
0.0
  0
LINE
  5
AA
330
1B
100
AcDbEntity
 67
     1
  8
0
  6
Continuous
 62
     7
370
    25
100
AcDbLine
 10
25.8901570766
 20
11.1270294534
 30
0.0
 11
25.9133312059
 21
11.1136513133
 31
0.0
  0
LINE
  5
AB
330
1B
100
AcDbEntity
 67
     1
  8
0
  6
Continuous
 62
     7
370
    25
100
AcDbLine
 10
26.0896861065
 20
11.4158690554
 30
0.0
 11
24.9102517675
 21
12.0967420065
 31
0.0
  0
SPLINE
  5
AC
330
1B
100
AcDbEntity
 67
     1
  8
0
  6
Continuous
 62
     7
370
    25
100
AcDbSpline
210
0.0
220
0.0
230
1.0
 70
     8
 71
     3
 72
    13
 73
     9
 74
     0
 42
0.000000001
 43
0.00000001
 40
0.0
 40
0.0
 40
0.0
 40
0.0
 40
0.1464408359948262
 40
0.3087168469703196
 40
0.4865769883175763
 40
0.6738211688259894
 40
0.8598403384174707
 40
1.0
 40
1.0
 40
1.0
 40
1.0
 10
24.68579345744534
 20
11.98448203916162
 30
0.0
 10
24.6839565733085
 20
11.98355046777729
 30
0.0
 10
24.68008417613784
 20
11.98158659083992
 30
0.0
 10
24.67062052582593
 20
11.97910320207155
 30
0.0
 10
24.65908600184619
 20
11.97802783619085
 30
0.0
 10
24.64690881134914
 20
11.97890537819386
 30
0.0
 10
24.63676484961345
 20
11.98151874842694
 30
0.0
 10
24.63269845344849
 20
11.98359141178902
 30
0.0
 10
24.6309511153141
 20
11.98448203916162
 30
0.0
  0
LINE
  5
AD
330
1B
100
AcDbEntity
 67
     1
  8
0
  6
Continuous
 62
     7
370
    25
100
AcDbLine
 10
24.6309511153
 20
11.9844820392
 30
0.0
 11
17.0804120666
 21
16.3433154516
 31
0.0
  0
LINE
  5
AE
330
1B
100
AcDbEntity
 67
     1
  8
0
  6
Continuous
 62
     7
370
    25
100
AcDbLine
 10
24.88025408
 20
12.096741767
 30
0.0
 11
24.6857934574
 21
11.9844820392
 31
0.0
  0
ARC
  5
AF
330
1B
100
AcDbEntity
 67
     1
  8
0
  6
Continuous
 62
     7
370
    25
100
AcDbCircle
 10
24.8952530125
 20
12.0707603988
 30
0.0
 40
0.0300000000000005
100
AcDbArc
 50
60.0026882664
 51
119.9973117337
  0
SPLINE
  5
B0
330
1B
100
AcDbEntity
 67
     1
  8
0
  6
Continuous
 62
     7
370
    25
100
AcDbSpline
210
0.0
220
0.0
230
1.0
 70
     8
 71
     3
 72
    11
 73
     7
 74
     0
 42
0.000000001
 43
0.00000001
 40
0.0
 40
0.0
 40
0.0
 40
0.0
 40
0.1945729004086069
 40
0.5168465907364981
 40
0.8175132414368845
 40
0.9999999999999999
 40
0.9999999999999999
 40
0.9999999999999999
 40
0.9999999999999999
 10
9.07007371627595
 20
13.24952164246604
 30
0.0
 10
9.064190039964515
 20
13.24578701098824
 30
0.0
 10
9.048561152096905
 20
13.23586665957801
 30
0.0
 10
9.030349514424122
 20
13.21542281149079
 30
0.0
 10
9.018359438271046
 20
13.1910945764885
 30
0.0
 10
9.019587018949283
 20
13.175502568856
 30
0.0
 10
9.020050675449582
 20
13.16961347674199
 30
0.0
  0
LINE
  5
B1
330
1B
100
AcDbEntity
 67
     1
  8
0
  6
Continuous
 62
     7
370
    25
100
AcDbLine
 10
9.018339082
 20
13.170786909
 30
0.0
 11
9.0203796366
 21
13.0753498972
 31
0.0
  0
LINE
  5
B2
330
1B
100
AcDbEntity
 67
     1
  8
0
  6
Continuous
 62
     7
370
    25
100
AcDbLine
 10
11.0432351575
 20
14.3886034964
 30
0.0
 11
9.0700737163
 21
13.2495216425
 31
0.0
  0
SPLINE
  5
B3
330
1B
100
AcDbEntity
 67
     1
  8
0
  6
Continuous
 62
     7
370
    25
100
AcDbSpline
210
0.0
220
0.0
230
1.0
 70
     8
 71
     3
 72
    13
 73
     9
 74
     0
 42
0.000000001
 43
0.00000001
 40
0.0
 40
0.0
 40
0.0
 40
0.0
 40
0.1464379556072303
 40
0.3087163901053768
 40
0.4865748718964392
 40
0.6738205691325561
 40
0.8598399478795341
 40
1.0
 40
1.0
 40
1.0
 40
1.0
 10
11.94747691746042
 20
13.91557294627599
 30
0.0
 10
11.94563985420596
 20
13.91464152947662
 30
0.0
 10
11.94176700898657
 20
13.91267794270847
 30
0.0
 10
11.93230414212276
 20
13.91019388900409
 30
0.0
 10
11.92076933994525
 20
13.90911882798996
 30
0.0
 10
11.90859221488926
 20
13.90999618529186
 30
0.0
 10
11.89844815870363
 20
13.91260958365434
 30
0.0
 10
11.89438186926095
 20
13.91468229670705
 30
0.0
 10
11.89263457532918
 20
13.91557294627599
 30
0.0
  0
LINE
  5
B4
330
1B
100
AcDbEntity
 67
     1
  8
0
  6
Continuous
 62
     7
370
    25
100
AcDbLine
 10
14.734237534
 20
15.5243356067
 30
0.0
 11
11.9474769175
 21
13.9155729463
 31
0.0
  0
LINE
  5
B5
330
1B
100
AcDbEntity
 67
     1
  8
0
  6
Continuous
 62
     7
370
    25
100
AcDbLine
 10
11.8926345753
 20
13.9155729463
 30
0.0
 11
11.0732326376
 21
14.3886036162
 31
0.0
  0
ARC
  5
B6
330
1B
100
AcDbEntity
 67
     1
  8
0
  6
Continuous
 62
     7
370
    25
100
AcDbCircle
 10
11.0582339648
 20
14.3626220708
 30
0.0
 40
0.0300000000000011
100
AcDbArc
 50
60.0026882663
 51
119.9973117336
  0
SPLINE
  5
B7
330
1B
100
AcDbEntity
 67
     1
  8
0
  6
Continuous
 62
     7
370
    25
100
AcDbSpline
210
0.0
220
0.0
230
1.0
 70
     8
 71
     3
 72
     9
 73
     5
 74
     0
 42
0.000000001
 43
0.00000001
 40
0.0
 40
0.0
 40
0.0
 40
0.0
 40
0.5453516015130271
 40
1.0
 40
1.0
 40
1.0
 40
1.0
 10
14.73767555119003
 20
15.52688202726863
 30
0.0
 10
14.73763699710665
 20
15.52676803664091
 30
0.0
 10
14.73756630127798
 20
15.52655901437455
 30
0.0
 10
14.73527793574974
 20
15.52503052980538
 30
0.0
 10
14.73423753402717
 20
15.52433560674389
 30
0.0
  0
LINE
  5
B8
330
1B
100
AcDbEntity
 67
     1
  8
0
  6
Continuous
 62
     7
370
    25
100
AcDbLine
 10
13.9148896281
 20
15.992591667
 30
0.0
 11
14.7301291497
 21
15.5219639087
 31
0.0
  0
ARC
  5
B9
330
1B
100
AcDbEntity
 67
     1
  8
0
  6
Continuous
 62
     7
370
    25
100
AcDbCircle
 10
13.9298345148
 20
16.0203617823
 30
0.0
 40
0.0300000000000011
100
AcDbArc
 50
119.9973117337
 51
181.7316054688
  0
LINE
  5
BA
330
1B
100
AcDbEntity
 67
     1
  8
0
  6
Continuous
 62
     7
370
    25
100
AcDbLine
 10
15.8879972449
 20
17.1854251175
 30
0.0
 11
13.9148358037
 21
16.0463432635
 31
0.0
  0
LINE
  5
BB
330
1B
100
AcDbEntity
 67
     1
  8
0
  6
Continuous
 62
     7
370
    25
100
AcDbLine
 10
13.8998480567
 20
16.0194553033
 30
0.0
 11
13.8999020885
 21
16.0176665912
 31
0.0
  0
ARC
  5
BC
330
1B
100
AcDbEntity
 67
     1
  8
0
  6
Continuous
 62
     7
370
    25
100
AcDbCircle
 10
13.929888592
 20
16.0185730099
 30
0.0
 40
0.0300000000000021
100
AcDbArc
 50
181.7316054688
 51
240.0026882664
  0
SPLINE
  5
BD
330
1B
100
AcDbEntity
 67
     1
  8
0
  6
Continuous
 62
     7
370
    25
100
AcDbSpline
210
0.0
220
0.0
230
1.0
 70
     8
 71
     3
 72
     9
 73
     5
 74
     0
 42
0.000000001
 43
0.00000001
 40
0.0
 40
0.0
 40
0.0
 40
0.0
 40
0.5970845919568719
 40
1.0
 40
1.0
 40
1.0
 40
1.0
 10
17.08041206656434
 20
16.34331545162693
 30
0.0
 10
17.07908528414888
 20
16.34425434753747
 30
0.0
 10
17.07686318290337
 20
16.34582681469403
 30
0.0
 10
17.07699979475503
 20
16.34575418541404
 30
0.0
 10
17.07705483777499
 20
16.34572492195806
 30
0.0
  0
ARC
  5
BE
330
1B
100
AcDbEntity
 67
     1
  8
0
  6
Continuous
 62
     7
370
    25
100
AcDbCircle
 10
17.2598740776
 20
16.4785708351
 30
0.0
 40
0.0300000000000011
100
AcDbArc
 50
358.2683945312
 51
0.0
  0
ARC
  5
BF
330
1B
100
AcDbEntity
 67
     1
  8
0
  6
Continuous
 62
     7
370
    25
100
AcDbCircle
 10
17.2598740776
 20
16.4785708351
 30
0.0
 40
0.0300000000000011
100
AcDbArc
 50
0.0
 51
60.0026882664
  0
LINE
  5
C0
330
1B
100
AcDbEntity
 67
     1
  8
0
  6
Continuous
 62
     7
370
    25
100
AcDbLine
 10
17.2888877607
 20
16.4455002298
 30
0.0
 11
17.289860125
 21
16.477664266
 31
0.0
  0
LINE
  5
C1
330
1B
100
AcDbEntity
 67
     1
  8
0
  6
Continuous
 62
     7
370
    25
100
AcDbLine
 10
17.2748731039
 20
16.5045522861
 30
0.0
 11
16.095438765
 21
17.1854252372
 31
0.0
  0
SPLINE
  5
C2
330
1B
100
AcDbEntity
 67
     1
  8
0
  6
Continuous
 62
     7
370
    25
100
AcDbSpline
210
0.0
220
0.0
230
1.0
 70
     8
 71
     3
 72
    13
 73
     9
 74
     0
 42
0.000000001
 43
0.00000001
 40
0.0
 40
0.0
 40
0.0
 40
0.0
 40
0.1058089045072375
 40
0.3007477775784703
 40
0.4951015659437477
 40
0.689586926278584
 40
0.8858456004892328
 40
1.0
 40
1.0
 40
1.0
 40
1.0
 10
16.0954387649556
 20
17.18542523724177
 30
0.0
 10
16.08919313486341
 20
17.18869258576912
 30
0.0
 10
16.07144075968711
 20
17.19797959060821
 30
0.0
 10
16.03683412100412
 20
17.20776314782601
 30
0.0
 10
15.99283400468577
 20
17.21200343788814
 30
0.0
 10
15.94864720006004
 20
17.20814569490367
 30
0.0
 10
15.91313129785196
 20
17.19847696285176
 30
0.0
 10
15.89475509357103
 20
17.18893439615085
 30
0.0
 10
15.88799724494105
 20
17.18542511750329
 30
0.0
  0
SPLINE
  5
C3
330
1B
100
AcDbEntity
 67
     1
  8
0
  6
Continuous
 62
     7
370
    25
100
AcDbSpline
210
0.0
220
0.0
230
1.0
 70
     8
 71
     3
 72
    22
 73
    18
 74
     0
 42
0.000000001
 43
0.00000001
 40
0.0
 40
0.0
 40
0.0
 40
0.0
 40
0.037967138853333
 40
0.1099504650568026
 40
0.1819102845011941
 40
0.253820931491045
 40
0.3256847231618599
 40
0.3975111952533818
 40
0.4693133627507663
 40
0.5411067661875459
 40
0.612906675776764
 40
0.6847242262422689
 40
0.7565755155052878
 40
0.8284765833375697
 40
0.9004428445970616
 40
0.9724849301410606
 40
1.0
 40
1.0
 40
1.0
 40
1.0
 10
18.46469440098126
 20
6.544655029973787
 30
0.0
 10
18.47898173742193
 20
6.536697928007328
 30
0.0
 10
18.52035697225706
 20
6.513654657217391
 30
0.0
 10
18.59516008289504
 20
6.479797244344433
 30
0.0
 10
18.69054427548233
 20
6.445451649799845
 30
0.0
 10
18.79190180902489
 20
6.41767243976665
 30
0.0
 10
18.8978131616715
 20
6.396683075837093
 30
0.0
 10
19.0070150878974
 20
6.382742492422209
 30
0.0
 10
19.11815593880729
 20
6.375997801239991
 30
0.0
 10
19.22987839793122
 20
6.376526228333781
 30
0.0
 10
19.34081206394089
 20
6.384320751799113
 30
0.0
 10
19.44960140943397
 20
6.39929164432647
 30
0.0
 10
19.55490563874891
 20
6.42127697752595
 30
0.0
 10
19.65547476026477
 20
6.450013594846179
 30
0.0
 10
19.74994728774825
 20
6.485262375864747
 30
0.0
 10
19.81954338746136
 20
6.517893486160238
 30
0.0
 10
19.85683866594201
 20
6.538860515048104
 30
0.0
 10
19.86714613393515
 20
6.544655269450731
 30
0.0
  0
LINE
  5
C4
330
1B
100
AcDbEntity
 67
     1
  8
0
  6
Continuous
 62
     7
370
    25
100
AcDbLine
 10
19.8671461339
 20
6.5446552695
 30
0.0
 11
27.2620687302
 21
10.8136532161
 31
0.0
  0
LINE
  5
C5
330
1B
100
AcDbEntity
 67
     1
  8
0
  6
Continuous
 62
     7
370
    25
100
AcDbLine
 10
7.8976904704
 20
12.6448565527
 30
0.0
 11
18.464694401
 21
6.54465503
 31
0.0
  0
SPLINE
  5
C6
330
1B
100
AcDbEntity
 67
     1
  8
0
  6
Continuous
 62
     7
370
    25
100
AcDbSpline
210
0.0
220
0.0
230
1.0
 70
     8
 71
     3
 72
    15
 73
    11
 74
     0
 42
0.000000001
 43
0.00000001
 40
0.0
 40
0.0
 40
0.0
 40
0.0
 40
0.0678545412625809
 40
0.198683791591366
 40
0.3318476139900933
 40
0.4670679940378699
 40
0.6033048704135873
 40
0.739294498483643
 40
0.8735914867611206
 40
1.0
 40
1.0
 40
1.0
 40
1.0
 10
19.33197325037012
 20
7.314313898530247
 30
0.0
 10
19.32642676606659
 20
7.311311673234673
 30
0.0
 10
19.31018619453047
 20
7.302520905603845
 30
0.0
 10
19.27616322690542
 20
7.289935326071379
 30
0.0
 10
19.2295023946746
 20
7.279540560838074
 30
0.0
 10
19.17848972314559
 20
7.274888737879034
 30
0.0
 10
19.12639156508851
 20
7.276527328987531
 30
0.0
 10
19.07683878579014
 20
7.284414985278078
 30
0.0
 10
19.03280460488791
 20
7.297379532376093
 30
0.0
 10
19.01062294227122
 20
7.308784137357578
 30
0.0
 10
18.99986769937748
 20
7.314313898530247
 30
0.0
  0
LINE
  5
C7
330
1B
100
AcDbEntity
 67
     1
  8
0
  6
Continuous
 62
     7
370
    25
100
AcDbLine
 10
18.9998676994
 20
7.3143138985
 30
0.0
 11
9.0112769959
 21
13.0806045727
 31
0.0
  0
LINE
  5
C8
330
1B
100
AcDbEntity
 67
     1
  8
0
  6
Continuous
 62
     7
370
    25
100
AcDbLine
 10
26.1484826195
 20
11.2494009967
 30
0.0
 11
19.3319732504
 21
7.3143138985
 31
0.0
  0
ARC
  5
C9
330
1B
100
AcDbEntity
 67
     1
  8
0
  6
Continuous
 62
     7
370
    25
100
AcDbCircle
 10
19.5835657446
 20
7.4415241113
 30
0.0
 40
0.0300000000000009
100
AcDbArc
 50
119.9973117336
 51
176.5388945674
  0
LINE
  5
CA
330
1B
100
AcDbEntity
 67
     1
  8
0
  6
Continuous
 62
     7
370
    25
100
AcDbLine
 10
19.5536204569
 20
7.4433353629
 30
0.0
 11
19.5535536691
 21
7.442229593
 31
0.0
  0
LINE
  5
CB
330
1B
100
AcDbEntity
 67
     1
  8
0
  6
Continuous
 62
     7
370
    25
100
AcDbLine
 10
19.6246829059
 20
7.4999008351
 30
0.0
 11
19.5685668246
 21
7.4675057109
 31
0.0
  0
ARC
  5
CC
330
1B
100
AcDbEntity
 67
     1
  8
0
  6
Continuous
 62
     7
370
    25
100
AcDbCircle
 10
19.6396818613
 20
7.4739192559
 30
0.0
 40
0.0300000000000012
100
AcDbArc
 50
61.3651954668
 51
119.9973117337
  0
ARC
  5
CD
330
1B
100
AcDbEntity
 67
     1
  8
0
  6
Continuous
 62
     7
370
    25
100
AcDbCircle
 10
18.147686553
 20
6.7486996226
 30
0.0
 40
0.0299999999999993
100
AcDbArc
 50
240.0026882664
 51
292.6021914419
  0
LINE
  5
CE
330
1B
100
AcDbEntity
 67
     1
  8
0
  6
Continuous
 62
     7
370
    25
100
AcDbLine
 10
9.1785680424
 20
11.8918213043
 30
0.0
 11
18.1326875798
 21
6.7227181229
 31
0.0
  0
SPLINE
  5
CF
330
1B
100
AcDbEntity
 67
     1
  8
0
  6
Continuous
 62
     7
370
    25
100
AcDbSpline
210
0.0
220
0.0
230
1.0
 70
     8
 71
     3
 72
    11
 73
     7
 74
     0
 42
0.000000001
 43
0.00000001
 40
0.0
 40
0.0
 40
0.0
 40
0.0
 40
0.2570283102851131
 40
0.5392489648528735
 40
0.8227999336989901
 40
1.0
 40
1.0
 40
1.0
 40
1.0
 10
27.48063498551791
 20
11.56934209440347
 30
0.0
 10
27.46667234406119
 20
11.5877358250341
 30
0.0
 10
27.4373785283574
 20
11.6263261273683
 30
0.0
 10
27.37911539792493
 20
11.68045474968361
 30
0.0
 10
27.31899997166714
 20
11.72591898859937
 30
0.0
 10
27.2767457937719
 20
11.75134058055196
 30
0.0
 10
27.2604952754803
 20
11.7611174609838
 30
0.0
  0
LINE
  5
D0
330
1B
100
AcDbEntity
 67
     1
  8
0
  6
Continuous
 62
     7
370
    25
100
AcDbLine
 10
27.5612337812
 20
11.2433400963
 30
0.0
 11
27.5590086267
 21
11.3474332512
 31
0.0
  0
SPLINE
  5
D1
330
1B
100
AcDbEntity
 67
     1
  8
0
  6
Continuous
 62
     7
370
    25
100
AcDbSpline
210
0.0
220
0.0
230
1.0
 70
     8
 71
     3
 72
    12
 73
     8
 74
     0
 42
0.000000001
 43
0.00000001
 40
0.0
 40
0.0
 40
0.0
 40
0.0
 40
0.1388396221998872
 40
0.4024601435460714
 40
0.6662239917088848
 40
0.9295181362445492
 40
0.9999999999999999
 40
0.9999999999999999
 40
0.9999999999999999
 40
0.9999999999999999
 10
27.26206873016929
 20
10.81365321608041
 30
0.0
 10
27.27587500782486
 20
10.82191854461109
 30
0.0
 10
27.31589583472612
 20
10.84587759357856
 30
0.0
 10
27.37538842502464
 20
10.88948259380586
 30
0.0
 10
27.43535927183159
 20
10.94581735808889
 30
0.0
 10
27.47495660352228
 20
10.99082985142547
 30
0.0
 10
27.49052089823872
 20
11.01778309275338
 30
0.0
 10
27.49380753500231
 20
11.02347467823541
 30
0.0
  0
ARC
  5
D2
330
1B
100
AcDbEntity
 67
     1
  8
0
  6
Continuous
 62
     7
370
    25
100
AcDbCircle
 10
25.6363997915
 20
10.9357508299
 30
0.0
 40
0.030000000000001
100
AcDbArc
 50
119.9973117336
 51
176.5388945674
  0
LINE
  5
D3
330
1B
100
AcDbEntity
 67
     1
  8
0
  6
Continuous
 62
     7
370
    25
100
AcDbLine
 10
25.6064544432
 20
10.9375620464
 30
0.0
 11
25.6063878628
 21
10.9364563963
 31
0.0
  0
LINE
  5
D4
330
1B
100
AcDbEntity
 67
     1
  8
0
  6
Continuous
 62
     7
370
    25
100
AcDbLine
 10
25.6775168921
 20
10.9941275186
 30
0.0
 11
25.6214008108
 21
10.9617323945
 31
0.0
  0
ARC
  5
D5
330
1B
100
AcDbEntity
 67
     1
  8
0
  6
Continuous
 62
     7
370
    25
100
AcDbCircle
 10
25.6925159082
 20
10.9681459745
 30
0.0
 40
0.0299999999999992
100
AcDbArc
 50
61.3651954668
 51
119.9973117336
  0
SPLINE
  5
D6
330
1B
100
AcDbEntity
 67
     1
  8
0
  6
Continuous
 62
     7
370
    25
100
AcDbSpline
210
0.0
220
0.0
230
1.0
 70
     8
 71
     3
 72
    11
 73
     7
 74
     0
 42
0.000000001
 43
0.00000001
 40
0.0
 40
0.0
 40
0.0
 40
0.0
 40
0.2638253961664117
 40
0.5321008346429552
 40
0.7897223943872793
 40
1.0
 40
1.0
 40
1.0
 40
1.0
 10
26.19334121949632
 20
11.29798566331516
 30
0.0
 10
26.19331653559653
 20
11.29605401289545
 30
0.0
 10
26.19326675144431
 20
11.29215813018095
 30
0.0
 10
26.18640717289367
 20
11.27974649213624
 30
0.0
 10
26.17164787999461
 20
11.26413242625783
 30
0.0
 10
26.15566531246276
 20
11.25396866968343
 30
0.0
 10
26.14848261952169
 20
11.24940099665741
 30
0.0
  0
LINE
  5
D7
330
1B
100
AcDbEntity
 67
     1
  8
0
  6
Continuous
 62
     7
370
    25
100
AcDbLine
 10
27.2604952755
 20
11.761117461
 30
0.0
 11
16.6934913449
 21
17.8613189837
 31
0.0
  0
SPLINE
  5
D8
330
1B
100
AcDbEntity
 67
     1
  8
0
  6
Continuous
 62
     7
370
    25
100
AcDbSpline
210
0.0
220
0.0
230
1.0
 70
     8
 71
     3
 72
    10
 73
     6
 74
     0
 42
0.000000001
 43
0.00000001
 40
0.0
 40
0.0
 40
0.0
 40
0.0
 40
0.3728093461415009
 40
0.718571385755583
 40
1.0
 40
1.0
 40
1.0
 40
1.0
 10
24.99979141974777
 20
12.13313032999616
 30
0.0
 10
24.99249893213945
 20
12.12814772166922
 30
0.0
 10
24.97844302667315
 20
12.11854399309529
 30
0.0
 10
24.9655612321944
 20
12.09775394926137
 30
0.0
 10
24.96327704552609
 20
12.0830741786905
 30
0.0
 10
24.96225210122123
 20
12.07648717446177
 30
0.0
  0
LINE
  5
D9
330
1B
100
AcDbEntity
 67
     1
  8
0
  6
Continuous
 62
     7
370
    25
100
AcDbLine
 10
25.1814978501
 20
12.2382659669
 30
0.0
 11
24.9995661664
 21
12.1332390415
 31
0.0
  0
LINE
  5
DA
330
1B
100
AcDbEntity
 67
     1
  8
0
  6
Continuous
 62
     7
370
    25
100
AcDbLine
 10
24.9622521012
 20
12.0764871745
 30
0.0
 11
24.9616812935
 21
12.0670522102
 31
0.0
  0
SPLINE
  5
DB
330
1B
100
AcDbEntity
 67
     1
  8
0
  6
Continuous
 62
     7
370
    25
100
AcDbSpline
210
0.0
220
0.0
230
1.0
 70
     8
 71
     3
 72
     9
 73
     5
 74
     0
 42
0.000000001
 43
0.00000001
 40
0.0
 40
0.0
 40
0.0
 40
0.0
 40
0.2462371828550763
 40
1.0
 40
1.0
 40
1.0
 40
1.0
 10
25.18510397755377
 20
12.24052394502101
 30
0.0
 10
25.18526299753598
 20
12.240705676372
 30
0.0
 10
25.18590879757467
 20
12.24144371012013
 30
0.0
 10
25.18339366412629
 20
12.2396317528788
 30
0.0
 10
25.18149785005274
 20
12.23826596688403
 30
0.0
  0
SPLINE
  5
DC
330
1B
100
AcDbEntity
 67
     1
  8
0
  6
Continuous
 62
     7
370
    25
100
AcDbSpline
210
0.0
220
0.0
230
1.0
 70
     8
 71
     3
 72
    12
 73
     8
 74
     0
 42
0.000000001
 43
0.00000001
 40
0.0
 40
0.0
 40
0.0
 40
0.0
 40
0.1476084919603443
 40
0.4278798796779358
 40
0.7083030209269282
 40
0.9882251947607864
 40
1.0
 40
1.0
 40
1.0
 40
1.0
 10
7.89926433990431
 20
13.5923210370475
 30
0.0
 10
7.885475517052667
 20
13.58406381766354
 30
0.0
 10
7.845505188894003
 20
13.56012821619806
 30
0.0
 10
7.786002594568994
 20
13.51658739973851
 30
0.0
 10
7.72646655699348
 20
13.4602062270545
 30
0.0
 10
7.689990462002026
 20
13.41994409132119
 30
0.0
 10
7.67692454116826
 20
13.39788986462068
 30
0.0
 10
7.676397114817882
 20
13.39699961123196
 30
0.0
  0
LINE
  5
DD
330
1B
100
AcDbEntity
 67
     1
  8
0
  6
Continuous
 62
     7
370
    25
100
AcDbLine
 10
7.6007509887
 20
13.1786363483
 30
0.0
 11
7.5985254194
 21
13.0745434329
 31
0.0
  0
SPLINE
  5
DE
330
1B
100
AcDbEntity
 67
     1
  8
0
  6
Continuous
 62
     7
370
    25
100
AcDbSpline
210
0.0
220
0.0
230
1.0
 70
     8
 71
     3
 72
    12
 73
     8
 74
     0
 42
0.000000001
 43
0.00000001
 40
0.0
 40
0.0
 40
0.0
 40
0.0
 40
0.0520404666229459
 40
0.310518793254165
 40
0.5708642009448889
 40
0.8324428469873605
 40
1.0
 40
1.0
 40
1.0
 40
1.0
 10
7.665264290275688
 20
12.85530532750517
 30
0.0
 10
7.667657182524002
 20
12.85108110984445
 30
0.0
 10
7.681935263824017
 20
12.8258757445668
 30
0.0
 10
7.719342550375191
 20
12.7825529132193
 30
0.0
 10
7.777586953965872
 20
12.72634952770368
 30
0.0
 10
7.838387621808032
 20
12.68061300142491
 30
0.0
 10
7.881037656841555
 20
12.65489730936611
 30
0.0
 10
7.897690470384126
 20
12.64485655266716
 30
0.0
  0
ARC
  5
DF
330
1B
100
AcDbEntity
 67
     1
  8
0
  6
Continuous
 62
     7
370
    25
100
AcDbCircle
 10
9.1935669017
 20
11.9178028698
 30
0.0
 40
0.0300000000000016
100
AcDbArc
 50
187.4031850908
 51
240.0026882663
  0
SPLINE
  5
E0
330
1B
100
AcDbEntity
 67
     1
  8
0
  6
Continuous
 62
     7
370
    25
100
AcDbSpline
210
0.0
220
0.0
230
1.0
 70
     8
 71
     3
 72
    12
 73
     8
 74
     0
 42
0.000000001
 43
0.00000001
 40
0.0
 40
0.0
 40
0.0
 40
0.0
 40
0.1423268478715921
 40
0.4113452846895333
 40
0.6823512430836807
 40
0.9692270069368082
 40
1.0
 40
1.0
 40
1.0
 40
1.0
 10
9.011276995862914
 20
13.08060457272111
 30
0.0
 10
9.006299596934355
 20
13.0836761059142
 30
0.0
 10
8.991914190316425
 20
13.09255328344349
 30
0.0
 10
8.97583305762444
 20
13.10751498768433
 30
0.0
 10
8.967361666972364
 20
13.12178314162242
 30
0.0
 10
8.965545723697458
 20
13.12664040057248
 30
0.0
 10
8.96607696372426
 20
13.1294155669914
 30
0.0
 10
8.966128428889178
 20
13.12968441796311
 30
0.0
  0
LINE
  5
E1
330
1B
100
AcDbEntity
 67
     1
  8
0
  6
Continuous
 62
     7
370
    25
100
AcDbLine
 10
15.2941869361
 20
17.8613189837
 30
0.0
 11
7.8992643399
 21
13.592321037
 31
0.0
  0
SPLINE
  5
E2
330
1B
100
AcDbEntity
 67
     1
  8
0
  6
Continuous
 62
     7
370
    25
100
AcDbSpline
210
0.0
220
0.0
230
1.0
 70
     8
 71
     3
 72
    22
 73
    18
 74
     0
 42
0.000000001
 43
0.00000001
 40
0.0
 40
0.0
 40
0.0
 40
0.0
 40
0.0380108395737868
 40
0.110076678121861
 40
0.1821183485374767
 40
0.2541113926032513
 40
0.3260570803581215
 40
0.3979653142355539
 40
0.4698492054372267
 40
0.5417245750838543
 40
0.6136063665679446
 40
0.6855057990092146
 40
0.7574397297495297
 40
0.8294240997566441
 40
0.901473457050551
 40
0.9735994823516338
 40
1.0
 40
1.0
 40
1.0
 40
1.0
 10
16.69349134488317
 20
17.86131898367718
 30
0.0
 10
16.67921921120161
 20
17.86926733385349
 30
0.0
 10
16.63788813083104
 20
17.89228518859621
 30
0.0
 10
16.56315874198964
 20
17.92609967856342
 30
0.0
 10
16.46786412358592
 20
17.96039300589407
 30
0.0
 10
16.36660020463587
 20
17.98811873730683
 30
0.0
 10
16.26078752618062
 20
18.00905309733087
 30
0.0
 10
16.15169146344119
 20
18.02293715887297
 30
0.0
 10
16.04066512152954
 20
18.02962463964736
 30
0.0
 10
15.92906746608252
 20
18.02903797379589
 30
0.0
 10
15.81827040867354
 20
18.02118599247707
 30
0.0
 10
15.70963081152071
 20
18.00615842965628
 30
0.0
 10
15.60448956612382
 20
17.98411900457145
 30
0.0
 10
15.50410010973414
 20
17.95532943851893
 30
0.0
 10
15.40981885503943
 20
17.92003499809528
 30
0.0
 10
15.34085925431609
 20
17.88758403212448
 30
0.0
 10
15.30405007830991
 20
17.866869509494
 30
0.0
 10
15.29418693613845
 20
17.86131898367718
 30
0.0
  0
ARC
  5
E3
330
1B
100
AcDbEntity
 67
     1
  8
0
  6
Continuous
 62
     7
370
    25
100
AcDbCircle
 10
12.5150351965
 20
15.2146016662
 30
0.0
 40
0.0300000000000007
100
AcDbArc
 50
119.9067141541
 51
166.3169272357
  0
LINE
  5
E4
330
1B
100
AcDbEntity
 67
     1
  8
0
  6
Continuous
 62
     7
370
    25
100
AcDbLine
 10
12.6227569729
 20
15.3111695457
 30
0.0
 11
12.5000774976
 21
15.2406068271
 31
0.0
  0
LINE
  5
E5
330
1B
100
AcDbEntity
 67
     1
  8
0
  6
Continuous
 62
     7
370
    25
100
AcDbLine
 10
13.9273894251
 20
15.9853756197
 30
0.0
 11
12.6231717912
 21
15.3113961923
 31
0.0
  0
LINE
  5
E6
330
1B
100
AcDbEntity
 67
     1
  8
0
  6
Continuous
 62
     7
370
    25
100
AcDbLine
 10
22.5979815175
 20
9.199740624
 30
0.0
 11
22.6628184506
 21
9.2410940276
 31
0.0
  0
LINE
  5
E7
330
1B
100
AcDbEntity
 67
     1
  8
0
  6
Continuous
 62
     7
370
    25
100
AcDbLine
 10
20.7916386042
 20
8.1742556722
 30
0.0
 11
20.8066177435
 21
8.1656083991
 31
0.0
  0
LINE
  5
E8
330
1B
100
AcDbEntity
 67
     1
  8
0
  6
Continuous
 62
     7
370
    25
100
AcDbLine
 10
21.1322848034
 20
8.3602855042
 30
0.0
 11
21.1380650611
 21
8.3569486324
 31
0.0
  0
SPLINE
  5
E9
330
1B
100
AcDbEntity
 67
     1
  8
0
  6
Continuous
 62
     7
370
    25
100
AcDbSpline
210
0.0
220
0.0
230
1.0
 70
     8
 71
     3
 72
     9
 73
     5
 74
     0
 42
0.000000001
 43
0.00000001
 40
0.0
 40
0.0
 40
0.0
 40
0.0
 40
0.6818137846071589
 40
1.0
 40
1.0
 40
1.0
 40
1.0
 10
21.13243217216233
 20
8.360317922040183
 30
0.0
 10
21.13235005066982
 20
8.360282174843453
 30
0.0
 10
21.13222960503736
 20
8.360229745283451
 30
0.0
 10
21.1321831279094
 20
8.360413558954704
 30
0.0
 10
21.13216833952795
 20
8.360472045931097
 30
0.0
  0
LINE
  5
EA
330
1B
100
AcDbEntity
 67
     1
  8
0
  6
Continuous
 62
     7
370
    25
100
AcDbLine
 10
21.7035461723
 20
9.7422805621
 30
0.0
 11
20.4769527481
 21
8.959951572
 31
0.0
  0
ARC
  5
EB
330
1B
100
AcDbEntity
 67
     1
  8
0
  6
Continuous
 62
     7
370
    25
100
AcDbCircle
 10
22.6447244189
 20
9.3234678594
 30
0.0
 40
0.0300000000000014
100
AcDbArc
 50
6.2183171447
 51
60.0026882663
  0
LINE
  5
EC
330
1B
100
AcDbEntity
 67
     1
  8
0
  6
Continuous
 62
     7
370
    25
100
AcDbLine
 10
22.6786653276
 20
9.2889275125
 30
0.0
 11
22.6745478447
 21
9.3267174125
 31
0.0
  0
LINE
  5
ED
330
1B
100
AcDbEntity
 67
     1
  8
0
  6
Continuous
 62
     7
370
    25
100
AcDbLine
 10
22.6597233388
 20
9.349449245
 30
0.0
 11
21.8561617299
 21
9.8133354877
 31
0.0
  0
SPLINE
  5
EE
330
1B
100
AcDbEntity
 67
     1
  8
0
  6
Continuous
 62
     7
370
    25
100
AcDbSpline
210
0.0
220
0.0
230
1.0
 70
     8
 71
     3
 72
    11
 73
     7
 74
     0
 42
0.000000001
 43
0.00000001
 40
0.0
 40
0.0
 40
0.0
 40
0.0
 40
0.0501429945104659
 40
0.3654175490194316
 40
0.6712967504427217
 40
1.0
 40
1.0
 40
1.0
 40
1.0
 10
22.66204350541529
 20
9.240968784347363
 30
0.0
 10
22.66267701885538
 20
9.241241250640286
 30
0.0
 10
22.66729375407051
 20
9.24322685133931
 30
0.0
 10
22.67363306003522
 20
9.250421361852737
 30
0.0
 10
22.68007294249314
 20
9.262043270350093
 30
0.0
 10
22.68010912877598
 20
9.27091081670693
 30
0.0
 10
22.68012787267402
 20
9.275504059552818
 30
0.0
  0
LINE
  5
EF
330
1B
100
AcDbEntity
 67
     1
  8
0
  6
Continuous
 62
     7
370
    25
100
AcDbLine
 10
21.826123186
 20
9.8133116045
 30
0.0
 11
21.7038920508
 21
9.742490916
 31
0.0
  0
ARC
  5
F0
330
1B
100
AcDbEntity
 67
     1
  8
0
  6
Continuous
 62
     7
370
    25
100
AcDbCircle
 10
21.8411629977
 20
9.7873539938
 30
0.0
 40
0.0300000000000002
100
AcDbArc
 50
60.0026882664
 51
120.0880750686
  0
LINE
  5
F1
330
1B
100
AcDbEntity
 67
     1
  8
0
  6
Continuous
 62
     7
370
    25
100
AcDbLine
 10
17.2043953596
 20
16.4079450542
 30
0.0
 11
17.2008603756
 21
16.4059037721
 31
0.0
  0
LINE
  5
F2
330
1B
100
AcDbEntity
 67
     1
  8
0
  6
Continuous
 62
     7
370
    25
100
AcDbLine
 10
24.8038071223
 20
12.0526099786
 30
0.0
 11
24.7932782919
 21
12.0586881429
 31
0.0
  0
LINE
  5
F3
330
1B
100
AcDbEntity
 67
     1
  8
0
  6
Continuous
 62
     7
370
    25
100
AcDbLine
 10
24.7463963528
 20
12.0540405562
 30
0.0
 11
24.7428613689
 21
12.0519992741
 31
0.0
  0
LINE
  5
F4
330
1B
100
AcDbEntity
 67
     1
  8
0
  6
Continuous
 62
     7
370
    25
100
AcDbLine
 10
17.4681462722
 20
16.5602052151
 30
0.0
 11
17.4646110808
 21
16.5581638133
 31
0.0
  0
LINE
  5
F5
330
1B
100
AcDbEntity
 67
     1
  8
0
  6
Continuous
 62
     7
370
    25
100
AcDbLine
 10
25.0853134319
 20
12.1946204064
 30
0.0
 11
25.057029412
 21
12.2109484236
 31
0.0
  0
LINE
  5
F6
330
1B
100
AcDbEntity
 67
     1
  8
0
  6
Continuous
 62
     7
370
    25
100
AcDbLine
 10
25.0101472655
 20
12.2063007171
 30
0.0
 11
25.0066120741
 21
12.2042593153
 31
0.0
  0
LINE
  5
F7
330
1B
100
AcDbEntity
 67
     1
  8
0
  6
Continuous
 62
     7
370
    25
100
AcDbLine
 10
24.9438667831
 20
12.0955692348
 30
0.0
 11
24.9438667831
 21
12.0914871108
 31
0.0
  0
LINE
  5
F8
330
1B
100
AcDbEntity
 67
     1
  8
0
  6
Continuous
 62
     7
370
    25
100
AcDbLine
 10
25.0970278498
 20
12.2740992197
 30
0.0
 11
17.5903820888
 21
16.6075935765
 31
0.0
  0
SPLINE
  5
F9
330
1B
100
AcDbEntity
 67
     1
  8
0
  6
Continuous
 62
     7
370
    25
100
AcDbSpline
210
0.0
220
0.0
230
1.0
 70
     8
 71
     3
 72
    10
 73
     6
 74
     0
 42
0.000000001
 43
0.00000001
 40
0.0
 40
0.0
 40
0.0
 40
0.0
 40
0.2948186756468014
 40
0.8782295094750842
 40
0.9999999999999999
 40
0.9999999999999999
 40
0.9999999999999999
 40
0.9999999999999999
 10
22.67597010659122
 20
9.256111041591279
 30
0.0
 10
22.67773918682041
 20
9.255804148214905
 30
0.0
 10
22.68300906485135
 20
9.254889949618759
 30
0.0
 10
22.68933937744866
 20
9.256344780290021
 30
0.0
 10
22.69293765978601
 20
9.258679427817398
 30
0.0
 10
22.69355901005456
 20
9.2590825740222
 30
0.0
  0
LINE
  5
FA
330
1B
100
AcDbEntity
 67
     1
  8
0
  6
Continuous
 62
     7
370
    25
100
AcDbLine
 10
22.6934033333
 20
9.2587391123
 30
0.0
 11
22.7580603415
 21
9.2921518528
 31
0.0
  0
ARC
  5
FB
330
1B
100
AcDbEntity
 67
     1
  8
0
  6
Continuous
 62
     7
370
    25
100
AcDbCircle
 10
21.8787427785
 20
9.8090483395
 30
0.0
 40
0.0300000000000002
100
AcDbArc
 50
119.9067141541
 51
166.3169272359
  0
LINE
  5
FC
330
1B
100
AcDbEntity
 67
     1
  8
0
  6
Continuous
 62
     7
370
    25
100
AcDbLine
 10
21.9864642302
 20
9.9056164065
 30
0.0
 11
21.8637851697
 21
9.8350534484
 31
0.0
  0
LINE
  5
FD
330
1B
100
AcDbEntity
 67
     1
  8
0
  6
Continuous
 62
     7
370
    25
100
AcDbLine
 10
23.2910970972
 20
10.579822241
 30
0.0
 11
21.9868794633
 21
9.9058428137
 31
0.0
  0
SPLINE
  5
FE
330
1B
100
AcDbEntity
 67
     1
  8
0
  6
Continuous
 62
     7
370
    25
100
AcDbSpline
210
0.0
220
0.0
230
1.0
 70
     8
 71
     3
 72
    11
 73
     7
 74
     0
 42
0.000000001
 43
0.00000001
 40
0.0
 40
0.0
 40
0.0
 40
0.0
 40
0.3025153634692941
 40
0.6060321609545133
 40
0.8965263432580216
 40
0.9999999999999999
 40
0.9999999999999999
 40
0.9999999999999999
 40
0.9999999999999999
 10
24.14515745457455
 20
10.0964566143134
 30
0.0
 10
24.14483026171291
 20
10.10008387694985
 30
0.0
 10
24.14417479286427
 20
10.10735040975898
 30
0.0
 10
24.13853242665759
 20
10.11672679237791
 30
0.0
 10
24.13252006251039
 20
10.12250446668469
 30
0.0
 10
24.12854658023414
 20
10.12494824648567
 30
0.0
 10
24.1275029652474
 20
10.12559009286809
 30
0.0
  0
LINE
  5
FF
330
1B
100
AcDbEntity
 67
     1
  8
0
  6
Continuous
 62
     7
370
    25
100
AcDbLine
 10
24.145476356
 20
10.0930902453
 30
0.0
 11
24.145431658
 21
10.0961377353
 31
0.0
  0
LINE
  5
100
330
1B
100
AcDbEntity
 67
     1
  8
0
  6
Continuous
 62
     7
370
    25
100
AcDbLine
 10
24.1275029652
 20
10.1255900929
 30
0.0
 11
24.1268736663
 21
10.1259533794
 31
0.0
  0
LINE
  5
101
330
1B
100
AcDbEntity
 67
     1
  8
0
  6
Continuous
 62
     7
370
    25
100
AcDbLine
 10
24.2961957264
 20
10.1800988695
 30
0.0
 11
24.2998559894
 21
10.2155186735
 31
0.0
  0
LINE
  5
102
330
1B
100
AcDbEntity
 67
     1
  8
0
  6
Continuous
 62
     7
370
    25
100
AcDbLine
 10
12.3398385002
 20
15.1478339407
 30
0.0
 11
11.113245076
 21
14.3655049507
 31
0.0
  0
ARC
  5
103
330
1B
100
AcDbEntity
 67
     1
  8
0
  6
Continuous
 62
     7
370
    25
100
AcDbCircle
 10
13.2810168368
 20
14.7290211861
 30
0.0
 40
0.0300000000000016
100
AcDbArc
 50
6.2183171447
 51
60.0026882663
  0
LINE
  5
104
330
1B
100
AcDbEntity
 67
     1
  8
0
  6
Continuous
 62
     7
370
    25
100
AcDbLine
 10
13.3138792226
 20
14.7043802331
 30
0.0
 11
13.3108401726
 21
14.7322707912
 31
0.0
  0
LINE
  5
105
330
1B
100
AcDbEntity
 67
     1
  8
0
  6
Continuous
 62
     7
370
    25
100
AcDbLine
 10
13.2960156667
 20
14.7550026236
 30
0.0
 11
12.4924540578
 21
15.2188888663
 31
0.0
  0
LINE
  5
106
330
1B
100
AcDbEntity
 67
     1
  8
0
  6
Continuous
 62
     7
370
    25
100
AcDbLine
 10
12.4624155138
 20
15.2188649832
 30
0.0
 11
12.3401843786
 21
15.1480442946
 31
0.0
  0
ARC
  5
107
330
1B
100
AcDbEntity
 67
     1
  8
0
  6
Continuous
 62
     7
370
    25
100
AcDbCircle
 10
12.4774554156
 20
15.1929073205
 30
0.0
 40
0.0299999999999993
100
AcDbArc
 50
60.0026882664
 51
120.0880750686
  0
LINE
  5
108
330
1B
100
AcDbEntity
 67
     1
  8
0
  6
Continuous
 62
     7
370
    25
100
AcDbLine
 10
16.4464217276
 20
9.946293228
 30
0.0
 11
15.9215358278
 21
9.6432830478
 31
0.0
  0
ELLIPSE
  5
109
330
1B
100
AcDbEntity
 67
     1
  8
0
  6
Continuous
 62
     7
370
    25
100
AcDbEllipse
 10
15.897610382
 20
9.4778833642
 30
0.0
 11
0.1278233675168288
 21
0.2148684482038589
 31
0.0
210
0.0
220
0.0
230
1.0
 40
0.5684480809
 41
0.7927654316784623
 42
1.560710302555968
  0
ARC
  5
10A
330
1B
100
AcDbEntity
 67
     1
  8
0
  6
Continuous
 62
     7
370
    25
100
AcDbCircle
 10
15.8755844594
 20
9.6416965812
 30
0.0
 40
0.0459787465355862
100
AcDbArc
 50
1.9773459926
 51
57.4453170378
  0
LINE
  5
10B
330
1B
100
AcDbEntity
 67
     1
  8
0
  6
Continuous
 62
     7
370
    25
100
AcDbLine
 10
15.7767642033
 20
9.5527076755
 30
0.0
 11
12.9548173981
 21
11.1817828903
 31
0.0
  0
ELLIPSE
  5
10C
330
1B
100
AcDbEntity
 67
     1
  8
0
  6
Continuous
 62
     7
370
    25
100
AcDbEllipse
 10
13.0795702092
 20
11.1047033282
 30
0.0
 11
0.122060434467409
 21
0.2181942717946121
 31
0.0
210
0.0
220
0.0
230
1.0
 40
0.5861787016
 41
0.7773964415412725
 42
1.545341312418779
  0
LINE
  5
10D
330
1B
100
AcDbEntity
 67
     1
  8
0
  6
Continuous
 62
     7
370
    25
100
AcDbLine
 10
13.0768549254
 20
11.3104061203
 30
0.0
 11
15.9003258204
 21
9.6804510672
 31
0.0
  0
LINE
  5
10E
330
1B
100
AcDbEntity
 67
     1
  8
0
  6
Continuous
 62
     7
370
    25
100
AcDbLine
 10
12.9548173981
 20
11.1817828903
 30
0.0
 11
12.9232540339
 21
11.127135606
 31
0.0
  0
LINE
  5
10F
330
1B
100
AcDbEntity
 67
     1
  8
0
  6
Continuous
 62
     7
370
    25
100
AcDbLine
 10
15.9003258204
 20
9.6804510672
 30
0.0
 11
16.4252150388
 21
9.9834631633
 31
0.0
  0
ARC
  5
110
330
1B
100
AcDbEntity
 67
     1
  8
0
  6
Continuous
 62
     7
370
    25
100
AcDbCircle
 10
16.4004731151
 20
9.9447081993
 30
0.0
 40
0.0459794521958761
100
AcDbArc
 50
1.9824845078
 51
57.4450464097
  0
LINE
  5
111
330
1B
100
AcDbEntity
 67
     1
  8
0
  6
Continuous
 62
     7
370
    25
100
AcDbLine
 10
16.4464216867
 20
9.9462932337
 30
0.0
 11
16.4464249732
 21
9.9462987336
 31
0.0
  0
LINE
  5
112
330
1B
100
AcDbEntity
 67
     1
  8
0
  6
Continuous
 62
     7
370
    25
100
AcDbLine
 10
14.3512739778
 20
10.6451600054
 30
0.0
 11
14.374119159
 21
10.631971763
 31
0.0
  0
LINE
  5
113
330
1B
100
AcDbEntity
 67
     1
  8
0
  6
Continuous
 62
     7
370
    25
100
AcDbLine
 10
14.374119159
 20
10.631971763
 30
0.0
 11
14.4789652523
 21
10.6924981243
 31
0.0
  0
LINE
  5
114
330
1B
100
AcDbEntity
 67
     1
  8
0
  6
Continuous
 62
     7
370
    25
100
AcDbLine
 10
14.4789652523
 20
10.6924981243
 30
0.0
 11
14.4561200711
 21
10.7056863667
 31
0.0
  0
LINE
  5
115
330
1B
100
AcDbEntity
 67
     1
  8
0
  6
Continuous
 62
     7
370
    25
100
AcDbLine
 10
14.4561200711
 20
10.7056863667
 30
0.0
 11
14.3512739778
 21
10.6451600054
 31
0.0
  0
LINE
  5
116
330
1B
100
AcDbEntity
 67
     1
  8
0
  6
Continuous
 62
     7
370
    25
100
AcDbLine
 10
14.6480094792
 20
10.5624386138
 30
0.0
 11
14.571288318
 21
10.5181484302
 31
0.0
  0
LINE
  5
117
330
1B
100
AcDbEntity
 67
     1
  8
0
  6
Continuous
 62
     7
370
    25
100
AcDbLine
 10
14.571288318
 20
10.5181484302
 30
0.0
 11
14.5957735182
 21
10.5040134251
 31
0.0
  0
LINE
  5
118
330
1B
100
AcDbEntity
 67
     1
  8
0
  6
Continuous
 62
     7
370
    25
100
AcDbLine
 10
14.5957735182
 20
10.5040134251
 30
0.0
 11
14.6349037143
 21
10.5266028065
 31
0.0
  0
SPLINE
  5
119
330
1B
100
AcDbEntity
 67
     1
  8
0
  6
Continuous
 62
     7
370
    25
100
AcDbSpline
210
0.0
220
0.0
230
1.0
 70
     8
 71
     3
 72
    12
 73
     8
 74
     0
 42
0.000000001
 43
0.00000001
 40
0.0
 40
0.0
 40
0.0
 40
0.0
 40
0.2297782640419408
 40
0.3963665825857807
 40
0.5634897862156422
 40
0.7731764495320291
 40
1.0
 40
1.0
 40
1.0
 40
1.0
 10
14.63490371428014
 20
10.52660280649012
 30
0.0
 10
14.63767868369756
 20
10.52799047648785
 30
0.0
 10
14.64246549479715
 20
10.53038420166047
 30
0.0
 10
14.65114805643203
 20
10.53203685658393
 30
0.0
 10
14.65990395658467
 20
10.53182932511819
 30
0.0
 10
14.66891730141082
 20
10.52966165555375
 30
0.0
 10
14.67428187598689
 20
10.52712957592719
 30
0.0
 10
14.67706946677782
 20
10.52581383285217
 30
0.0
  0
LINE
  5
11A
330
1B
100
AcDbEntity
 67
     1
  8
0
  6
Continuous
 62
     7
370
    25
100
AcDbLine
 10
14.6770694668
 20
10.5258138329
 30
0.0
 11
14.6955844197
 21
10.5365022877
 31
0.0
  0
SPLINE
  5
11B
330
1B
100
AcDbEntity
 67
     1
  8
0
  6
Continuous
 62
     7
370
    25
100
AcDbSpline
210
0.0
220
0.0
230
1.0
 70
     8
 71
     3
 72
    10
 73
     6
 74
     0
 42
0.000000001
 43
0.00000001
 40
0.0
 40
0.0
 40
0.0
 40
0.0
 40
0.4096743211217516
 40
0.8174172987453893
 40
1.0
 40
1.0
 40
1.0
 40
1.0
 10
14.69558441969281
 20
10.53650228765983
 30
0.0
 10
14.69194007225725
 20
10.53823407633464
 30
0.0
 10
14.68466855807421
 20
10.54168948944593
 30
0.0
 10
14.67332451267616
 20
10.543464538895
 30
0.0
 10
14.66660911644165
 20
10.54371943114358
 30
0.0
 10
14.66453210162024
 20
10.54379826714367
 30
0.0
  0
LINE
  5
11C
330
1B
100
AcDbEntity
 67
     1
  8
0
  6
Continuous
 62
     7
370
    25
100
AcDbLine
 10
14.6645321016
 20
10.5437982671
 30
0.0
 11
14.6724155535
 21
10.548349287
 31
0.0
  0
LINE
  5
11D
330
1B
100
AcDbEntity
 67
     1
  8
0
  6
Continuous
 62
     7
370
    25
100
AcDbLine
 10
14.6724155535
 20
10.548349287
 30
0.0
 11
14.6480094792
 21
10.5624386138
 31
0.0
  0
LINE
  5
11E
330
1B
100
AcDbEntity
 67
     1
  8
0
  6
Continuous
 62
     7
370
    25
100
AcDbLine
 10
14.7682129471
 20
10.4930633922
 30
0.0
 11
14.6914772669
 21
10.448764827
 31
0.0
  0
LINE
  5
11F
330
1B
100
AcDbEntity
 67
     1
  8
0
  6
Continuous
 62
     7
370
    25
100
AcDbLine
 10
14.6914772669
 20
10.448764827
 30
0.0
 11
14.7149914023
 21
10.4351904055
 31
0.0
  0
LINE
  5
120
330
1B
100
AcDbEntity
 67
     1
  8
0
  6
Continuous
 62
     7
370
    25
100
AcDbLine
 10
14.7149914023
 20
10.4351904055
 30
0.0
 11
14.7602357952
 21
10.4613094376
 31
0.0
  0
SPLINE
  5
121
330
1B
100
AcDbEntity
 67
     1
  8
0
  6
Continuous
 62
     7
370
    25
100
AcDbSpline
210
0.0
220
0.0
230
1.0
 70
     8
 71
     3
 72
    17
 73
    13
 74
     0
 42
0.000000001
 43
0.00000001
 40
0.0
 40
0.0
 40
0.0
 40
0.0
 40
0.1070384332787293
 40
0.2146784283852416
 40
0.3104371367174947
 40
0.411700323831549
 40
0.5272847276653906
 40
0.6521384673000107
 40
0.7491499064147836
 40
0.8464142467025663
 40
0.938653468229672
 40
0.9999999999999999
 40
0.9999999999999999
 40
0.9999999999999999
 40
0.9999999999999999
 10
14.76023579523392
 20
10.46130943764969
 30
0.0
 10
14.76129147811655
 20
10.46182570061111
 30
0.0
 10
14.76340877687713
 20
10.46286112795991
 30
0.0
 10
14.76738521602481
 20
10.46346550160428
 30
0.0
 10
14.77132305037499
 20
10.46326433474048
 30
0.0
 10
14.77507069976374
 20
10.46235999075513
 30
0.0
 10
14.77849497107876
 20
10.46072938073988
 30
0.0
 10
14.78082946938824
 20
10.45856367633351
 30
0.0
 10
14.78166987008216
 20
10.45620956655518
 30
0.0
 10
14.78108045056827
 20
10.45407487284386
 30
0.0
 10
14.7795507385846
 20
10.45240672372361
 30
0.0
 10
14.7782183726036
 20
10.45156982270126
 30
0.0
 10
14.7776861876175
 20
10.45123554055558
 30
0.0
  0
LINE
  5
122
330
1B
100
AcDbEntity
 67
     1
  8
0
  6
Continuous
 62
     7
370
    25
100
AcDbLine
 10
14.7776861876
 20
10.4512355406
 30
0.0
 11
14.7324417946
 21
10.4251165084
 31
0.0
  0
LINE
  5
123
330
1B
100
AcDbEntity
 67
     1
  8
0
  6
Continuous
 62
     7
370
    25
100
AcDbLine
 10
14.7324417946
 20
10.4251165084
 30
0.0
 11
14.7555387265
 21
10.4117829335
 31
0.0
  0
LINE
  5
124
330
1B
100
AcDbEntity
 67
     1
  8
0
  6
Continuous
 62
     7
370
    25
100
AcDbLine
 10
14.7555387265
 20
10.4117829335
 30
0.0
 11
14.812982475
 21
10.4449445036
 31
0.0
  0
SPLINE
  5
125
330
1B
100
AcDbEntity
 67
     1
  8
0
  6
Continuous
 62
     7
370
    25
100
AcDbSpline
210
0.0
220
0.0
230
1.0
 70
     8
 71
     3
 72
    14
 73
    10
 74
     0
 42
0.000000001
 43
0.00000001
 40
0.0
 40
0.0
 40
0.0
 40
0.0
 40
0.1251499763128756
 40
0.2565326655179107
 40
0.3884151993346689
 40
0.5203348929873467
 40
0.6533678471555956
 40
0.8628403127609262
 40
0.9999999999999999
 40
0.9999999999999999
 40
0.9999999999999999
 40
0.9999999999999999
 10
14.81298247503021
 20
10.44494450362611
 30
0.0
 10
14.81485526330451
 20
10.44637578620748
 30
0.0
 10
14.81869410836155
 20
10.4493096320341
 30
0.0
 10
14.82055898799082
 20
10.45488364364915
 30
0.0
 10
14.81948449952803
 20
10.46052843432343
 30
0.0
 10
14.81506418820103
 20
10.46567853853731
 30
0.0
 10
14.80674578623487
 20
10.47050583338856
 30
0.0
 10
14.79603934968885
 20
10.47367097970663
 30
0.0
 10
14.78777530538206
 20
10.47485242701034
 30
0.0
 10
14.78450528636292
 20
10.47531991665703
 30
0.0
  0
LINE
  5
126
330
1B
100
AcDbEntity
 67
     1
  8
0
  6
Continuous
 62
     7
370
    25
100
AcDbLine
 10
14.7845052864
 20
10.4753199167
 30
0.0
 11
14.7917270825
 21
10.4794889708
 31
0.0
  0
LINE
  5
127
330
1B
100
AcDbEntity
 67
     1
  8
0
  6
Continuous
 62
     7
370
    25
100
AcDbLine
 10
14.7917270825
 20
10.4794889708
 30
0.0
 11
14.7682129471
 21
10.4930633922
 31
0.0
  0
SPLINE
  5
128
330
1B
100
AcDbEntity
 67
     1
  8
0
  6
Continuous
 62
     7
370
    25
100
AcDbSpline
210
0.0
220
0.0
230
1.0
 70
     8
 71
     3
 72
    12
 73
     8
 74
     0
 42
0.000000001
 43
0.00000001
 40
0.0
 40
0.0
 40
0.0
 40
0.0
 40
0.2281470784383574
 40
0.4089989359968763
 40
0.5896219483730571
 40
0.7829021346086008
 40
1.0
 40
1.0
 40
1.0
 40
1.0
 10
14.88202879253626
 20
10.4245517544564
 30
0.0
 10
14.87741880192714
 20
10.42690040460712
 30
0.0
 10
14.86915447846093
 20
10.4311108263195
 30
0.0
 10
14.85357961766097
 20
10.43359508726313
 30
0.0
 10
14.83867972327298
 20
10.43307753483661
 30
0.0
 10
14.8235594408892
 20
10.4299707504614
 30
0.0
 10
14.81512246000427
 20
10.42589978685498
 30
0.0
 10
14.81065913519143
 20
10.42374616897621
 30
0.0
  0
SPLINE
  5
129
330
1B
100
AcDbEntity
 67
     1
  8
0
  6
Continuous
 62
     7
370
    25
100
AcDbSpline
210
0.0
220
0.0
230
1.0
 70
     8
 71
     3
 72
    12
 73
     8
 74
     0
 42
0.000000001
 43
0.00000001
 40
0.0
 40
0.0
 40
0.0
 40
0.0
 40
0.2702865920389444
 40
0.4788362364690124
 40
0.6886075159379392
 40
0.8691749348387601
 40
1.0
 40
1.0
 40
1.0
 40
1.0
 10
14.81065913519143
 20
10.42374616897621
 30
0.0
 10
14.80589429763656
 20
10.4204890605141
 30
0.0
 10
14.79745297294875
 20
10.41471880921897
 30
0.0
 10
14.79221127095811
 20
10.40411671757765
 30
0.0
 10
14.79340864185888
 20
10.39459790896688
 30
0.0
 10
14.79976161142081
 20
10.38707821705206
 30
0.0
 10
14.80583984119731
 20
10.38369050982275
 30
0.0
 10
14.80839348281448
 20
10.38226723520403
 30
0.0
  0
SPLINE
  5
12A
330
1B
100
AcDbEntity
 67
     1
  8
0
  6
Continuous
 62
     7
370
    25
100
AcDbSpline
210
0.0
220
0.0
230
1.0
 70
     8
 71
     3
 72
    10
 73
     6
 74
     0
 42
0.000000001
 43
0.00000001
 40
0.0
 40
0.0
 40
0.0
 40
0.0
 40
0.265366391314644
 40
0.5308494635844785
 40
1.0
 40
1.0
 40
1.0
 40
1.0
 10
14.80839348281448
 20
10.38226723520403
 30
0.0
 10
14.80985753507852
 20
10.38165384137107
 30
0.0
 10
14.81278628334682
 20
10.38042678399738
 30
0.0
 10
14.819025350466
 20
10.37876786082735
 30
0.0
 10
14.82397653933264
 20
10.37827294927088
 30
0.0
 10
14.82713845962218
 20
10.3779568896468
 30
0.0
  0
LINE
  5
12B
330
1B
100
AcDbEntity
 67
     1
  8
0
  6
Continuous
 62
     7
370
    25
100
AcDbLine
 10
14.8271384596
 20
10.3779568896
 30
0.0
 11
14.8206359808
 21
10.3742030885
 31
0.0
  0
LINE
  5
12C
330
1B
100
AcDbEntity
 67
     1
  8
0
  6
Continuous
 62
     7
370
    25
100
AcDbLine
 10
14.8206359808
 20
10.3742030885
 30
0.0
 11
14.8443587244
 21
10.3605082401
 31
0.0
  0
LINE
  5
12D
330
1B
100
AcDbEntity
 67
     1
  8
0
  6
Continuous
 62
     7
370
    25
100
AcDbLine
 10
14.8443587244
 20
10.3605082401
 30
0.0
 11
14.9492048177
 21
10.4210346014
 31
0.0
  0
LINE
  5
12E
330
1B
100
AcDbEntity
 67
     1
  8
0
  6
Continuous
 62
     7
370
    25
100
AcDbLine
 10
14.9492048177
 20
10.4210346014
 30
0.0
 11
14.9254820741
 21
10.4347294498
 31
0.0
  0
LINE
  5
12F
330
1B
100
AcDbEntity
 67
     1
  8
0
  6
Continuous
 62
     7
370
    25
100
AcDbLine
 10
14.9254820741
 20
10.4347294498
 30
0.0
 11
14.8906820933
 21
10.4146398485
 31
0.0
  0
SPLINE
  5
130
330
1B
100
AcDbEntity
 67
     1
  8
0
  6
Continuous
 62
     7
370
    25
100
AcDbSpline
210
0.0
220
0.0
230
1.0
 70
     8
 71
     3
 72
    10
 73
     6
 74
     0
 42
0.000000001
 43
0.00000001
 40
0.0
 40
0.0
 40
0.0
 40
0.0
 40
0.2793982361517272
 40
0.558283338946367
 40
1.0
 40
1.0
 40
1.0
 40
1.0
 10
14.89068209329811
 20
10.41463984854918
 30
0.0
 10
14.89029054241225
 20
10.41566352223194
 30
0.0
 10
14.88950815974967
 20
10.41770898955298
 30
0.0
 10
14.8866530968232
 20
10.42110696062393
 30
0.0
 10
14.88378617003761
 20
10.42324262711479
 30
0.0
 10
14.88202879253627
 20
10.4245517544564
 30
0.0
  0
SPLINE
  5
131
330
1B
100
AcDbEntity
 67
     1
  8
0
  6
Continuous
 62
     7
370
    25
100
AcDbSpline
210
0.0
220
0.0
230
1.0
 70
     8
 71
     3
 72
    12
 73
     8
 74
     0
 42
0.000000001
 43
0.00000001
 40
0.0
 40
0.0
 40
0.0
 40
0.0
 40
0.37175716071497
 40
0.512069305749203
 40
0.6535271918607586
 40
0.7795845519922319
 40
1.0
 40
1.0
 40
1.0
 40
1.0
 10
14.70361198001906
 20
10.51148786916082
 30
0.0
 10
14.70546326442373
 20
10.5102241307433
 30
0.0
 10
14.70801327830382
 20
10.50848342007922
 30
0.0
 10
14.70927986903025
 20
10.50566571663353
 30
0.0
 10
14.70895203160229
 20
10.50385058940887
 30
0.0
 10
14.70725513370131
 20
10.50190526673573
 30
0.0
 10
14.70521753822403
 20
10.50092229940469
 30
0.0
 10
14.70392128204048
 20
10.50029696552694
 30
0.0
  0
SPLINE
  5
132
330
1B
100
AcDbEntity
 67
     1
  8
0
  6
Continuous
 62
     7
370
    25
100
AcDbSpline
210
0.0
220
0.0
230
1.0
 70
     8
 71
     3
 72
    10
 73
     6
 74
     0
 42
0.000000001
 43
0.00000001
 40
0.0
 40
0.0
 40
0.0
 40
0.0
 40
0.2770186601427634
 40
0.5537458915000611
 40
1.0
 40
1.0
 40
1.0
 40
1.0
 10
14.70392128204048
 20
10.50029696552694
 30
0.0
 10
14.70338697256045
 20
10.50129679982252
 30
0.0
 10
14.70231891570391
 20
10.50329541656942
 30
0.0
 10
14.69910382239026
 20
10.50661184751912
 30
0.0
 10
14.69598032755495
 20
10.50866400713999
 30
0.0
 10
14.69405237682332
 20
10.50993068528453
 30
0.0
  0
SPLINE
  5
133
330
1B
100
AcDbEntity
 67
     1
  8
0
  6
Continuous
 62
     7
370
    25
100
AcDbSpline
210
0.0
220
0.0
230
1.0
 70
     8
 71
     3
 72
    23
 73
    19
 74
     0
 42
0.000000001
 43
0.00000001
 40
0.0
 40
0.0
 40
0.0
 40
0.0
 40
0.0895008986258139
 40
0.1788982528658496
 40
0.2235163649504259
 40
0.2681330841820886
 40
0.312753266414992
 40
0.402199465096935
 40
0.4468279824279219
 40
0.4914540031553242
 40
0.5809476773884088
 40
0.6255748147129486
 40
0.7150175165691671
 40
0.8044046366631463
 40
0.8490162688053935
 40
0.893625220578928
 40
0.9382269569707198
 40
0.9999999999999999
 40
0.9999999999999999
 40
0.9999999999999999
 40
0.9999999999999999
 10
14.69405237682332
 20
10.50993068528453
 30
0.0
 10
14.69272812530773
 20
10.51064382830899
 30
0.0
 10
14.69008115431493
 20
10.51206928931639
 30
0.0
 10
14.68623833579417
 20
10.5134650117001
 30
0.0
 10
14.68302379629822
 20
10.51441101522137
 30
0.0
 10
14.68053064945693
 20
10.51501905752665
 30
0.0
 10
14.67711226450123
 20
10.51569062208118
 30
0.0
 10
14.67356934689548
 20
10.51613790424987
 30
0.0
 10
14.66997284730445
 20
10.51633456691375
 30
0.0
 10
14.66635963675355
 20
10.51636114345974
 30
0.0
 10
14.66275262999347
 20
10.51612495985466
 30
0.0
 10
14.65835915843122
 20
10.51551583667191
 30
0.0
 10
14.65410817225995
 20
10.51460805371857
 30
0.0
 10
14.65013040104311
 20
10.51336115318283
 30
0.0
 10
14.6471308162317
 20
10.51220256678072
 30
0.0
 10
14.6449739232487
 20
10.51126116225473
 30
0.0
 10
14.64263249109119
 20
10.51013160532707
 30
0.0
 10
14.64108776280808
 20
10.50926895853575
 30
0.0
 10
14.64019072154304
 20
10.50876800974272
 30
0.0
  0
SPLINE
  5
134
330
1B
100
AcDbEntity
 67
     1
  8
0
  6
Continuous
 62
     7
370
    25
100
AcDbSpline
210
0.0
220
0.0
230
1.0
 70
     8
 71
     3
 72
    12
 73
     8
 74
     0
 42
0.000000001
 43
0.00000001
 40
0.0
 40
0.0
 40
0.0
 40
0.0
 40
0.2599008903258633
 40
0.445603148035649
 40
0.6313912552519533
 40
0.8212748274656033
 40
1.0
 40
1.0
 40
1.0
 40
1.0
 10
14.64019072154304
 20
10.50876800974272
 30
0.0
 10
14.63690471324811
 20
10.50654214517481
 30
0.0
 10
14.63127081319161
 20
10.50272587406731
 30
0.0
 10
14.62810483093798
 20
10.49574866281376
 30
0.0
 10
14.62906273189343
 20
10.48945295487865
 30
0.0
 10
14.63308905780077
 20
10.48361975109056
 30
0.0
 10
14.63769246396408
 20
10.48047982552233
 30
0.0
 10
14.63992449066586
 20
10.47895738812245
 30
0.0
  0
SPLINE
  5
135
330
1B
100
AcDbEntity
 67
     1
  8
0
  6
Continuous
 62
     7
370
    25
100
AcDbSpline
210
0.0
220
0.0
230
1.0
 70
     8
 71
     3
 72
    10
 73
     6
 74
     0
 42
0.000000001
 43
0.00000001
 40
0.0
 40
0.0
 40
0.0
 40
0.0
 40
0.3093280027506487
 40
0.5570950963775209
 40
0.9999999999999999
 40
0.9999999999999999
 40
0.9999999999999999
 40
0.9999999999999999
 10
14.63992449066586
 20
10.47895738812245
 30
0.0
 10
14.64157991570514
 20
10.47807309233408
 30
0.0
 10
14.64456131138739
 20
10.47648048887411
 30
0.0
 10
14.65074127084908
 20
10.47415588732147
 30
0.0
 10
14.65571653762579
 20
10.4735317324599
 30
0.0
 10
14.65890701018151
 20
10.47313148277566
 30
0.0
  0
LINE
  5
136
330
1B
100
AcDbEntity
 67
     1
  8
0
  6
Continuous
 62
     7
370
    25
100
AcDbLine
 10
14.6589070102
 20
10.4731314828
 30
0.0
 11
14.6540877089
 21
10.4703493594
 31
0.0
  0
LINE
  5
137
330
1B
100
AcDbEntity
 67
     1
  8
0
  6
Continuous
 62
     7
370
    25
100
AcDbLine
 10
14.6540877089
 20
10.4703493594
 30
0.0
 11
14.6762927083
 21
10.457530686
 31
0.0
  0
LINE
  5
138
330
1B
100
AcDbEntity
 67
     1
  8
0
  6
Continuous
 62
     7
370
    25
100
AcDbLine
 10
14.6762927083
 20
10.457530686
 30
0.0
 11
14.7285143545
 21
10.4876776006
 31
0.0
  0
SPLINE
  5
139
330
1B
100
AcDbEntity
 67
     1
  8
0
  6
Continuous
 62
     7
370
    25
100
AcDbSpline
210
0.0
220
0.0
230
1.0
 70
     8
 71
     3
 72
    10
 73
     6
 74
     0
 42
0.000000001
 43
0.00000001
 40
0.0
 40
0.0
 40
0.0
 40
0.0
 40
0.3456068141799095
 40
0.6388045530459475
 40
1.0
 40
1.0
 40
1.0
 40
1.0
 10
14.72851435445813
 20
10.48767760061725
 30
0.0
 10
14.73076759009049
 20
10.48901358426978
 30
0.0
 10
14.73493237250213
 20
10.49148295815077
 30
0.0
 10
14.73957617850239
 20
10.49632216540947
 30
0.0
 10
14.73990135205488
 20
10.4998920396338
 30
0.0
 10
14.74008083315152
 20
10.50186244877614
 30
0.0
  0
SPLINE
  5
13A
330
1B
100
AcDbEntity
 67
     1
  8
0
  6
Continuous
 62
     7
370
    25
100
AcDbSpline
210
0.0
220
0.0
230
1.0
 70
     8
 71
     3
 72
    10
 73
     6
 74
     0
 42
0.000000001
 43
0.00000001
 40
0.0
 40
0.0
 40
0.0
 40
0.0
 40
0.3304598571902869
 40
0.7617298026504302
 40
1.0
 40
1.0
 40
1.0
 40
1.0
 10
14.74008083315152
 20
10.50186244877614
 30
0.0
 10
14.73973964700254
 20
10.50400461495599
 30
0.0
 10
14.73895319245358
 20
10.50894243655796
 30
0.0
 10
14.73268635450628
 20
10.51453917715662
 30
0.0
 10
14.72778434541326
 20
10.51777072161609
 30
0.0
 10
14.72603986050591
 20
10.51892073591228
 30
0.0
  0
LINE
  5
13B
330
1B
100
AcDbEntity
 67
     1
  8
0
  6
Continuous
 62
     7
370
    25
100
AcDbLine
 10
14.7260398605
 20
10.5189207359
 30
0.0
 11
14.7103158205
 21
10.527998031
 31
0.0
  0
LINE
  5
13C
330
1B
100
AcDbEntity
 67
     1
  8
0
  6
Continuous
 62
     7
370
    25
100
AcDbLine
 10
14.7103158205
 20
10.527998031
 30
0.0
 11
14.6924339
 21
10.517675018
 31
0.0
  0
SPLINE
  5
13D
330
1B
100
AcDbEntity
 67
     1
  8
0
  6
Continuous
 62
     7
370
    25
100
AcDbSpline
210
0.0
220
0.0
230
1.0
 70
     8
 71
     3
 72
    10
 73
     6
 74
     0
 42
0.000000001
 43
0.00000001
 40
0.0
 40
0.0
 40
0.0
 40
0.0
 40
0.2469435075230332
 40
0.6231213786288112
 40
0.9999999999999999
 40
0.9999999999999999
 40
0.9999999999999999
 40
0.9999999999999999
 10
14.69243389998715
 20
10.5176750179975
 30
0.0
 10
14.69344587243849
 20
10.51722462194698
 30
0.0
 10
14.69599941869421
 20
10.51608812149494
 30
0.0
 10
14.699598404683
 20
10.51393518146087
 30
0.0
 10
14.70227329187592
 20
10.5123041458429
 30
0.0
 10
14.70361198001906
 20
10.51148786916082
 30
0.0
  0
SPLINE
  5
13E
330
1B
100
AcDbEntity
 67
     1
  8
0
  6
Continuous
 62
     7
370
    25
100
AcDbSpline
210
0.0
220
0.0
230
1.0
 70
     8
 71
     3
 72
    11
 73
     7
 74
     0
 42
0.000000001
 43
0.00000001
 40
0.0
 40
0.0
 40
0.0
 40
0.0
 40
0.40365220723329
 40
0.6307372341637385
 40
0.8601162146662189
 40
1.0
 40
1.0
 40
1.0
 40
1.0
 10
14.50403318651077
 20
10.5428058166797
 30
0.0
 10
14.50205768642762
 20
10.5441792776171
 30
0.0
 10
14.49897081749391
 20
10.54632541465627
 30
0.0
 10
14.49676192338742
 20
10.54992928334265
 30
0.0
 10
14.49678413491267
 20
10.55263618636041
 30
0.0
 10
14.49788888239934
 20
10.55413183677161
 30
0.0
 10
14.49830738183814
 20
10.55469841770099
 30
0.0
  0
LINE
  5
13F
330
1B
100
AcDbEntity
 67
     1
  8
0
  6
Continuous
 62
     7
370
    25
100
AcDbLine
 10
14.4983073818
 20
10.5546984177
 30
0.0
 11
14.4708874131
 21
10.5705276287
 31
0.0
  0
SPLINE
  5
140
330
1B
100
AcDbEntity
 67
     1
  8
0
  6
Continuous
 62
     7
370
    25
100
AcDbSpline
210
0.0
220
0.0
230
1.0
 70
     8
 71
     3
 72
    16
 73
    12
 74
     0
 42
0.000000001
 43
0.00000001
 40
0.0
 40
0.0
 40
0.0
 40
0.0
 40
0.1037223094592045
 40
0.2062118473007435
 40
0.3095545664435268
 40
0.4616657654900797
 40
0.6157560066616637
 40
0.7384795094132292
 40
0.8327633778953566
 40
0.9276256240199301
 40
1.0
 40
1.0
 40
1.0
 40
1.0
 10
14.47088741313478
 20
10.5705276286992
 30
0.0
 10
14.46824127355712
 20
10.56800004260093
 30
0.0
 10
14.46298044458629
 20
10.56297491154421
 30
0.0
 10
14.46137663826821
 20
10.55404525496039
 30
0.0
 10
14.4647088827365
 20
10.54405295161835
 30
0.0
 10
14.47449862794106
 20
10.53372701321149
 30
0.0
 10
14.48975731171135
 20
10.52519532418072
 30
0.0
 10
14.50622072894137
 20
10.52040606171095
 30
0.0
 10
14.52151537079916
 20
10.51916657361257
 30
0.0
 10
14.53441747055315
 20
10.52080920649829
 30
0.0
 10
14.54106900264185
 20
10.52359220003678
 30
0.0
 10
14.54394756164509
 20
10.52479658588343
 30
0.0
  0
LINE
  5
141
330
1B
100
AcDbEntity
 67
     1
  8
0
  6
Continuous
 62
     7
370
    25
100
AcDbLine
 10
14.5439475616
 20
10.5247965859
 30
0.0
 11
14.6286386669
 21
10.5736877203
 31
0.0
  0
LINE
  5
142
330
1B
100
AcDbEntity
 67
     1
  8
0
  6
Continuous
 62
     7
370
    25
100
AcDbLine
 10
14.6286386669
 20
10.5736877203
 30
0.0
 11
14.6056855901
 21
10.5869382495
 31
0.0
  0
LINE
  5
143
330
1B
100
AcDbEntity
 67
     1
  8
0
  6
Continuous
 62
     7
370
    25
100
AcDbLine
 10
14.6056855901
 20
10.5869382495
 30
0.0
 11
14.5976725035
 21
10.5823123931
 31
0.0
  0
SPLINE
  5
144
330
1B
100
AcDbEntity
 67
     1
  8
0
  6
Continuous
 62
     7
370
    25
100
AcDbSpline
210
0.0
220
0.0
230
1.0
 70
     8
 71
     3
 72
    15
 73
    11
 74
     0
 42
0.000000001
 43
0.00000001
 40
0.0
 40
0.0
 40
0.0
 40
0.0
 40
0.1012407973283807
 40
0.1999727979513972
 40
0.31202199423174
 40
0.4420870025404255
 40
0.5852300547851211
 40
0.7309760288983944
 40
0.8787730651649657
 40
0.9999999999999999
 40
0.9999999999999999
 40
0.9999999999999999
 40
0.9999999999999999
 10
14.59767250351493
 20
10.58231239306446
 30
0.0
 10
14.59731094548759
 20
10.58443528590225
 30
0.0
 10
14.59659678901848
 20
10.58862846525017
 30
0.0
 10
14.59090667831362
 20
10.59442998833484
 30
0.0
 10
14.5821222444429
 20
10.59951302190926
 30
0.0
 10
14.56963396949294
 20
10.60335812694446
 30
0.0
 10
14.55445023723016
 20
10.60492827275298
 30
0.0
 10
14.53860661363682
 20
10.60343002543548
 30
0.0
 10
14.5250186166633
 20
10.59939355437202
 30
0.0
 10
14.5180098024441
 20
10.59547901788325
 30
0.0
 10
14.51485150743737
 20
10.59371505886543
 30
0.0
  0
SPLINE
  5
145
330
1B
100
AcDbEntity
 67
     1
  8
0
  6
Continuous
 62
     7
370
    25
100
AcDbSpline
210
0.0
220
0.0
230
1.0
 70
     8
 71
     3
 72
    14
 73
    10
 74
     0
 42
0.000000001
 43
0.00000001
 40
0.0
 40
0.0
 40
0.0
 40
0.0
 40
0.2031871603857046
 40
0.3940618699360146
 40
0.5561530921159535
 40
0.7198989031650037
 40
0.851586387830618
 40
0.9500291259349143
 40
1.0
 40
1.0
 40
1.0
 40
1.0
 10
14.51485150743737
 20
10.59371505886543
 30
0.0
 10
14.510513578959
 20
10.5904887816429
 30
0.0
 10
14.5021005857138
 20
10.58423172862425
 30
0.0
 10
14.49855907205891
 20
10.57294381456135
 30
0.0
 10
14.50176669010493
 20
10.56270451175745
 30
0.0
 10
14.50957374264204
 20
10.55459336716931
 30
0.0
 10
14.51971241711353
 20
10.54924537356486
 30
0.0
 10
14.52865253252464
 20
10.54683997783058
 30
0.0
 10
14.53373957961216
 20
10.54650595191094
 30
0.0
 10
14.53545238873835
 20
10.54639348535939
 30
0.0
  0
LINE
  5
146
330
1B
100
AcDbEntity
 67
     1
  8
0
  6
Continuous
 62
     7
370
    25
100
AcDbLine
 10
14.5354523887
 20
10.5463934854
 30
0.0
 11
14.5263748453
 21
10.5411531311
 31
0.0
  0
SPLINE
  5
147
330
1B
100
AcDbEntity
 67
     1
  8
0
  6
Continuous
 62
     7
370
    25
100
AcDbSpline
210
0.0
220
0.0
230
1.0
 70
     8
 71
     3
 72
    12
 73
     8
 74
     0
 42
0.000000001
 43
0.00000001
 40
0.0
 40
0.0
 40
0.0
 40
0.0
 40
0.2055488336315656
 40
0.3503861336856108
 40
0.495692329481957
 40
0.6780077730125067
 40
1.0
 40
1.0
 40
1.0
 40
1.0
 10
14.52637484530784
 20
10.54115313108103
 30
0.0
 10
14.52502880430711
 20
10.54047566888544
 30
0.0
 10
14.52273429310169
 20
10.53932084180499
 30
0.0
 10
14.5185799924501
 20
10.53853742523736
 30
0.0
 10
14.51444255450472
 20
10.53864052250666
 30
0.0
 10
14.50918203535751
 20
10.53992476761514
 30
0.0
 10
14.50603958795362
 20
10.54168313058576
 30
0.0
 10
14.50403318651077
 20
10.5428058166797
 30
0.0
  0
SPLINE
  5
148
330
1B
100
AcDbEntity
 67
     1
  8
0
  6
Continuous
 62
     7
370
    25
100
AcDbSpline
210
0.0
220
0.0
230
1.0
 70
     8
 71
     3
 72
    12
 73
     8
 74
     0
 42
0.000000001
 43
0.00000001
 40
0.0
 40
0.0
 40
0.0
 40
0.0
 40
0.1956720274447512
 40
0.3930883006338039
 40
0.5996630160217822
 40
0.8095034588964343
 40
1.0
 40
1.0
 40
1.0
 40
1.0
 10
14.5060831299118
 20
10.64764316427499
 30
0.0
 10
14.50176046752884
 20
10.64968310732491
 30
0.0
 10
14.4930766099917
 20
10.65378117774078
 30
0.0
 10
14.47629322812696
 20
10.65648322068402
 30
0.0
 10
14.458734482807
 20
10.65611475183644
 30
0.0
 10
14.44224949662565
 20
10.65254982368311
 30
0.0
 10
14.43366333648683
 20
10.64823478114538
 30
0.0
 10
14.4295776939575
 20
10.64618150924933
 30
0.0
  0
SPLINE
  5
149
330
1B
100
AcDbEntity
 67
     1
  8
0
  6
Continuous
 62
     7
370
    25
100
AcDbSpline
210
0.0
220
0.0
230
1.0
 70
     8
 71
     3
 72
    12
 73
     8
 74
     0
 42
0.000000001
 43
0.00000001
 40
0.0
 40
0.0
 40
0.0
 40
0.0
 40
0.2366943063822599
 40
0.4376308926764201
 40
0.6397139111984781
 40
0.8189628256776631
 40
1.0
 40
1.0
 40
1.0
 40
1.0
 10
14.4295776939575
 20
10.64618150924933
 30
0.0
 10
14.42476299487665
 20
10.64299673564739
 30
0.0
 10
14.41586095963582
 20
10.63710831637915
 30
0.0
 10
14.40897701686604
 20
10.62619158159358
 30
0.0
 10
14.40910294039576
 20
10.6156513890336
 30
0.0
 10
14.4154397713658
 20
10.60609831906098
 30
0.0
 10
14.42297285999985
 20
10.60135813893087
 30
0.0
 10
14.42675809934884
 20
10.59897628505639
 30
0.0
  0
SPLINE
  5
14A
330
1B
100
AcDbEntity
 67
     1
  8
0
  6
Continuous
 62
     7
370
    25
100
AcDbSpline
210
0.0
220
0.0
230
1.0
 70
     8
 71
     3
 72
    11
 73
     7
 74
     0
 42
0.000000001
 43
0.00000001
 40
0.0
 40
0.0
 40
0.0
 40
0.0
 40
0.288284268041521
 40
0.5642274706883165
 40
0.8074656068457635
 40
1.0
 40
1.0
 40
1.0
 40
1.0
 10
14.42675809934884
 20
10.59897628505639
 30
0.0
 10
14.43171891904353
 20
10.59673884077681
 30
0.0
 10
14.44142819235175
 20
10.59235973422601
 30
0.0
 10
14.45910926794583
 20
10.59038211878411
 30
0.0
 10
14.47458637340243
 20
10.59162488788858
 30
0.0
 10
14.48307636341634
 20
10.5940077311068
 30
0.0
 10
14.48682743757834
 20
10.59506052641201
 30
0.0
  0
LINE
  5
14B
330
1B
100
AcDbEntity
 67
     1
  8
0
  6
Continuous
 62
     7
370
    25
100
AcDbLine
 10
14.4868274376
 20
10.5950605264
 30
0.0
 11
14.46338523
 21
10.6085934248
 31
0.0
  0
SPLINE
  5
14C
330
1B
100
AcDbEntity
 67
     1
  8
0
  6
Continuous
 62
     7
370
    25
100
AcDbSpline
210
0.0
220
0.0
230
1.0
 70
     8
 71
     3
 72
    11
 73
     7
 74
     0
 42
0.000000001
 43
0.00000001
 40
0.0
 40
0.0
 40
0.0
 40
0.0
 40
0.1940669676353299
 40
0.4363853396735996
 40
0.7882829876664554
 40
1.0
 40
1.0
 40
1.0
 40
1.0
 10
14.46338523002403
 20
10.60859342477728
 30
0.0
 10
14.46219297884428
 20
10.60844378049718
 30
0.0
 10
14.45951204379186
 20
10.60810728546767
 30
0.0
 10
14.45459428532611
 20
10.60877160728668
 30
0.0
 10
14.4502005399831
 20
10.61025124640885
 30
0.0
 10
14.4476381494795
 20
10.61163901737822
 30
0.0
 10
14.44667560946761
 20
10.61216032163824
 30
0.0
  0
SPLINE
  5
14D
330
1B
100
AcDbEntity
 67
     1
  8
0
  6
Continuous
 62
     7
370
    25
100
AcDbSpline
210
0.0
220
0.0
230
1.0
 70
     8
 71
     3
 72
    12
 73
     8
 74
     0
 42
0.000000001
 43
0.00000001
 40
0.0
 40
0.0
 40
0.0
 40
0.0
 40
0.2380807690079013
 40
0.438493918948064
 40
0.6392005795028913
 40
0.8357546799244299
 40
1.0
 40
1.0
 40
1.0
 40
1.0
 10
14.44667560946761
 20
10.61216032163824
 30
0.0
 10
14.4451593058216
 20
10.61318741362794
 30
0.0
 10
14.44236659841048
 20
10.61507909767096
 30
0.0
 10
14.44054843749597
 20
10.61861434215015
 30
0.0
 10
14.4408608349103
 20
10.62201395451633
 30
0.0
 10
14.44288397813489
 20
10.62502204465114
 30
0.0
 10
14.44518799778368
 20
10.62656188491501
 30
0.0
 10
14.44623684770743
 20
10.62726286042283
 30
0.0
  0
LINE
  5
14E
330
1B
100
AcDbEntity
 67
     1
  8
0
  6
Continuous
 62
     7
370
    25
100
AcDbLine
 10
14.4462368477
 20
10.6272628604
 30
0.0
 11
14.4958259103
 21
10.5986689912
 31
0.0
  0
SPLINE
  5
14F
330
1B
100
AcDbEntity
 67
     1
  8
0
  6
Continuous
 62
     7
370
    25
100
AcDbSpline
210
0.0
220
0.0
230
1.0
 70
     8
 71
     3
 72
    12
 73
     8
 74
     0
 42
0.000000001
 43
0.00000001
 40
0.0
 40
0.0
 40
0.0
 40
0.0
 40
0.2265140198113659
 40
0.4369728426108882
 40
0.6484034683434163
 40
0.8367483903523847
 40
1.0
 40
1.0
 40
1.0
 40
1.0
 10
14.49582591029573
 20
10.59866899123231
 30
0.0
 10
14.50113368535766
 20
10.60158629127389
 30
0.0
 10
14.51137302311998
 20
10.60721411463328
 30
0.0
 10
14.52030421516428
 20
10.61842119271726
 30
0.0
 10
14.52194190368532
 20
10.6299077663162
 30
0.0
 10
14.51678360108513
 20
10.64026520940823
 30
0.0
 10
14.50947610932241
 20
10.64530371131541
 30
0.0
 10
14.5060831299118
 20
10.64764316427499
 30
0.0
  0
LINE
  5
150
330
1B
100
AcDbEntity
 67
     1
  8
0
  6
Continuous
 62
     7
370
    25
100
AcDbLine
 10
13.6017441439
 20
11.6134182164
 30
0.0
 11
13.0768549254
 21
11.3104061203
 31
0.0
  0
LINE
  5
151
330
1B
100
AcDbEntity
 67
     1
  8
0
  6
Continuous
 62
     7
370
    25
100
AcDbLine
 10
16.4252150388
 20
9.9834631633
 30
0.0
 11
13.6017441439
 21
11.6134182164
 31
0.0
  0
LWPOLYLINE
  5
152
330
1B
100
AcDbEntity
 67
     1
  8
0
  6
Continuous
 62
     7
370
    25
100
AcDbPolyline
 90
       22
 70
   128
 43
0.0
 10
13.849934998
 20
11.1064307632
 10
13.8897481099
 20
11.0894680722
 10
13.9364533309
 20
11.0800335187
 10
13.9859007935
 20
11.0789654515
 10
14.0336967094
 20
11.0863586437
 10
14.0755945036
 20
11.1015564195
 10
14.1078710145
 20
11.1232081588
 10
14.1276583065
 20
11.1493900237
 10
14.1331985844
 20
11.1777758248
 10
14.1239993399
 20
11.2058432114
 10
14.1008778422
 20
11.2310982407
 10
14.0658887502
 20
11.2512970135
 10
14.0221410163
 20
11.26464477
 10
13.9735216605
 20
11.2699553509
 10
13.9243506829
 20
11.2667570165
 10
13.8789973968
 20
11.2553340859
 10
13.8414914722
 20
11.2367012229
 10
13.815165248
 20
11.2125141711
 10
13.8023584759
 20
11.1849221761
 10
13.804208623
 20
11.1563767636
 10
13.8205515198
 20
11.1294144134
 10
13.849934998
 20
11.1064307632
  0
LWPOLYLINE
  5
153
330
1B
100
AcDbEntity
 67
     1
  8
0
  6
Continuous
 62
     7
370
    25
100
AcDbPolyline
 90
       14
 70
   128
 43
0.0
 10
16.4548250667
 20
9.958597086
 10
16.4544439405
 20
9.9547925979
 10
16.4505612243
 20
9.9493940319
 10
16.4489314563
 20
9.9480373607
 10
16.4478393095
 20
9.9472525358
 10
16.4471849133
 20
9.9468153697
 10
16.4468204841
 20
9.9465776002
 10
16.4466252023
 20
9.9464488268
 10
16.4465228427
 20
9.946378707
 10
16.4464700554
 20
9.9463399591
 10
16.4464437137
 20
9.9463184388
 10
16.4464309576
 20
9.9463062902
 10
16.4464250463
 20
9.9462988114
 10
16.4464250463
 20
9.9462988114
  0
LINE
  5
154
330
1B
100
AcDbEntity
 67
     1
  8
0
  6
Continuous
 62
     7
370
    25
100
AcDbLine
 10
14.9254820482
 20
10.4195185315
 30
0.0
 11
14.8902487762
 21
10.3991787965
 31
0.0
  0
LINE
  5
155
330
1B
100
AcDbEntity
 67
     1
  8
0
  6
Continuous
 62
     7
370
    25
100
AcDbLine
 10
14.9360303237
 20
10.4134291416
 30
0.0
 11
14.9254820482
 21
10.4195185315
 31
0.0
  0
SPLINE
  5
156
330
1B
100
AcDbEntity
 67
     1
  8
0
  6
Continuous
 62
     7
370
    25
100
AcDbSpline
210
0.0
220
0.0
230
1.0
 70
     8
 71
     3
 72
    10
 73
     6
 74
     0
 42
0.000000001
 43
0.00000001
 40
0.0
 40
0.0
 40
0.0
 40
0.0
 40
0.4900955292453641
 40
0.8655247745949163
 40
1.0
 40
1.0
 40
1.0
 40
1.0
 10
14.81110194155568
 20
10.40879089223105
 30
0.0
 10
14.8064899161909
 20
10.40556387406993
 30
0.0
 10
14.79834492817107
 20
10.39986485418534
 30
0.0
 10
14.79314530058263
 20
10.39139692288
 30
0.0
 10
14.79408240088538
 20
10.38705603990059
 30
0.0
 10
14.79432953889193
 20
10.3859112348428
 30
0.0
  0
SPLINE
  5
157
330
1B
100
AcDbEntity
 67
     1
  8
0
  6
Continuous
 62
     7
370
    25
100
AcDbSpline
210
0.0
220
0.0
230
1.0
 70
     8
 71
     3
 72
    12
 73
     8
 74
     0
 42
0.000000001
 43
0.00000001
 40
0.0
 40
0.0
 40
0.0
 40
0.0
 40
0.2284553918400595
 40
0.4086725818153153
 40
0.5886421004669982
 40
0.7819088163587586
 40
1.0
 40
1.0
 40
1.0
 40
1.0
 10
14.88156091481221
 20
10.40961140011845
 30
0.0
 10
14.87700352604801
 20
10.41193418559127
 30
0.0
 10
14.86885103808263
 20
10.41608930195133
 30
0.0
 10
14.853496223432
 20
10.41853141660462
 30
0.0
 10
14.83882119580722
 20
10.4180188659445
 30
0.0
 10
14.8238830550148
 20
10.41495334249961
 30
0.0
 10
14.8155303349509
 20
10.41092605472334
 30
0.0
 10
14.81110194155568
 20
10.40879089223105
 30
0.0
  0
SPLINE
  5
158
330
1B
100
AcDbEntity
 67
     1
  8
0
  6
Continuous
 62
     7
370
    25
100
AcDbSpline
210
0.0
220
0.0
230
1.0
 70
     8
 71
     3
 72
    10
 73
     6
 74
     0
 42
0.000000001
 43
0.00000001
 40
0.0
 40
0.0
 40
0.0
 40
0.0
 40
0.2665193488026368
 40
0.5208674292091381
 40
1.0
 40
1.0
 40
1.0
 40
1.0
 10
14.89024877619724
 20
10.39917879649334
 30
0.0
 10
14.88993207392985
 20
10.40020752452631
 30
0.0
 10
14.88931313239114
 20
10.40221800117011
 30
0.0
 10
14.88657510884581
 20
10.40583487370018
 30
0.0
 10
14.88354214314965
 20
10.40811920394359
 30
0.0
 10
14.88156091481221
 20
10.40961140011845
 30
0.0
  0
SPLINE
  5
159
330
1B
100
AcDbEntity
 67
     1
  8
0
  6
Continuous
 62
     7
370
    25
100
AcDbSpline
210
0.0
220
0.0
230
1.0
 70
     8
 71
     3
 72
    15
 73
    11
 74
     0
 42
0.000000001
 43
0.00000001
 40
0.0
 40
0.0
 40
0.0
 40
0.0
 40
0.1420710498520618
 40
0.2841864366791061
 40
0.4260892976978679
 40
0.5689560566434361
 40
0.710151655455924
 40
0.8527662132661528
 40
0.9941859543990398
 40
1.0
 40
1.0
 40
1.0
 40
1.0
 10
14.8297654558892
 20
10.3800484799809
 30
0.0
 10
14.83164582103728
 20
10.37915456584069
 30
0.0
 10
14.83540713815042
 20
10.37736645859108
 30
0.0
 10
14.84259492125781
 20
10.37625239022717
 30
0.0
 10
14.84994623513456
 20
10.37647613357
 30
0.0
 10
14.85674731940375
 20
10.37811471790186
 30
0.0
 10
14.86228713885865
 20
10.38097105006328
 30
0.0
 10
14.86560574363284
 20
10.3846821273756
 30
0.0
 10
14.86697793933279
 20
10.38757676535045
 30
0.0
 10
14.86653728853622
 20
10.38899836749247
 30
0.0
 10
14.86651988788463
 20
10.38905450446933
 30
0.0
  0
SPLINE
  5
15A
330
1B
100
AcDbEntity
 67
     1
  8
0
  6
Continuous
 62
     7
370
    25
100
AcDbSpline
210
0.0
220
0.0
230
1.0
 70
     8
 71
     3
 72
    11
 73
     7
 74
     0
 42
0.000000001
 43
0.00000001
 40
0.0
 40
0.0
 40
0.0
 40
0.0
 40
0.02433281075906
 40
0.445976917059464
 40
0.8681758421574162
 40
1.0
 40
1.0
 40
1.0
 40
1.0
 10
14.82352712080437
 20
10.38906604426469
 30
0.0
 10
14.82350311216456
 20
10.38898643992159
 30
0.0
 10
14.82306307672154
 20
10.38752743463565
 30
0.0
 10
14.82447893918001
 20
10.38460540985809
 30
0.0
 10
14.82705661440047
 20
10.38170971076356
 30
0.0
 10
14.82924479949992
 20
10.3803677789966
 30
0.0
 10
14.8297654558892
 20
10.3800484799809
 30
0.0
  0
SPLINE
  5
15B
330
1B
100
AcDbEntity
 67
     1
  8
0
  6
Continuous
 62
     7
370
    25
100
AcDbSpline
210
0.0
220
0.0
230
1.0
 70
     8
 71
     3
 72
     9
 73
     5
 74
     0
 42
0.000000001
 43
0.00000001
 40
0.0
 40
0.0
 40
0.0
 40
0.0
 40
0.0915926663816104
 40
1.0
 40
1.0
 40
1.0
 40
1.0
 10
14.82788733362094
 20
10.37001689263876
 30
0.0
 10
14.82786452032928
 20
10.37025933822999
 30
0.0
 10
14.82761544698569
 20
10.37290633608266
 30
0.0
 10
14.82736550696759
 20
10.37555281174599
 30
0.0
 10
14.82713845962217
 20
10.3779568896468
 30
0.0
  0
LWPOLYLINE
  5
15C
330
1B
100
AcDbEntity
 67
     1
  8
0
  6
Continuous
 62
     7
370
    25
100
AcDbPolyline
 90
        4
 70
   128
 43
0.0
 10
14.8111019416
 20
10.4087908922
 10
14.8109692215
 20
10.4132777904
 10
14.810836294
 20
10.4177645687
 10
14.8106591352
 20
10.423746169
  0
LINE
  5
15D
330
1B
100
AcDbEntity
 67
     1
  8
0
  6
Continuous
 62
     7
370
    25
100
AcDbLine
 10
14.8297654559
 20
10.38004848
 30
0.0
 11
14.8302099475
 21
10.3950028138
 31
0.0
  0
SPLINE
  5
15E
330
1B
100
AcDbEntity
 67
     1
  8
0
  6
Continuous
 62
     7
370
    25
100
AcDbSpline
210
0.0
220
0.0
230
1.0
 70
     8
 71
     3
 72
    17
 73
    13
 74
     0
 42
0.000000001
 43
0.00000001
 40
0.0
 40
0.0
 40
0.0
 40
0.0
 40
0.107330345875031
 40
0.2146959389363696
 40
0.3218537032164144
 40
0.4296922234593865
 40
0.5363079736633234
 40
0.6440936571563491
 40
0.750919403565497
 40
0.8588120058632107
 40
0.9665301422002729
 40
1.0
 40
1.0
 40
1.0
 40
1.0
 10
14.83020994750514
 20
10.39500281378559
 30
0.0
 10
14.83203592596206
 20
10.39413461128898
 30
0.0
 10
14.83568848252555
 20
10.39239792117887
 30
0.0
 10
14.8426691418762
 20
10.3913159093158
 30
0.0
 10
14.8498014587239
 20
10.39153354136744
 30
0.0
 10
14.85641715093518
 20
10.39312581257262
 30
0.0
 10
14.86173824185393
 20
10.395894991124
 30
0.0
 10
14.86517649994508
 20
10.39951266104995
 30
0.0
 10
14.86634133736147
 20
10.4036004081136
 30
0.0
 10
14.86511541971196
 20
10.40767282602901
 30
0.0
 10
14.86242705331389
 20
10.41048892019926
 30
0.0
 10
14.8603168895779
 20
10.41178674288403
 30
0.0
 10
14.85981665667489
 20
10.41209440318457
 30
0.0
  0
SPLINE
  5
15F
330
1B
100
AcDbEntity
 67
     1
  8
0
  6
Continuous
 62
     7
370
    25
100
AcDbSpline
210
0.0
220
0.0
230
1.0
 70
     8
 71
     3
 72
    17
 73
    13
 74
     0
 42
0.000000001
 43
0.00000001
 40
0.0
 40
0.0
 40
0.0
 40
0.0
 40
0.1068279713152256
 40
0.2136591076898059
 40
0.3210196666435073
 40
0.4295516578897856
 40
0.5365948033750162
 40
0.6441231962049504
 40
0.7505463269584093
 40
0.858344221789275
 40
0.9662987184651687
 40
1.0
 40
1.0
 40
1.0
 40
1.0
 10
14.85981665667489
 20
10.41209440318457
 30
0.0
 10
14.85799892602828
 20
10.41295723662319
 30
0.0
 10
14.85436341088002
 20
10.41468292906412
 30
0.0
 10
14.84740551951966
 20
10.41575941591529
 30
0.0
 10
14.84026996417836
 20
10.41555078995416
 30
0.0
 10
14.83362138447492
 20
10.41396450401066
 30
0.0
 10
14.82828038968162
 20
10.41119309967775
 30
0.0
 10
14.82484950394642
 20
10.40757868953247
 30
0.0
 10
14.82369038131513
 20
10.40350297372683
 30
0.0
 10
14.82490860834004
 20
10.39943612966527
 30
0.0
 10
14.82759123662774
 20
10.3966143178659
 30
0.0
 10
14.82970666629897
 20
10.39531252331644
 30
0.0
 10
14.83020994750514
 20
10.39500281378559
 30
0.0
  0
LWPOLYLINE
  5
160
330
1B
100
AcDbEntity
 67
     1
  8
0
  6
Continuous
 62
     7
370
    25
100
AcDbPolyline
 90
        4
 70
   128
 43
0.0
 10
14.8815609148
 20
10.4096114001
 10
14.8817014129
 20
10.4140937426
 10
14.8818417296
 20
10.4185759503
 10
14.8820287925
 20
10.4245517545
  0
LWPOLYLINE
  5
161
330
1B
100
AcDbEntity
 67
     1
  8
0
  6
Continuous
 62
     7
370
    25
100
AcDbPolyline
 90
        3
 70
   128
 43
0.0
 10
14.8902487762
 20
10.3991787965
 10
14.8904654477
 20
10.406909315
 10
14.8906820933
 20
10.4146398485
  0
LINE
  5
162
330
1B
100
AcDbEntity
 67
     1
  8
0
  6
Continuous
 62
     7
370
    25
100
AcDbLine
 10
14.9254820482
 20
10.4195185315
 30
0.0
 11
14.9254820741
 21
10.4347294498
 31
0.0
  0
SPLINE
  5
163
330
1B
100
AcDbEntity
 67
     1
  8
0
  6
Continuous
 62
     7
370
    25
100
AcDbSpline
210
0.0
220
0.0
230
1.0
 70
     8
 71
     3
 72
    11
 73
     7
 74
     0
 42
0.000000001
 43
0.00000001
 40
0.0
 40
0.0
 40
0.0
 40
0.0
 40
0.084716842204445
 40
0.3164836800809548
 40
0.6644568532848669
 40
1.0
 40
1.0
 40
1.0
 40
1.0
 10
14.816373123657
 20
10.44797822620174
 30
0.0
 10
14.81596147756016
 20
10.44860747563435
 30
0.0
 10
14.8144236573555
 20
10.45095821453041
 30
0.0
 10
14.80774868928839
 20
10.45478283535747
 30
0.0
 10
14.79687229407802
 20
10.45850678716624
 30
0.0
 10
14.7877295576576
 20
10.45978043651755
 30
0.0
 10
14.78324132166573
 20
10.46040568027354
 30
0.0
  0
LINE
  5
164
330
1B
100
AcDbEntity
 67
     1
  8
0
  6
Continuous
 62
     7
370
    25
100
AcDbLine
 10
14.7781306533
 20
10.4362812217
 30
0.0
 11
14.7456161849
 21
10.4175110187
 31
0.0
  0
SPLINE
  5
165
330
1B
100
AcDbEntity
 67
     1
  8
0
  6
Continuous
 62
     7
370
    25
100
AcDbSpline
210
0.0
220
0.0
230
1.0
 70
     8
 71
     3
 72
    11
 73
     7
 74
     0
 42
0.000000001
 43
0.00000001
 40
0.0
 40
0.0
 40
0.0
 40
0.0
 40
0.0923204602535176
 40
0.4738443174919744
 40
0.8429888998577448
 40
1.0
 40
1.0
 40
1.0
 40
1.0
 10
14.78191251366875
 20
10.44160081293118
 30
0.0
 10
14.78197253873051
 20
10.4414203534616
 30
0.0
 10
14.78228062357261
 20
10.44049412655626
 30
0.0
 10
14.78131046907111
 20
10.43882018233158
 30
0.0
 10
14.77974719306247
 20
10.4372662633764
 30
0.0
 10
14.77850217998483
 20
10.43650761222542
 30
0.0
 10
14.77813065330649
 20
10.4362812217182
 30
0.0
  0
LINE
  5
166
330
1B
100
AcDbEntity
 67
     1
  8
0
  6
Continuous
 62
     7
370
    25
100
AcDbLine
 10
14.7682129341
 20
10.4778524664
 30
0.0
 11
14.7046516701
 21
10.4411593297
 31
0.0
  0
LINE
  5
167
330
1B
100
AcDbEntity
 67
     1
  8
0
  6
Continuous
 62
     7
370
    25
100
AcDbLine
 10
14.783949957
 20
10.4687676764
 30
0.0
 11
14.7682129341
 21
10.4778524664
 31
0.0
  0
LINE
  5
168
330
1B
100
AcDbEntity
 67
     1
  8
0
  6
Continuous
 62
     7
370
    25
100
AcDbLine
 10
14.7781306533
 20
10.4362812217
 30
0.0
 11
14.7776861876
 21
10.4512355406
 31
0.0
  0
LWPOLYLINE
  5
169
330
1B
100
AcDbEntity
 67
     1
  8
0
  6
Continuous
 62
     7
370
    25
100
AcDbPolyline
 90
        3
 70
   128
 43
0.0
 10
14.7832413217
 20
10.4604056803
 10
14.7838732003
 20
10.4678627386
 10
14.7845052864
 20
10.4753199167
  0
LINE
  5
16A
330
1B
100
AcDbEntity
 67
     1
  8
0
  6
Continuous
 62
     7
370
    25
100
AcDbLine
 10
14.7682129341
 20
10.4778524664
 30
0.0
 11
14.7682129471
 21
10.4930633922
 31
0.0
  0
LINE
  5
16B
330
1B
100
AcDbEntity
 67
     1
  8
0
  6
Continuous
 62
     7
370
    25
100
AcDbLine
 10
14.710316002
 20
10.5127872323
 30
0.0
 11
14.7054093787
 21
10.509954699
 31
0.0
  0
LINE
  5
16C
330
1B
100
AcDbEntity
 67
     1
  8
0
  6
Continuous
 62
     7
370
    25
100
AcDbLine
 10
14.7255872149
 20
10.5039713488
 30
0.0
 11
14.710316002
 21
10.5127872323
 31
0.0
  0
SPLINE
  5
16D
330
1B
100
AcDbEntity
 67
     1
  8
0
  6
Continuous
 62
     7
370
    25
100
AcDbSpline
210
0.0
220
0.0
230
1.0
 70
     8
 71
     3
 72
     9
 73
     5
 74
     0
 42
0.000000001
 43
0.00000001
 40
0.0
 40
0.0
 40
0.0
 40
0.0
 40
0.4852227842990525
 40
1.0
 40
1.0
 40
1.0
 40
1.0
 10
14.73685741334664
 20
10.49401290204826
 30
0.0
 10
14.73548851285269
 20
10.495793620456
 30
0.0
 10
14.73266733351354
 20
10.49946351903737
 30
0.0
 10
14.72799330054309
 20
10.50243942184286
 30
0.0
 10
14.72558721486446
 20
10.50397134880327
 30
0.0
  0
SPLINE
  5
16E
330
1B
100
AcDbEntity
 67
     1
  8
0
  6
Continuous
 62
     7
370
    25
100
AcDbSpline
210
0.0
220
0.0
230
1.0
 70
     8
 71
     3
 72
     9
 73
     5
 74
     0
 42
0.000000001
 43
0.00000001
 40
0.0
 40
0.0
 40
0.0
 40
0.0
 40
0.9421657434273936
 40
1.0
 40
1.0
 40
1.0
 40
1.0
 10
14.64063518723202
 20
10.49381369090534
 30
0.0
 10
14.63702337771075
 20
10.49170009164284
 30
0.0
 10
14.63318985951453
 20
10.48945675040777
 30
0.0
 10
14.63189198158005
 20
10.48652463466533
 30
0.0
 10
14.63181691977458
 20
10.48635505793118
 30
0.0
  0
SPLINE
  5
16F
330
1B
100
AcDbEntity
 67
     1
  8
0
  6
Continuous
 62
     7
370
    25
100
AcDbSpline
210
0.0
220
0.0
230
1.0
 70
     8
 71
     3
 72
    12
 73
     8
 74
     0
 42
0.000000001
 43
0.00000001
 40
0.0
 40
0.0
 40
0.0
 40
0.0
 40
0.1844290512720356
 40
0.3856158716037872
 40
0.5912798655621312
 40
0.7740994579861497
 40
0.9999999999999999
 40
0.9999999999999999
 40
0.9999999999999999
 40
0.9999999999999999
 10
14.69359995804268
 20
10.49498116721156
 30
0.0
 10
14.69079292727133
 20
10.49634871677666
 30
0.0
 10
14.68492381061076
 20
10.49920807550496
 30
0.0
 10
14.67354805868212
 20
10.50144285548576
 30
0.0
 10
14.66163984183619
 20
10.50129851139706
 30
0.0
 10
14.65009108752436
 20
10.49865842522983
 30
0.0
 10
14.64400112389392
 20
10.49553822991018
 30
0.0
 10
14.64063518723202
 20
10.49381369090534
 30
0.0
  0
SPLINE
  5
170
330
1B
100
AcDbEntity
 67
     1
  8
0
  6
Continuous
 62
     7
370
    25
100
AcDbSpline
210
0.0
220
0.0
230
1.0
 70
     8
 71
     3
 72
    10
 73
     6
 74
     0
 42
0.000000001
 43
0.00000001
 40
0.0
 40
0.0
 40
0.0
 40
0.0
 40
0.268123442469068
 40
0.5366166924616149
 40
1.0
 40
1.0
 40
1.0
 40
1.0
 10
14.70353712891691
 20
10.48498522360531
 30
0.0
 10
14.70305283867739
 20
10.48599122452748
 30
0.0
 10
14.70208359024418
 20
10.48800461389209
 30
0.0
 10
14.69890845873255
 20
10.49147048549745
 30
0.0
 10
14.69565797963248
 20
10.49362013154731
 30
0.0
 10
14.69359995804268
 20
10.49498116721156
 30
0.0
  0
SPLINE
  5
171
330
1B
100
AcDbEntity
 67
     1
  8
0
  6
Continuous
 62
     7
370
    25
100
AcDbSpline
210
0.0
220
0.0
230
1.0
 70
     8
 71
     3
 72
    11
 73
     7
 74
     0
 42
0.000000001
 43
0.00000001
 40
0.0
 40
0.0
 40
0.0
 40
0.0
 40
0.2185422829970585
 40
0.4732862344037038
 40
0.8611983842406727
 40
1.0
 40
1.0
 40
1.0
 40
1.0
 10
14.70962286446088
 20
10.49063534913165
 30
0.0
 10
14.70960778709608
 20
10.49012337671159
 30
0.0
 10
14.70957513479138
 20
10.48901462331393
 30
0.0
 10
14.70792270810762
 20
10.48719464195674
 30
0.0
 10
14.70569862767663
 20
10.48589090032303
 30
0.0
 10
14.70398793670996
 20
10.48517411389289
 30
0.0
 10
14.70353712891691
 20
10.48498522360531
 30
0.0
  0
SPLINE
  5
172
330
1B
100
AcDbEntity
 67
     1
  8
0
  6
Continuous
 62
     7
370
    25
100
AcDbSpline
210
0.0
220
0.0
230
1.0
 70
     8
 71
     3
 72
    11
 73
     7
 74
     0
 42
0.000000001
 43
0.00000001
 40
0.0
 40
0.0
 40
0.0
 40
0.0
 40
0.3070309395933496
 40
0.6141084452273602
 40
0.9218542617344739
 40
1.0
 40
1.0
 40
1.0
 40
1.0
 10
14.68295199337622
 20
10.47156060623807
 30
0.0
 10
14.68399795024817
 20
10.47229141203136
 30
0.0
 10
14.68609002262777
 20
10.47375313445607
 30
0.0
 10
14.6872906530398
 20
10.47652324368383
 30
0.0
 10
14.68737512189969
 20
10.47872163573346
 30
0.0
 10
14.68653412010191
 20
10.47979755578267
 30
0.0
 10
14.68636381135698
 20
10.48001543711622
 30
0.0
  0
SPLINE
  5
173
330
1B
100
AcDbEntity
 67
     1
  8
0
  6
Continuous
 62
     7
370
    25
100
AcDbSpline
210
0.0
220
0.0
230
1.0
 70
     8
 71
     3
 72
    14
 73
    10
 74
     0
 42
0.000000001
 43
0.00000001
 40
0.0
 40
0.0
 40
0.0
 40
0.0
 40
0.1340183308715648
 40
0.2962219176762786
 40
0.460417664328569
 40
0.6221110515713825
 40
0.7848867540954086
 40
0.9480018752322247
 40
1.0
 40
1.0
 40
1.0
 40
1.0
 10
14.65881605844395
 20
10.47514307284237
 30
0.0
 10
14.65925342430866
 20
10.47440483137018
 30
0.0
 10
14.66022013799869
 20
10.47277308962874
 30
0.0
 10
14.66348233058037
 20
10.4707834958633
 30
0.0
 10
14.66780611279482
 20
10.469392815299
 30
0.0
 10
14.67273238326407
 20
10.46893222592719
 30
0.0
 10
14.6776135563363
 20
10.4694272730379
 30
0.0
 10
14.68100304387881
 20
10.4705054727626
 30
0.0
 10
14.68257259463001
 20
10.47135520516522
 30
0.0
 10
14.68295199337622
 20
10.47156060623807
 30
0.0
  0
LINE
  5
174
330
1B
100
AcDbEntity
 67
     1
  8
0
  6
Continuous
 62
     7
370
    25
100
AcDbLine
 10
14.6594777596
 20
10.4672378324
 30
0.0
 11
14.6589070102
 21
10.4731314828
 31
0.0
  0
LINE
  5
175
330
1B
100
AcDbEntity
 67
     1
  8
0
  6
Continuous
 62
     7
370
    25
100
AcDbLine
 10
14.6406351872
 20
10.4938136909
 30
0.0
 11
14.6401907215
 21
10.5087680097
 31
0.0
  0
LINE
  5
176
330
1B
100
AcDbEntity
 67
     1
  8
0
  6
Continuous
 62
     7
370
    25
100
AcDbLine
 10
14.6829519934
 20
10.4715606062
 30
0.0
 11
14.6825075277
 21
10.4865149251
 31
0.0
  0
SPLINE
  5
177
330
1B
100
AcDbEntity
 67
     1
  8
0
  6
Continuous
 62
     7
370
    25
100
AcDbSpline
210
0.0
220
0.0
230
1.0
 70
     8
 71
     3
 72
    17
 73
    13
 74
     0
 42
0.000000001
 43
0.00000001
 40
0.0
 40
0.0
 40
0.0
 40
0.0
 40
0.1073160018349799
 40
0.2146785283242627
 40
0.3217320338998316
 40
0.4294977595117075
 40
0.5363114227461596
 40
0.6446460932592641
 40
0.751190109808731
 40
0.8582811945987731
 40
0.9656203693057267
 40
1.0
 40
1.0
 40
1.0
 40
1.0
 10
14.66282009979681
 20
10.49788023527916
 30
0.0
 10
14.66181947916702
 20
10.49717899898327
 30
0.0
 10
14.65981780410887
 20
10.49577622238486
 30
0.0
 10
14.65857046152853
 20
10.49309588022989
 30
0.0
 10
14.65882270520811
 20
10.49035778327626
 30
0.0
 10
14.66065763623181
 20
10.48781675362307
 30
0.0
 10
14.66385029361819
 20
10.48576617228895
 30
0.0
 10
14.66802426621539
 20
10.48443994228049
 30
0.0
 10
14.67273040740821
 20
10.48399761011345
 30
0.0
 10
14.67740023305947
 20
10.48447300594012
 30
0.0
 10
14.68064091535547
 20
10.48550446221338
 30
0.0
 10
14.68214310967173
 20
10.48631765279525
 30
0.0
 10
14.68250752768724
 20
10.48651492507545
 30
0.0
  0
SPLINE
  5
178
330
1B
100
AcDbEntity
 67
     1
  8
0
  6
Continuous
 62
     7
370
    25
100
AcDbSpline
210
0.0
220
0.0
230
1.0
 70
     8
 71
     3
 72
    17
 73
    13
 74
     0
 42
0.000000001
 43
0.00000001
 40
0.0
 40
0.0
 40
0.0
 40
0.0
 40
0.1070116474760197
 40
0.2140343234963696
 40
0.3212074921262417
 40
0.4291264508051736
 40
0.5358425610043378
 40
0.6440327186926177
 40
0.7510770986776438
 40
0.859084213915139
 40
0.966902387272749
 40
1.0
 40
1.0
 40
1.0
 40
1.0
 10
14.68250752768724
 20
10.48651492507545
 30
0.0
 10
14.68350280689546
 20
10.4872132135926
 30
0.0
 10
14.68549346788469
 20
10.48860986259203
 30
0.0
 10
14.6867346780736
 20
10.49128062399048
 30
0.0
 10
14.68648892492416
 20
10.49401315242125
 30
0.0
 10
14.68465869959119
 20
10.49655182190379
 30
0.0
 10
14.68147232864115
 20
10.49859788113995
 30
0.0
 10
14.67730472683885
 20
10.49992337998265
 30
0.0
 10
14.67259192845972
 20
10.5003742140988
 30
0.0
 10
14.66789976890307
 20
10.49990637897771
 30
0.0
 10
14.66466019808109
 20
10.49887743738952
 30
0.0
 10
14.66317008928503
 20
10.49806990463499
 30
0.0
 10
14.66282009979681
 20
10.49788023527916
 30
0.0
  0
LINE
  5
179
330
1B
100
AcDbEntity
 67
     1
  8
0
  6
Continuous
 62
     7
370
    25
100
AcDbLine
 10
14.693599958
 20
10.4949811672
 30
0.0
 11
14.6940523768
 21
10.5099306853
 31
0.0
  0
LINE
  5
17A
330
1B
100
AcDbEntity
 67
     1
  8
0
  6
Continuous
 62
     7
370
    25
100
AcDbLine
 10
14.7035371289
 20
10.4849852236
 30
0.0
 11
14.703921282
 21
10.5002969655
 31
0.0
  0
LINE
  5
17B
330
1B
100
AcDbEntity
 67
     1
  8
0
  6
Continuous
 62
     7
370
    25
100
AcDbLine
 10
14.679129661
 20
10.5270031564
 30
0.0
 11
14.6712323642
 21
10.5282947453
 31
0.0
  0
LINE
  5
17C
330
1B
100
AcDbEntity
 67
     1
  8
0
  6
Continuous
 62
     7
370
    25
100
AcDbLine
 10
14.6480096639
 20
10.5472278133
 30
0.0
 11
14.5844627116
 21
10.5105429386
 31
0.0
  0
LINE
  5
17D
330
1B
100
AcDbEntity
 67
     1
  8
0
  6
Continuous
 62
     7
370
    25
100
AcDbLine
 10
14.6639674062
 20
10.5380156048
 30
0.0
 11
14.6480096639
 21
10.5472278133
 31
0.0
  0
LWPOLYLINE
  5
17E
330
1B
100
AcDbEntity
 67
     1
  8
0
  6
Continuous
 62
     7
370
    25
100
AcDbPolyline
 90
        4
 70
   128
 43
0.0
 10
14.7255872149
 20
10.5039713488
 10
14.725723098
 20
10.5084566296
 10
14.7258587672
 20
10.5129417948
 10
14.7260398605
 20
10.5189207359
  0
SPLINE
  5
17F
330
1B
100
AcDbEntity
 67
     1
  8
0
  6
Continuous
 62
     7
370
    25
100
AcDbSpline
210
0.0
220
0.0
230
1.0
 70
     8
 71
     3
 72
     9
 73
     5
 74
     0
 42
0.000000001
 43
0.00000001
 40
0.0
 40
0.0
 40
0.0
 40
0.0
 40
0.4999999741594594
 40
1.0
 40
1.0
 40
1.0
 40
1.0
 10
14.47096254295163
 20
10.55527356330338
 30
0.0
 10
14.47094951411924
 20
10.55781617630776
 30
0.0
 10
14.47092345645311
 20
10.56290140257933
 30
0.0
 10
14.47089942757464
 20
10.56798555323833
 30
0.0
 10
14.47088741313478
 20
10.5705276286992
 30
0.0
  0
LINE
  5
180
330
1B
100
AcDbEntity
 67
     1
  8
0
  6
Continuous
 62
     7
370
    25
100
AcDbLine
 10
14.470962543
 20
10.5552735633
 30
0.0
 11
14.4671420968
 21
10.5507617316
 31
0.0
  0
LINE
  5
181
330
1B
100
AcDbEntity
 67
     1
  8
0
  6
Continuous
 62
     7
370
    25
100
AcDbLine
 10
14.5368953563
 20
10.5320155857
 30
0.0
 11
14.5268180697
 21
10.5261980919
 31
0.0
  0
SPLINE
  5
182
330
1B
100
AcDbEntity
 67
     1
  8
0
  6
Continuous
 62
     7
370
    25
100
AcDbSpline
210
0.0
220
0.0
230
1.0
 70
     8
 71
     3
 72
     9
 73
     5
 74
     0
 42
0.000000001
 43
0.00000001
 40
0.0
 40
0.0
 40
0.0
 40
0.0
 40
0.705916949213063
 40
1.0
 40
1.0
 40
1.0
 40
1.0
 10
14.51531146447847
 20
10.57876999730876
 30
0.0
 10
14.51066099684047
 20
10.57562584000207
 30
0.0
 10
14.50407315723245
 20
10.57117183544786
 30
0.0
 10
14.50273839989395
 20
10.56549383229337
 30
0.0
 10
14.50234587038378
 20
10.56382402780332
 30
0.0
  0
SPLINE
  5
183
330
1B
100
AcDbEntity
 67
     1
  8
0
  6
Continuous
 62
     7
370
    25
100
AcDbSpline
210
0.0
220
0.0
230
1.0
 70
     8
 71
     3
 72
    15
 73
    11
 74
     0
 42
0.000000001
 43
0.00000001
 40
0.0
 40
0.0
 40
0.0
 40
0.0
 40
0.100559656061842
 40
0.2128761139993977
 40
0.3222063191942922
 40
0.4507962165646994
 40
0.5918844088884175
 40
0.7358253672309972
 40
0.8815685601319938
 40
1.0
 40
1.0
 40
1.0
 40
1.0
 10
14.59703343338661
 20
10.56673255857232
 30
0.0
 10
14.59683274078109
 20
10.56884874650631
 30
0.0
 10
14.59640789185415
 20
10.57332853374428
 30
0.0
 10
14.59061909224907
 20
10.57940743807219
 30
0.0
 10
14.58154872249717
 20
10.58459380331063
 30
0.0
 10
14.56923272479616
 20
10.58835067960954
 30
0.0
 10
14.55423084303039
 20
10.58986405615385
 30
0.0
 10
14.53860939961027
 20
10.58834729109211
 30
0.0
 10
14.52527084113911
 20
10.58434217330495
 30
0.0
 10
14.51839427837626
 20
10.58049480220241
 30
0.0
 10
14.51531146447847
 20
10.57876999730876
 30
0.0
  0
LINE
  5
184
330
1B
100
AcDbEntity
 67
     1
  8
0
  6
Continuous
 62
     7
370
    25
100
AcDbLine
 10
14.6056855674
 20
10.5717273292
 30
0.0
 11
14.5970334334
 21
10.5667325586
 31
0.0
  0
LINE
  5
185
330
1B
100
AcDbEntity
 67
     1
  8
0
  6
Continuous
 62
     7
370
    25
100
AcDbLine
 10
14.6154641845
 20
10.5660822538
 30
0.0
 11
14.6056855674
 21
10.5717273292
 31
0.0
  0
LINE
  5
186
330
1B
100
AcDbEntity
 67
     1
  8
0
  6
Continuous
 62
     7
370
    25
100
AcDbLine
 10
14.4965385352
 20
10.5405088573
 30
0.0
 11
14.470962543
 21
10.5552735633
 31
0.0
  0
SPLINE
  5
187
330
1B
100
AcDbEntity
 67
     1
  8
0
  6
Continuous
 62
     7
370
    25
100
AcDbSpline
210
0.0
220
0.0
230
1.0
 70
     8
 71
     3
 72
    10
 73
     6
 74
     0
 42
0.000000001
 43
0.00000001
 40
0.0
 40
0.0
 40
0.0
 40
0.0
 40
0.6089958725432659
 40
0.9560477454120038
 40
1.0
 40
1.0
 40
1.0
 40
1.0
 10
14.50357203034827
 20
10.52786134258991
 30
0.0
 10
14.50163252017147
 20
10.529274869543
 30
0.0
 10
14.498587730518
 20
10.53149393098087
 30
0.0
 10
14.49633548681897
 20
10.53435735458358
 30
0.0
 10
14.49644079805881
 20
10.53552551979493
 30
0.0
 10
14.49645263595539
 20
10.53565683169464
 30
0.0
  0
SPLINE
  5
188
330
1B
100
AcDbEntity
 67
     1
  8
0
  6
Continuous
 62
     7
370
    25
100
AcDbSpline
210
0.0
220
0.0
230
1.0
 70
     8
 71
     3
 72
    12
 73
     8
 74
     0
 42
0.000000001
 43
0.00000001
 40
0.0
 40
0.0
 40
0.0
 40
0.0
 40
0.1977575116713264
 40
0.3467524039036138
 40
0.4963273507788559
 40
0.6781040964898699
 40
1.0
 40
1.0
 40
1.0
 40
1.0
 10
14.52681806974414
 20
10.5261980919419
 30
0.0
 10
14.52547362906288
 20
10.52552261664805
 30
0.0
 10
14.52311625697525
 20
10.52433822329712
 30
0.0
 10
14.5188181379719
 20
10.52348683044573
 30
0.0
 10
14.51444342652349
 20
10.523560702273
 30
0.0
 10
14.50892458945631
 20
10.52487316415564
 30
0.0
 10
14.50565903674462
 20
10.5266962274777
 30
0.0
 10
14.50357203034827
 20
10.52786134258991
 30
0.0
  0
SPLINE
  5
189
330
1B
100
AcDbEntity
 67
     1
  8
0
  6
Continuous
 62
     7
370
    25
100
AcDbSpline
210
0.0
220
0.0
230
1.0
 70
     8
 71
     3
 72
    11
 73
     7
 74
     0
 42
0.000000001
 43
0.00000001
 40
0.0
 40
0.0
 40
0.0
 40
0.0
 40
0.0244187401026746
 40
0.4457346816661357
 40
0.8675169995032163
 40
1.0
 40
1.0
 40
1.0
 40
1.0
 10
14.53141547363442
 20
10.55846315862264
 30
0.0
 10
14.53139151643247
 20
10.55838320172424
 30
0.0
 10
14.53095420657363
 20
10.55692368487354
 30
0.0
 10
14.53236797390875
 20
10.55400234683431
 30
0.0
 10
14.53494797185171
 20
10.55110478835489
 30
0.0
 10
14.53713867983825
 20
10.54976132644328
 30
0.0
 10
14.53766231275857
 20
10.54944020610755
 30
0.0
  0
SPLINE
  5
18A
330
1B
100
AcDbEntity
 67
     1
  8
0
  6
Continuous
 62
     7
370
    25
100
AcDbSpline
210
0.0
220
0.0
230
1.0
 70
     8
 71
     3
 72
    15
 73
    11
 74
     0
 42
0.000000001
 43
0.00000001
 40
0.0
 40
0.0
 40
0.0
 40
0.0
 40
0.1421815509594
 40
0.2843906773152808
 40
0.4266795864408054
 40
0.5698133669672496
 40
0.7100623841733191
 40
0.8523444097094801
 40
0.994596610217872
 40
1.0
 40
1.0
 40
1.0
 40
1.0
 10
14.53766231275857
 20
10.54944020610755
 30
0.0
 10
14.53954882415636
 20
10.54854404190132
 30
0.0
 10
14.54332221283134
 20
10.54675153968232
 30
0.0
 10
14.55053498010137
 20
10.54563401499218
 30
0.0
 10
14.5579157032909
 20
10.54585552333418
 30
0.0
 10
14.56472684127668
 20
10.54750130339464
 30
0.0
 10
14.57024839285308
 20
10.55036703689935
 30
0.0
 10
14.57356803348416
 20
10.55408058910195
 30
0.0
 10
14.57495468325592
 20
10.5569834477195
 30
0.0
 10
14.57450935723386
 20
10.55841192439062
 30
0.0
 10
14.57449306072878
 20
10.55846419885062
 30
0.0
  0
LINE
  5
18B
330
1B
100
AcDbEntity
 67
     1
  8
0
  6
Continuous
 62
     7
370
    25
100
AcDbLine
 10
14.710316002
 20
10.5127872323
 30
0.0
 11
14.7103158205
 21
10.527998031
 31
0.0
  0
LINE
  5
18C
330
1B
100
AcDbEntity
 67
     1
  8
0
  6
Continuous
 62
     7
370
    25
100
AcDbLine
 10
14.6480096639
 20
10.5472278133
 30
0.0
 11
14.6480094792
 21
10.5624386138
 31
0.0
  0
LWPOLYLINE
  5
18D
330
1B
100
AcDbEntity
 67
     1
  8
0
  6
Continuous
 62
     7
370
    25
100
AcDbPolyline
 90
        3
 70
   128
 43
0.0
 10
14.6632499881
 20
10.5306707519
 10
14.6637979671
 20
10.5362821778
 10
14.6645321016
 20
10.5437982671
  0
LINE
  5
18E
330
1B
100
AcDbEntity
 67
     1
  8
0
  6
Continuous
 62
     7
370
    25
100
AcDbLine
 10
14.5268180697
 20
10.5261980919
 30
0.0
 11
14.5263748453
 21
10.5411531311
 31
0.0
  0
LINE
  5
18F
330
1B
100
AcDbEntity
 67
     1
  8
0
  6
Continuous
 62
     7
370
    25
100
AcDbLine
 10
14.5035720303
 20
10.5278613426
 30
0.0
 11
14.5040331865
 21
10.5428058167
 31
0.0
  0
LINE
  5
190
330
1B
100
AcDbEntity
 67
     1
  8
0
  6
Continuous
 62
     7
370
    25
100
AcDbLine
 10
14.5153114645
 20
10.5787699973
 30
0.0
 11
14.5148515074
 21
10.5937150589
 31
0.0
  0
LINE
  5
191
330
1B
100
AcDbEntity
 67
     1
  8
0
  6
Continuous
 62
     7
370
    25
100
AcDbLine
 10
14.5368953563
 20
10.5320155857
 30
0.0
 11
14.5354523887
 21
10.5463934854
 31
0.0
  0
LINE
  5
192
330
1B
100
AcDbEntity
 67
     1
  8
0
  6
Continuous
 62
     7
370
    25
100
AcDbLine
 10
14.5376623128
 20
10.5494402061
 30
0.0
 11
14.5381068044
 21
10.5643945399
 31
0.0
  0
SPLINE
  5
193
330
1B
100
AcDbEntity
 67
     1
  8
0
  6
Continuous
 62
     7
370
    25
100
AcDbSpline
210
0.0
220
0.0
230
1.0
 70
     8
 71
     3
 72
    17
 73
    13
 74
     0
 42
0.000000001
 43
0.00000001
 40
0.0
 40
0.0
 40
0.0
 40
0.0
 40
0.1073950215111701
 40
0.2148123289414522
 40
0.3222736669945584
 40
0.4304546832871416
 40
0.5362742084619219
 40
0.6438058179078936
 40
0.7512271190146513
 40
0.8589622976272554
 40
0.9666918108932527
 40
1.0
 40
1.0
 40
1.0
 40
1.0
 10
14.53810680437451
 20
10.56439453991224
 30
0.0
 10
14.53993836633395
 20
10.56352433250159
 30
0.0
 10
14.54360187032671
 20
10.56178373710049
 30
0.0
 10
14.55060600855279
 20
10.56069912327792
 30
0.0
 10
14.55776926582268
 20
10.56091309289646
 30
0.0
 10
14.56439701633069
 20
10.56251221160333
 30
0.0
 10
14.56969981401071
 20
10.56529142190858
 30
0.0
 10
14.57313884038577
 20
10.56891026432715
 30
0.0
 10
14.5743139640724
 20
10.57300964477331
 30
0.0
 10
14.57307507404065
 20
10.57709560283707
 30
0.0
 10
14.57038229958568
 20
10.57991329386445
 30
0.0
 10
14.56826985373849
 20
10.58121247546113
 30
0.0
 10
14.56777096766354
 20
10.5815192968683
 30
0.0
  0
SPLINE
  5
194
330
1B
100
AcDbEntity
 67
     1
  8
0
  6
Continuous
 62
     7
370
    25
100
AcDbSpline
210
0.0
220
0.0
230
1.0
 70
     8
 71
     3
 72
    17
 73
    13
 74
     0
 42
0.000000001
 43
0.00000001
 40
0.0
 40
0.0
 40
0.0
 40
0.0
 40
0.1067627264718804
 40
0.2135407328550049
 40
0.3205439442598044
 40
0.4284518442747338
 40
0.5362438587201228
 40
0.6446460213722468
 40
0.7506525506796654
 40
0.8583452256592746
 40
0.9661475380192242
 40
0.9999999999999999
 40
0.9999999999999999
 40
0.9999999999999999
 40
0.9999999999999999
 10
14.56777096766354
 20
10.5815192968683
 30
0.0
 10
14.56595223282136
 20
10.58238314486694
 30
0.0
 10
14.56231450283914
 20
10.58411096449839
 30
0.0
 10
14.55535664900477
 20
10.58518908166671
 30
0.0
 10
14.54823310369202
 20
10.58497492198475
 30
0.0
 10
14.54158426660479
 20
10.58338756991361
 30
0.0
 10
14.53619931468488
 20
10.58061692807554
 30
0.0
 10
14.53273603421118
 20
10.57698547434812
 30
0.0
 10
14.53158259594871
 20
10.57289898149066
 30
0.0
 10
14.53279740461719
 20
10.56883476479252
 30
0.0
 10
14.53548243894293
 20
10.56600996297893
 30
0.0
 10
14.5376006074059
 20
10.56470612847744
 30
0.0
 10
14.53810680437451
 20
10.56439453991224
 30
0.0
  0
LINE
  5
195
330
1B
100
AcDbEntity
 67
     1
  8
0
  6
Continuous
 62
     7
370
    25
100
AcDbLine
 10
14.5970334334
 20
10.5667325586
 30
0.0
 11
14.5976725035
 21
10.5823123931
 31
0.0
  0
LINE
  5
196
330
1B
100
AcDbEntity
 67
     1
  8
0
  6
Continuous
 62
     7
370
    25
100
AcDbLine
 10
14.6056855674
 20
10.5717273292
 30
0.0
 11
14.6056855901
 21
10.5869382495
 31
0.0
  0
SPLINE
  5
197
330
1B
100
AcDbEntity
 67
     1
  8
0
  6
Continuous
 62
     7
370
    25
100
AcDbSpline
210
0.0
220
0.0
230
1.0
 70
     8
 71
     3
 72
    10
 73
     6
 74
     0
 42
0.000000001
 43
0.00000001
 40
0.0
 40
0.0
 40
0.0
 40
0.0
 40
0.4471190318769649
 40
0.8241652075416216
 40
1.0
 40
1.0
 40
1.0
 40
1.0
 10
14.44623111785167
 20
10.59720598783355
 30
0.0
 10
14.44469263638737
 20
10.59826792169582
 30
0.0
 10
14.44185678551785
 20
10.60022536228678
 30
0.0
 10
14.44002793222757
 20
10.60327995471376
 30
0.0
 10
14.44031682518283
 20
10.6049878927126
 30
0.0
 10
14.44040870288483
 20
10.60553107459237
 30
0.0
  0
SPLINE
  5
198
330
1B
100
AcDbEntity
 67
     1
  8
0
  6
Continuous
 62
     7
370
    25
100
AcDbSpline
210
0.0
220
0.0
230
1.0
 70
     8
 71
     3
 72
    11
 73
     7
 74
     0
 42
0.000000001
 43
0.00000001
 40
0.0
 40
0.0
 40
0.0
 40
0.0
 40
0.2424813332350106
 40
0.5133514826435431
 40
0.9215252864590405
 40
1.0
 40
1.0
 40
1.0
 40
1.0
 10
14.46321197318645
 20
10.59348251046796
 30
0.0
 10
14.46167866722631
 20
10.59334332022192
 30
0.0
 10
14.45843254152468
 20
10.5930486438515
 30
0.0
 10
14.45273614293923
 20
10.59414421333915
 30
0.0
 10
14.44878933832946
 20
10.59576634899108
 30
0.0
 10
14.44658636005053
 20
10.59700607524885
 30
0.0
 10
14.44623111785167
 20
10.59720598783355
 30
0.0
  0
SPLINE
  5
199
330
1B
100
AcDbEntity
 67
     1
  8
0
  6
Continuous
 62
     7
370
    25
100
AcDbSpline
210
0.0
220
0.0
230
1.0
 70
     8
 71
     3
 72
     9
 73
     5
 74
     0
 42
0.000000001
 43
0.00000001
 40
0.0
 40
0.0
 40
0.0
 40
0.0
 40
0.5943299435417794
 40
1.0
 40
1.0
 40
1.0
 40
1.0
 10
14.43002238002556
 20
10.63122730266677
 30
0.0
 10
14.42504085851959
 20
10.62806734239724
 30
0.0
 10
14.41665911440573
 20
10.6227504972612
 30
0.0
 10
14.41320716931538
 20
10.61589108334963
 30
0.0
 10
14.41180681855569
 20
10.61310842452086
 30
0.0
  0
SPLINE
  5
19A
330
1B
100
AcDbEntity
 67
     1
  8
0
  6
Continuous
 62
     7
370
    25
100
AcDbSpline
210
0.0
220
0.0
230
1.0
 70
     8
 71
     3
 72
    12
 73
     8
 74
     0
 42
0.000000001
 43
0.00000001
 40
0.0
 40
0.0
 40
0.0
 40
0.0
 40
0.1955526465830379
 40
0.3928181505898751
 40
0.5992749974987206
 40
0.8089985269036023
 40
1.0
 40
1.0
 40
1.0
 40
1.0
 10
14.50563863829586
 20
10.6326888304703
 30
0.0
 10
14.50136852067163
 20
10.63470389310759
 30
0.0
 10
14.49279088320541
 20
10.63875166843733
 30
0.0
 10
14.476212362299
 20
10.64142020171376
 30
0.0
 10
14.45886764909171
 20
10.6410564097722
 30
0.0
 10
14.44256652944166
 20
10.6375316271247
 30
0.0
 10
14.43407146539865
 20
10.63326225514566
 30
0.0
 10
14.43002238002556
 20
10.63122730266677
 30
0.0
  0
SPLINE
  5
19B
330
1B
100
AcDbEntity
 67
     1
  8
0
  6
Continuous
 62
     7
370
    25
100
AcDbSpline
210
0.0
220
0.0
230
1.0
 70
     8
 71
     3
 72
    10
 73
     6
 74
     0
 42
0.000000001
 43
0.00000001
 40
0.0
 40
0.0
 40
0.0
 40
0.0
 40
0.190593323632733
 40
0.6297997902789816
 40
1.0
 40
1.0
 40
1.0
 40
1.0
 10
14.5194874403945
 20
10.6113865927603
 30
0.0
 10
14.51978043973978
 20
10.61287726277685
 30
0.0
 10
14.52074863171364
 20
10.61780305789865
 30
0.0
 10
14.5158274426636
 20
10.6255743977449
 30
0.0
 10
14.50883622688086
 20
10.63045608283373
 30
0.0
 10
14.50563863829586
 20
10.6326888304703
 30
0.0
  0
LINE
  5
19C
330
1B
100
AcDbEntity
 67
     1
  8
0
  6
Continuous
 62
     7
370
    25
100
AcDbLine
 10
14.4610257739
 20
10.6221009859
 30
0.0
 11
14.4873627189
 21
10.6068969912
 31
0.0
  0
SPLINE
  5
19D
330
1B
100
AcDbEntity
 67
     1
  8
0
  6
Continuous
 62
     7
370
    25
100
AcDbSpline
210
0.0
220
0.0
230
1.0
 70
     8
 71
     3
 72
    10
 73
     6
 74
     0
 42
0.000000001
 43
0.00000001
 40
0.0
 40
0.0
 40
0.0
 40
0.0
 40
0.4927479437131713
 40
0.9886206756522292
 40
1.0
 40
1.0
 40
1.0
 40
1.0
 10
14.48736271888841
 20
10.60689699122508
 30
0.0
 10
14.48860151173942
 20
10.60797412895202
 30
0.0
 10
14.49108695331455
 20
10.61013523513413
 30
0.0
 10
14.49226901481808
 20
10.61288304539445
 30
0.0
 10
14.49182375539783
 20
10.61419535919676
 30
0.0
 10
14.49181376677127
 20
10.61422479869182
 30
0.0
  0
SPLINE
  5
19E
330
1B
100
AcDbEntity
 67
     1
  8
0
  6
Continuous
 62
     7
370
    25
100
AcDbSpline
210
0.0
220
0.0
230
1.0
 70
     8
 71
     3
 72
     9
 73
     5
 74
     0
 42
0.000000001
 43
0.00000001
 40
0.0
 40
0.0
 40
0.0
 40
0.0
 40
0.499999636795812
 40
1.0
 40
1.0
 40
1.0
 40
1.0
 10
14.46321197318645
 20
10.59348251046796
 30
0.0
 10
14.46324157204989
 20
10.59600053849642
 30
0.0
 10
14.46330076981977
 20
10.60103659821158
 30
0.0
 10
14.46335707660898
 20
10.60607448136886
 30
0.0
 10
14.46338523002403
 20
10.60859342477728
 30
0.0
  0
LINE
  5
19F
330
1B
100
AcDbEntity
 67
     1
  8
0
  6
Continuous
 62
     7
370
    25
100
AcDbLine
 10
14.5056386383
 20
10.6326888305
 30
0.0
 11
14.5060831299
 21
10.6476431643
 31
0.0
  0
LINE
  5
1A0
330
1B
100
AcDbEntity
 67
     1
  8
0
  6
Continuous
 62
     7
370
    25
100
AcDbLine
 10
14.43002238
 20
10.6312273027
 30
0.0
 11
14.429577694
 21
10.6461815092
 31
0.0
  0
LINE
  5
1A1
330
1B
100
AcDbEntity
 67
     1
  8
0
  6
Continuous
 62
     7
370
    25
100
AcDbLine
 10
14.4462311179
 20
10.5972059878
 30
0.0
 11
14.4466756095
 21
10.6121603216
 31
0.0
  0
LINE
  5
1A2
330
1B
100
AcDbEntity
 67
     1
  8
0
  6
Continuous
 62
     7
370
    25
100
AcDbLine
 10
14.4619681537
 20
10.636767895
 30
0.0
 11
14.4873093223
 21
10.6221387498
 31
0.0
  0
SPLINE
  5
1A3
330
1B
100
AcDbEntity
 67
     1
  8
0
  6
Continuous
 62
     7
370
    25
100
AcDbSpline
210
0.0
220
0.0
230
1.0
 70
     8
 71
     3
 72
    12
 73
     8
 74
     0
 42
0.000000001
 43
0.00000001
 40
0.0
 40
0.0
 40
0.0
 40
0.0
 40
0.2321477187797641
 40
0.464420308991
 40
0.6950090455082013
 40
0.9262047092287088
 40
1.0
 40
1.0
 40
1.0
 40
1.0
 10
14.48591377837263
 20
10.63596641804438
 30
0.0
 10
14.48433816605686
 20
10.63671641543953
 30
0.0
 10
14.48118609390907
 20
10.63821681365075
 30
0.0
 10
14.47516479214189
 20
10.63915279268403
 30
0.0
 10
14.46904661274773
 20
10.6389529920527
 30
0.0
 10
14.4646174705597
 20
10.63790556105954
 30
0.0
 10
14.46248429471413
 20
10.63698953556422
 30
0.0
 10
14.46196815372873
 20
10.63676789499821
 30
0.0
  0
SPLINE
  5
1A4
330
1B
100
AcDbEntity
 67
     1
  8
0
  6
Continuous
 62
     7
370
    25
100
AcDbSpline
210
0.0
220
0.0
230
1.0
 70
     8
 71
     3
 72
    12
 73
     8
 74
     0
 42
0.000000001
 43
0.00000001
 40
0.0
 40
0.0
 40
0.0
 40
0.0
 40
0.2305807678708681
 40
0.4611943973064805
 40
0.6918971703987074
 40
0.9230968391589931
 40
1.0
 40
1.0
 40
1.0
 40
1.0
 10
14.48730932233667
 20
10.62213874975096
 30
0.0
 10
14.48841263389834
 20
10.62312173142785
 30
0.0
 10
14.49061941426179
 20
10.62508783487275
 30
0.0
 10
14.4915439451873
 20
10.62863146750636
 30
0.0
 10
14.49051995188483
 20
10.63211256888514
 30
0.0
 10
14.48820756072487
 20
10.63455122745365
 30
0.0
 10
14.48637195075837
 20
10.63568374028788
 30
0.0
 10
14.48591377837263
 20
10.63596641804438
 30
0.0
  0
LWPOLYLINE
  5
1A5
330
1B
100
AcDbEntity
 67
     1
  8
0
  6
Continuous
 62
     7
370
    25
100
AcDbPolyline
 90
        3
 70
   128
 43
0.0
 10
14.4873627189
 20
10.6068969912
 10
14.4873359234
 20
10.6145178069
 10
14.4873093223
 20
10.6221387498
  0
LWPOLYLINE
  5
1A6
330
1B
100
AcDbEntity
 67
     1
  8
0
  6
Continuous
 62
     7
370
    25
100
AcDbPolyline
 90
        3
 70
   128
 43
0.0
 10
14.4610257739
 20
10.6221009859
 10
14.4614968536
 20
10.6294343843
 10
14.4619681537
 20
10.636767895
  0
LINE
  5
1A7
330
1B
100
AcDbEntity
 67
     1
  8
0
  6
Continuous
 62
     7
370
    25
100
AcDbLine
 10
14.4657907713
 20
10.684892657
 30
0.0
 11
14.4561200452
 21
10.6904754483
 31
0.0
  0
LINE
  5
1A8
330
1B
100
AcDbEntity
 67
     1
  8
0
  6
Continuous
 62
     7
370
    25
100
AcDbLine
 10
14.4561200452
 20
10.6904754483
 30
0.0
 11
14.3644483681
 21
10.6375545156
 31
0.0
  0
LINE
  5
1A9
330
1B
100
AcDbEntity
 67
     1
  8
0
  6
Continuous
 62
     7
370
    25
100
AcDbLine
 10
14.4561200452
 20
10.6904754483
 30
0.0
 11
14.4561200711
 21
10.7056863667
 31
0.0
  0
LWPOLYLINE
  5
1AA
330
1B
100
AcDbEntity
 67
     1
  8
0
  6
Continuous
 62
     7
370
    25
100
AcDbPolyline
 90
       11
 70
   128
 43
0.0
 10
14.0609370659
 20
11.0950581558
 10
14.0640646857
 20
11.109144549
 10
14.0567000839
 20
11.1305184053
 10
14.0357273081
 20
11.1486382787
 10
14.0043393656
 20
11.1607456045
 10
13.9673147489
 20
11.1649970986
 10
13.9302900285
 20
11.1607455447
 10
13.8989022416
 20
11.1486383087
 10
13.8779294139
 20
11.1305184053
 10
13.8705647084
 20
11.1091444891
 10
13.8736922245
 20
11.0950581558
  0
LWPOLYLINE
  5
1AB
330
1B
100
AcDbEntity
 67
     1
  8
0
  6
Continuous
 62
     7
370
    25
100
AcDbPolyline
 90
        3
 70
   128
 43
0.0
 10
14.0357273081
 20
11.1124353201
 10
14.0567000839
 20
11.0943154466
 10
14.057187718
 20
11.0936225201
  0
ARC
  5
1AC
330
1B
100
AcDbEntity
 67
     1
  8
0
  6
Continuous
 62
     7
370
    25
100
AcDbCircle
 10
13.96806987
 20
11.0063938882
 30
0.0
 40
0.1257867807106976
100
AcDbArc
 50
57.4609707185
 51
136.095000682
  0
ARC
  5
1AD
330
1B
100
AcDbEntity
 67
     1
  8
0
  6
Continuous
 62
     7
370
    25
100
AcDbCircle
 10
19.1680414949
 20
7.5510448059
 30
0.0
 40
0.2389574117975825
100
AcDbArc
 50
242.6097863452
 51
297.3902760617
  0
ARC
  5
1AE
330
1B
100
AcDbEntity
 67
     1
  8
0
  6
Continuous
 62
     7
370
    25
100
AcDbCircle
 10
19.1040613172
 20
7.3372892642
 30
0.0
 40
0.045979119949809
100
AcDbArc
 50
122.5544666502
 51
178.0223851095
  0
ARC
  5
1AF
330
1B
100
AcDbEntity
 67
     1
  8
0
  6
Continuous
 62
     7
370
    25
100
AcDbCircle
 10
19.1680419334
 20
7.5472775914
 30
0.0
 40
0.1928535389986287
100
AcDbArc
 50
242.6097459602
 51
297.3901767138
  0
ARC
  5
1B0
330
1B
100
AcDbEntity
 67
     1
  8
0
  6
Continuous
 62
     7
370
    25
100
AcDbCircle
 10
19.2320217918
 20
7.3372893465
 30
0.0
 40
0.0459792330467605
100
AcDbArc
 50
1.9776566573
 51
57.4448446348
  0
LINE
  5
1B1
330
1B
100
AcDbEntity
 67
     1
  8
0
  6
Continuous
 62
     7
370
    25
100
AcDbLine
 10
9.0850725601
 20
13.1456003402
 30
0.0
 11
19.0793199016
 21
7.3760441584
 31
0.0
  0
ARC
  5
1B2
330
1B
100
AcDbEntity
 67
     1
  8
0
  6
Continuous
 62
     7
370
    25
100
AcDbCircle
 10
9.1045116224
 20
13.1968184516
 30
0.0
 40
0.0547829542833774
100
AcDbArc
 50
110.783735191
 51
249.2164968372
  0
LINE
  5
1B3
330
1B
100
AcDbEntity
 67
     1
  8
0
  6
Continuous
 62
     7
370
    25
100
AcDbLine
 10
11.0582337938
 20
14.3871183383
 30
0.0
 11
9.0850723526
 21
13.2480364843
 31
0.0
  0
LINE
  5
1B4
330
1B
100
AcDbEntity
 67
     1
  8
0
  6
Continuous
 62
     7
370
    25
100
AcDbLine
 10
11.8776357315
 20
13.9140876684
 30
0.0
 11
11.0582337938
 21
14.3871183383
 31
0.0
  0
ELLIPSE
  5
1B5
330
1B
100
AcDbEntity
 67
     1
  8
0
  6
Continuous
 62
     7
370
    25
100
AcDbEllipse
 10
11.9200557097
 20
13.9385911402
 30
0.0
 11
0.05999999999999872
 21
0.0
 31
0.0
210
0.0
220
0.0
230
1.0
 40
0.5774635729
 41
3.927143110234827
 42
5.497634850534542
  0
LINE
  5
1B6
330
1B
100
AcDbEntity
 67
     1
  8
0
  6
Continuous
 62
     7
370
    25
100
AcDbLine
 10
14.7492361704
 20
15.5228504486
 30
0.0
 11
11.9624755538
 21
13.9140877881
 31
0.0
  0
ELLIPSE
  5
1B7
330
1B
100
AcDbEntity
 67
     1
  8
0
  6
Continuous
 62
     7
370
    25
100
AcDbEllipse
 10
14.7067905205
 20
15.5473389033
 30
0.0
 11
0.0600182779734606
 21
0.0
 31
0.0
210
0.0
220
0.0
230
1.0
 40
0.5771119048
 41
5.497939437029797
 42
7.068431177329448
  0
LINE
  5
1B8
330
1B
100
AcDbEntity
 67
     1
  8
0
  6
Continuous
 62
     7
370
    25
100
AcDbLine
 10
13.9298344401
 20
16.0448581054
 30
0.0
 11
14.7492363778
 21
15.5718274355
 31
0.0
  0
LINE
  5
1B9
330
1B
100
AcDbEntity
 67
     1
  8
0
  6
Continuous
 62
     7
370
    25
100
AcDbLine
 10
15.9029958813
 20
17.1839399593
 30
0.0
 11
13.9298344401
 21
16.0448581054
 31
0.0
  0
ARC
  5
1BA
330
1B
100
AcDbEntity
 67
     1
  8
0
  6
Continuous
 62
     7
370
    25
100
AcDbCircle
 10
15.991717682
 20
17.0127064066
 30
0.0
 40
0.1928535389986161
100
AcDbArc
 50
62.6097459602
 51
117.3901767138
  0
LINE
  5
1BB
330
1B
100
AcDbEntity
 67
     1
  8
0
  6
Continuous
 62
     7
370
    25
100
AcDbLine
 10
17.2598740527
 20
16.5030668885
 30
0.0
 11
16.0804397138
 21
17.1839398396
 31
0.0
  0
LINE
  5
1BC
330
1B
100
AcDbEntity
 67
     1
  8
0
  6
Continuous
 62
     7
370
    25
100
AcDbLine
 10
17.0654134302
 20
16.3908071606
 30
0.0
 11
17.2598740527
 21
16.5030668885
 31
0.0
  0
ELLIPSE
  5
1BD
330
1B
100
AcDbEntity
 67
     1
  8
0
  6
Continuous
 62
     7
370
    25
100
AcDbEllipse
 10
17.1078590451
 20
16.3663187007
 30
0.0
 11
0.06001827797346238
 21
0.0
 31
0.0
210
0.0
220
0.0
230
1.0
 40
0.5771119048
 41
2.356346783439994
 42
3.926838523739681
  0
LINE
  5
1BE
330
1B
100
AcDbEntity
 67
     1
  8
0
  6
Continuous
 62
     7
370
    25
100
AcDbLine
 10
24.6159522715
 20
11.9829967612
 30
0.0
 11
17.0654132228
 21
16.3418301737
 31
0.0
  0
ELLIPSE
  5
1BF
330
1B
100
AcDbEntity
 67
     1
  8
0
  6
Continuous
 62
     7
370
    25
100
AcDbEllipse
 10
24.6583722408
 20
12.0075002129
 30
0.0
 11
0.05999999999999872
 21
0.0
 31
0.0
210
0.0
220
0.0
230
1.0
 40
0.5774635729
 41
3.927143110234842
 42
5.497634850534527
  0
LINE
  5
1C0
330
1B
100
AcDbEntity
 67
     1
  8
0
  6
Continuous
 62
     7
370
    25
100
AcDbLine
 10
24.8952527163
 20
12.0952566089
 30
0.0
 11
24.7007920938
 21
11.982996881
 31
0.0
  0
LINE
  5
1C1
330
1B
100
AcDbEntity
 67
     1
  8
0
  6
Continuous
 62
     7
370
    25
100
AcDbLine
 10
26.0746870553
 20
11.4143836578
 30
0.0
 11
24.8952527163
 21
12.0952566089
 31
0.0
  0
ARC
  5
1C2
330
1B
100
AcDbEntity
 67
     1
  8
0
  6
Continuous
 62
     7
370
    25
100
AcDbCircle
 10
26.055247993
 20
11.3631655464
 30
0.0
 40
0.0547829542833785
100
AcDbArc
 50
290.783735191
 51
69.2164968372
  0
LINE
  5
1C3
330
1B
100
AcDbEntity
 67
     1
  8
0
  6
Continuous
 62
     7
370
    25
100
AcDbLine
 10
24.1015258215
 20
10.1728656597
 30
0.0
 11
26.0746872627
 21
11.3119475137
 31
0.0
  0
LINE
  5
1C4
330
1B
100
AcDbEntity
 67
     1
  8
0
  6
Continuous
 62
     7
370
    25
100
AcDbLine
 10
23.2821238838
 20
10.6458963296
 30
0.0
 11
24.1015258215
 21
10.1728656597
 31
0.0
  0
ELLIPSE
  5
1C5
330
1B
100
AcDbEntity
 67
     1
  8
0
  6
Continuous
 62
     7
370
    25
100
AcDbEllipse
 10
23.2397039057
 20
10.6213928578
 30
0.0
 11
0.05999999999999872
 21
0.0
 31
0.0
210
0.0
220
0.0
230
1.0
 40
0.5774635729
 41
0.7855504566449817
 42
2.356042196944769
  0
LINE
  5
1C6
330
1B
100
AcDbEntity
 67
     1
  8
0
  6
Continuous
 62
     7
370
    25
100
AcDbLine
 10
20.410523445
 20
9.0371335494
 30
0.0
 11
23.1972840616
 21
10.6458962099
 31
0.0
  0
ELLIPSE
  5
1C7
330
1B
100
AcDbEntity
 67
     1
  8
0
  6
Continuous
 62
     7
370
    25
100
AcDbEllipse
 10
20.4529690948
 20
9.0126450947
 30
0.0
 11
0.06001827797346592
 21
0.0
 31
0.0
210
0.0
220
0.0
230
1.0
 40
0.5771119048
 41
2.356346783439903
 42
3.9268385237397
  0
LINE
  5
1C8
330
1B
100
AcDbEntity
 67
     1
  8
0
  6
Continuous
 62
     7
370
    25
100
AcDbLine
 10
21.2299251753
 20
8.5151258926
 30
0.0
 11
20.4105232376
 21
8.9881565625
 31
0.0
  0
LINE
  5
1C9
330
1B
100
AcDbEntity
 67
     1
  8
0
  6
Continuous
 62
     7
370
    25
100
AcDbLine
 10
19.2567637341
 20
7.3760440387
 30
0.0
 11
21.2299251753
 21
8.5151258926
 31
0.0
  0
SPLINE
  5
1CA
330
1B
100
AcDbEntity
 67
     1
  8
0
  6
Continuous
 62
     7
370
    25
100
AcDbSpline
210
0.0
220
0.0
230
1.0
 70
     8
 71
     3
 72
    12
 73
     8
 74
     0
 42
0.000000001
 43
0.00000001
 40
0.0
 40
0.0
 40
0.0
 40
0.0
 40
0.2515348744164865
 40
0.5039447032465563
 40
0.7320959165147697
 40
0.9350121982309816
 40
1.0
 40
1.0
 40
1.0
 40
1.0
 10
14.42087867102086
 20
11.3003786518297
 30
0.0
 10
14.42731139358842
 20
11.30346577759625
 30
0.0
 10
14.44019921470228
 20
11.30965076757794
 30
0.0
 10
14.46429746984218
 20
11.31337802213489
 30
0.0
 10
14.48712741681608
 20
11.31202005585574
 30
0.0
 10
14.50210287077277
 20
11.30759085175472
 30
0.0
 10
14.50857270574706
 20
11.30411779452033
 30
0.0
 10
14.51014214936029
 20
11.30327530510343
 30
0.0
  0
LINE
  5
1CB
330
1B
100
AcDbEntity
 67
     1
  8
0
  6
Continuous
 62
     7
370
    25
100
AcDbLine
 10
14.3353019011
 20
11.2509762341
 30
0.0
 11
14.420878671
 21
11.3003786518
 31
0.0
  0
LINE
  5
1CC
330
1B
100
AcDbEntity
 67
     1
  8
0
  6
Continuous
 62
     7
370
    25
100
AcDbLine
 10
13.6361712951
 20
11.6545757421
 30
0.0
 11
14.3353019011
 21
11.2509762341
 31
0.0
  0
ELLIPSE
  5
1CD
330
1B
100
AcDbEntity
 67
     1
  8
0
  6
Continuous
 62
     7
370
    25
100
AcDbEllipse
 10
13.5937514358
 20
11.6300723158
 30
0.0
 11
0.0600000000000005
 21
0.0
 31
0.0
210
0.0
220
0.0
230
1.0
 40
0.5774635729
 41
0.7855504566450325
 42
2.356042196944761
  0
LINE
  5
1CE
330
1B
100
AcDbEntity
 67
     1
  8
0
  6
Continuous
 62
     7
370
    25
100
AcDbLine
 10
12.8093284267
 20
11.2262265013
 30
0.0
 11
13.5513315766
 21
11.654575802
 31
0.0
  0
ELLIPSE
  5
1CF
330
1B
100
AcDbEntity
 67
     1
  8
0
  6
Continuous
 62
     7
370
    25
100
AcDbEllipse
 10
12.8517743129
 20
11.2017380401
 30
0.0
 11
0.06001827797346238
 21
0.0
 31
0.0
210
0.0
220
0.0
230
1.0
 40
0.5771119048
 41
2.356346783439932
 42
3.926838523739634
  0
LINE
  5
1D0
330
1B
100
AcDbEntity
 67
     1
  8
0
  6
Continuous
 62
     7
370
    25
100
AcDbLine
 10
15.6696669248
 20
9.5260113668
 30
0.0
 11
12.8093285304
 21
11.1772495742
 31
0.0
  0
ELLIPSE
  5
1D1
330
1B
100
AcDbEntity
 67
     1
  8
0
  6
Continuous
 62
     7
370
    25
100
AcDbEllipse
 10
15.7120867881
 20
9.5505147954
 30
0.0
 11
0.0600000000000005
 21
0.0
 31
0.0
210
0.0
220
0.0
230
1.0
 40
0.5774635729
 41
3.927143110234841
 42
5.49763485053457
  0
LINE
  5
1D2
330
1B
100
AcDbEntity
 67
     1
  8
0
  6
Continuous
 62
     7
370
    25
100
AcDbLine
 10
16.4965097932
 20
9.9543606076
 30
0.0
 11
15.7545066434
 21
9.5260113069
 31
0.0
  0
ELLIPSE
  5
1D3
330
1B
100
AcDbEntity
 67
     1
  8
0
  6
Continuous
 62
     7
370
    25
100
AcDbEllipse
 10
16.454063911
 20
9.9788490711
 30
0.0
 11
0.06001827797346238
 21
0.0
 31
0.0
210
0.0
220
0.0
230
1.0
 40
0.5771119048
 41
5.497939437029663
 42
7.068431177329489
  0
LINE
  5
1D4
330
1B
100
AcDbEntity
 67
     1
  8
0
  6
Continuous
 62
     7
370
    25
100
AcDbLine
 10
15.7973790835
 20
10.4069370426
 30
0.0
 11
16.4965096895
 21
10.0033375346
 31
0.0
  0
LINE
  5
1D5
330
1B
100
AcDbEntity
 67
     1
  8
0
  6
Continuous
 62
     7
370
    25
100
AcDbLine
 10
15.8829558534
 20
10.4563394603
 30
0.0
 11
15.7973790835
 21
10.4069370426
 31
0.0
  0
SPLINE
  5
1D6
330
1B
100
AcDbEntity
 67
     1
  8
0
  6
Continuous
 62
     7
370
    25
100
AcDbSpline
210
0.0
220
0.0
230
1.0
 70
     8
 71
     3
 72
    12
 73
     8
 74
     0
 42
0.000000001
 43
0.00000001
 40
0.0
 40
0.0
 40
0.0
 40
0.0
 40
0.1884462778508424
 40
0.3766881035814665
 40
0.570628919032022
 40
0.7809063815863909
 40
1.0
 40
1.0
 40
1.0
 40
1.0
 10
15.88797354770952
 20
10.50787016951078
 30
0.0
 10
15.89194496615876
 20
10.50506346767543
 30
0.0
 10
15.89988349432305
 20
10.49945310909614
 30
0.0
 10
15.90483038465912
 20
10.48864208559929
 30
0.0
 10
15.90394252382536
 20
10.47726196162736
 30
0.0
 10
15.89692147636805
 20
10.46580541239979
 30
0.0
 10
15.88767435059505
 20
10.45953767557836
 30
0.0
 10
15.88295585338987
 20
10.45633946032741
 30
0.0
  0
LINE
  5
1D7
330
1B
100
AcDbEntity
 67
     1
  8
0
  6
Continuous
 62
     7
370
    25
100
AcDbLine
 10
14.5101421494
 20
11.3032753051
 30
0.0
 11
15.8879735477
 21
10.5078701695
 31
0.0
  0
ARC
  5
1D8
330
1B
100
AcDbEntity
 67
     1
  8
0
  6
Continuous
 62
     7
370
    25
100
AcDbCircle
 10
21.205183233
 20
8.4763712005
 30
0.0
 40
0.045979233046793
100
AcDbArc
 50
1.9776566573
 51
57.4448446348
  0
LINE
  5
1D9
330
1B
100
AcDbEntity
 67
     1
  8
0
  6
Continuous
 62
     7
370
    25
100
AcDbLine
 10
21.251135079
 20
8.4779579331
 30
0.0
 11
19.2779736378
 21
7.3388760791
 31
0.0
  0
LINE
  5
1DA
330
1B
100
AcDbEntity
 67
     1
  8
0
  6
Continuous
 62
     7
370
    25
100
AcDbLine
 10
19.0581095831
 20
7.3388759594
 30
0.0
 11
9.0638622415
 21
13.1084321412
 31
0.0
  0
ARC
  5
1DB
330
1B
100
AcDbEntity
 67
     1
  8
0
  6
Continuous
 62
     7
370
    25
100
AcDbCircle
 10
9.1098139756
 20
13.106845446
 30
0.0
 40
0.045979119949787
100
AcDbArc
 50
122.5544666502
 51
178.0223851095
  0
LINE
  5
1DC
330
1B
100
AcDbEntity
 67
     1
  8
0
  6
Continuous
 62
     7
370
    25
100
AcDbLine
 10
19.3882536048
 20
7.3832843412
 30
0.0
 11
19.8020829736
 21
7.6221829507
 31
0.0
  0
LINE
  5
1DD
330
1B
100
AcDbEntity
 67
     1
  8
0
  6
Continuous
 62
     7
370
    25
100
AcDbLine
 10
21.2510811509
 20
8.4761691612
 30
0.0
 11
21.251135079
 21
8.4779579331
 31
0.0
  0
LINE
  5
1DE
330
1B
100
AcDbEntity
 67
     1
  8
0
  6
Continuous
 62
     7
370
    25
100
AcDbLine
 10
20.4317333487
 20
8.9999655899
 30
0.0
 11
20.4316793169
 21
8.9981767581
 31
0.0
  0
LINE
  5
1DF
330
1B
100
AcDbEntity
 67
     1
  8
0
  6
Continuous
 62
     7
370
    25
100
AcDbLine
 10
23.218494069
 20
10.6069706703
 30
0.0
 11
23.2184939653
 21
10.6087282503
 31
0.0
  0
ELLIPSE
  5
1E0
330
1B
100
AcDbEntity
 67
     1
  8
0
  6
Continuous
 62
     7
370
    25
100
AcDbEllipse
 10
23.2609268027
 20
10.6323068279
 30
0.0
 11
0.0307686368648561
 21
0.0515153387806464
 31
0.0
210
0.0
220
0.0
230
1.0
 40
0.5672200025
 41
2.38199519402709
 42
3.88297835074217
  0
ARC
  5
1E1
330
1B
100
AcDbEntity
 67
     1
  8
0
  6
Continuous
 62
     7
370
    25
100
AcDbCircle
 10
20.3857815027
 20
8.9983788573
 30
0.0
 40
0.0459792330467678
100
AcDbArc
 50
1.9776566573
 51
57.4448446348
  0
ARC
  5
1E2
330
1B
100
AcDbEntity
 67
     1
  8
0
  6
Continuous
 62
     7
370
    25
100
AcDbCircle
 10
23.1725421193
 20
10.6071415177
 30
0.0
 40
0.0459792330467487
100
AcDbArc
 50
1.9776566573
 51
57.4448446349
  0
LWPOLYLINE
  5
1E3
330
1B
100
AcDbEntity
 67
     1
  8
0
  6
Continuous
 62
     7
370
    25
100
AcDbPolyline
 90
        3
 70
   128
 43
0.0
 10
16.4815110532
 20
9.9558458257
 10
16.4816413101
 20
9.9559197187
 10
16.4820190139
 20
9.9561198547
  0
LWPOLYLINE
  5
1E4
330
1B
100
AcDbEntity
 67
     1
  8
0
  6
Continuous
 62
     7
370
    25
100
AcDbPolyline
 90
        3
 70
   128
 43
0.0
 10
12.8243271668
 20
11.1787347324
 10
12.8241971172
 20
11.1788087452
 10
12.823819206
 20
11.1790087615
  0
ARC
  5
1E5
330
1B
100
AcDbEntity
 67
     1
  8
0
  6
Continuous
 62
     7
370
    25
100
AcDbCircle
 10
13.9600623127
 20
10.9843459381
 30
0.0
 40
0.106766696159472
100
AcDbArc
 50
64.7847365544
 51
112.9977428408
  0
ARC
  5
1E6
330
1B
100
AcDbEntity
 67
     1
  8
0
  6
Continuous
 62
     7
370
    25
100
AcDbCircle
 10
16.5214483453
 20
9.9644205165
 30
0.0
 40
0.0462219737082357
100
AcDbArc
 50
122.6524068369
 51
176.7703092773
  0
LINE
  5
1E7
330
1B
100
AcDbEntity
 67
     1
  8
0
  6
Continuous
 62
     7
370
    25
100
AcDbLine
 10
16.4752997858
 20
9.9670246112
 30
0.0
 11
15.7761691798
 21
10.3706241192
 31
0.0
  0
ARC
  5
1E8
330
1B
100
AcDbEntity
 67
     1
  8
0
  6
Continuous
 62
     7
370
    25
100
AcDbCircle
 10
15.8223177393
 20
10.3680200245
 30
0.0
 40
0.0462219737082386
100
AcDbArc
 50
122.6524068369
 51
176.7703092773
  0
ARC
  5
1E9
330
1B
100
AcDbEntity
 67
     1
  8
0
  6
Continuous
 62
     7
370
    25
100
AcDbCircle
 10
24.1262671825
 20
10.1341111737
 30
0.0
 40
0.0459787465355662
100
AcDbArc
 50
122.5546829622
 51
178.0226540074
  0
ARC
  5
1EA
330
1B
100
AcDbEntity
 67
     1
  8
0
  6
Continuous
 62
     7
370
    25
100
AcDbCircle
 10
24.0767838793
 20
10.1341109676
 30
0.0
 40
0.0459792330467794
100
AcDbArc
 50
1.9776566573
 51
57.4448446348
  0
ARC
  5
1EB
330
1B
100
AcDbEntity
 67
     1
  8
0
  6
Continuous
 62
     7
370
    25
100
AcDbCircle
 10
24.101525714
 20
10.1751321394
 30
0.0
 40
0.0447765515596177
100
AcDbArc
 50
241.726352567
 51
298.2738091616
  0
LINE
  5
1EC
330
1B
100
AcDbEntity
 67
     1
  8
0
  6
Continuous
 62
     7
370
    25
100
AcDbLine
 10
24.0803158141
 20
10.1356976403
 30
0.0
 11
23.2609138764
 21
10.6087283102
 31
0.0
  0
ARC
  5
1ED
330
1B
100
AcDbEntity
 67
     1
  8
0
  6
Continuous
 62
     7
370
    25
100
AcDbCircle
 10
23.3068652448
 20
10.6071418436
 30
0.0
 40
0.0459787465355802
100
AcDbArc
 50
122.5546829622
 51
178.0226540074
  0
LINE
  5
1EE
330
1B
100
AcDbEntity
 67
     1
  8
0
  6
Continuous
 62
     7
370
    25
100
AcDbLine
 10
26.0958971665
 20
11.2747795542
 30
0.0
 11
24.1227357253
 21
10.1356977002
 31
0.0
  0
ARC
  5
1EF
330
1B
100
AcDbEntity
 67
     1
  8
0
  6
Continuous
 62
     7
370
    25
100
AcDbCircle
 10
26.0499453205
 20
11.2731928215
 30
0.0
 40
0.0459792330467355
100
AcDbArc
 50
1.9776566573
 51
57.4448446349
  0
LINE
  5
1F0
330
1B
100
AcDbEntity
 67
     1
  8
0
  6
Continuous
 62
     7
370
    25
100
AcDbLine
 10
24.0803159178
 20
10.1339400603
 30
0.0
 11
24.0803158141
 21
10.1356976403
 31
0.0
  0
LINE
  5
1F1
330
1B
100
AcDbEntity
 67
     1
  8
0
  6
Continuous
 62
     7
370
    25
100
AcDbLine
 10
24.1227357253
 20
10.1356977002
 30
0.0
 11
24.1227357253
 21
10.1339400603
 31
0.0
  0
ARC
  5
1F2
330
1B
100
AcDbEntity
 67
     1
  8
0
  6
Continuous
 62
     7
370
    25
100
AcDbCircle
 10
24.1015258215
 20
10.1733742412
 30
0.0
 40
0.0447762732057565
100
AcDbArc
 50
241.7261554699
 51
298.2738445301
  0
LINE
  5
1F3
330
1B
100
AcDbEntity
 67
     1
  8
0
  6
Continuous
 62
     7
370
    25
100
AcDbLine
 10
23.2609138764
 20
10.6087283102
 30
0.0
 11
23.2609139801
 21
10.6069707302
 31
0.0
  0
LINE
  5
1F4
330
1B
100
AcDbEntity
 67
     1
  8
0
  6
Continuous
 62
     7
370
    25
100
AcDbLine
 10
23.2609139801
 20
10.6069707302
 30
0.0
 11
24.0803159178
 21
10.1339400603
 31
0.0
  0
LINE
  5
1F5
330
1B
100
AcDbEntity
 67
     1
  8
0
  6
Continuous
 62
     7
370
    25
100
AcDbLine
 10
26.0958971665
 20
11.2747795542
 30
0.0
 11
26.0955209146
 21
11.2501051346
 31
0.0
  0
ELLIPSE
  5
1F6
330
1B
100
AcDbEntity
 67
     1
  8
0
  6
Continuous
 62
     7
370
    25
100
AcDbEllipse
 10
26.0954381627
 20
11.1987171128
 30
0.0
 11
0.03281987932251697
 21
0.05494969469935464
 31
0.0
210
0.0
220
0.0
230
1.0
 40
0.5672200025
 41
0.8093712105650023
 42
1.919727251633364
  0
LINE
  5
1F7
330
1B
100
AcDbEntity
 67
     1
  8
0
  6
Continuous
 62
     7
370
    25
100
AcDbLine
 10
25.5711954517
 20
10.9526206939
 30
0.0
 11
25.9850248205
 21
11.1915193034
 31
0.0
  0
LINE
  5
1F8
330
1B
100
AcDbEntity
 67
     1
  8
0
  6
Continuous
 62
     7
370
    25
100
AcDbLine
 10
15.8687083726
 20
10.4825066299
 30
0.0
 11
14.4908769742
 21
11.2779117655
 31
0.0
  0
ARC
  5
1F9
330
1B
100
AcDbEntity
 67
     1
  8
0
  6
Continuous
 62
     7
370
    25
100
AcDbCircle
 10
15.9132142164
 20
10.4687000074
 30
0.0
 40
0.0465982076173802
100
AcDbArc
 50
122.7971285825
 51
162.7650415337
  0
ARC
  5
1FA
330
1B
100
AcDbEntity
 67
     1
  8
0
  6
Continuous
 62
     7
370
    25
100
AcDbCircle
 10
14.535382818
 20
11.264105143
 30
0.0
 40
0.0465982076173882
100
AcDbArc
 50
122.7971285825
 51
162.7650415337
  0
ELLIPSE
  5
1FB
330
1B
100
AcDbEntity
 67
     1
  8
0
  6
Continuous
 62
     7
370
    25
100
AcDbEllipse
 10
23.2397039057
 20
10.5968966334
 30
0.0
 11
0.03000000000000469
 21
0.0
 31
0.0
210
0.0
220
0.0
230
1.0
 40
0.5576649147
 41
0.7855504566451109
 42
2.356042196944599
  0
ARC
  5
1FC
330
1B
100
AcDbEntity
 67
     1
  8
0
  6
Continuous
 62
     7
370
    25
100
AcDbCircle
 10
23.2397040802
 20
10.5675378223
 30
0.0
 40
0.0447751502148313
100
AcDbArc
 50
61.7253880801
 51
118.2747736484
  0
LINE
  5
1FD
330
1B
100
AcDbEntity
 67
     1
  8
0
  6
Continuous
 62
     7
370
    25
100
AcDbLine
 10
14.4420886266
 20
11.2640656985
 30
0.0
 11
14.3565118567
 21
11.2146632808
 31
0.0
  0
SPLINE
  5
1FE
330
1B
100
AcDbEntity
 67
     1
  8
0
  6
Continuous
 62
     7
370
    25
100
AcDbSpline
210
0.0
220
0.0
230
1.0
 70
     8
 71
     3
 72
    14
 73
    10
 74
     0
 42
0.000000001
 43
0.00000001
 40
0.0
 40
0.0
 40
0.0
 40
0.0
 40
0.0572222146713319
 40
0.2140485678603619
 40
0.2389925528649292
 40
0.4238629187692995
 40
0.4565931444573832
 40
0.7185700003552401
 40
1.0
 40
1.0
 40
1.0
 40
1.0
 10
14.49087697424519
 20
11.27791176548368
 30
0.0
 10
14.49009259979143
 20
11.27833422599416
 30
0.0
 10
14.48715852550823
 20
11.27991450504775
 30
0.0
 10
14.4830115510795
 20
11.2807724981654
 30
0.0
 10
14.47646362990788
 20
11.28108744566574
 30
0.0
 10
14.47187629896827
 20
11.28051692252833
 30
0.0
 10
14.463213140678
 20
11.27821221192668
 30
0.0
 10
14.45313399755289
 20
11.27370385561666
 30
0.0
 10
14.44585724910833
 20
11.26735418702522
 30
0.0
 10
14.44208862659045
 20
11.26406569846236
 30
0.0
  0
ARC
  5
1FF
330
1B
100
AcDbEntity
 67
     1
  8
0
  6
Continuous
 62
     7
370
    25
100
AcDbCircle
 10
12.7843897915
 20
11.1873093676
 30
0.0
 40
0.0462220599082589
100
AcDbArc
 50
3.2297537914
 51
57.3476918329
  0
ARC
  5
200
330
1B
100
AcDbEntity
 67
     1
  8
0
  6
Continuous
 62
     7
370
    25
100
AcDbCircle
 10
13.5263929413
 20
11.6156586683
 30
0.0
 40
0.0462220599082666
100
AcDbArc
 50
3.2297537914
 51
57.3476918329
  0
LINE
  5
201
330
1B
100
AcDbEntity
 67
     1
  8
0
  6
Continuous
 62
     7
370
    25
100
AcDbLine
 10
13.572541584
 20
11.6182628187
 30
0.0
 11
12.8305384342
 21
11.189913518
 31
0.0
  0
ARC
  5
202
330
1B
100
AcDbEntity
 67
     1
  8
0
  6
Continuous
 62
     7
370
    25
100
AcDbCircle
 10
14.3103635664
 20
11.2120593398
 30
0.0
 40
0.046221696241289
100
AcDbArc
 50
3.2295192712
 51
57.3478454839
  0
ARC
  5
203
330
1B
100
AcDbEntity
 67
     1
  8
0
  6
Continuous
 62
     7
370
    25
100
AcDbCircle
 10
14.3353019571
 20
11.2572533598
 30
0.0
 40
0.0475791411085779
100
AcDbArc
 50
243.5265711346
 51
296.4733480011
  0
ARC
  5
204
330
1B
100
AcDbEntity
 67
     1
  8
0
  6
Continuous
 62
     7
370
    25
100
AcDbCircle
 10
14.3602405569
 20
11.212059216
 30
0.0
 40
0.0462219737082477
100
AcDbArc
 50
122.6524068369
 51
176.7703092773
  0
LINE
  5
205
330
1B
100
AcDbEntity
 67
     1
  8
0
  6
Continuous
 62
     7
370
    25
100
AcDbLine
 10
14.3140919974
 20
11.2146633107
 30
0.0
 11
13.6149613914
 21
11.6182628187
 31
0.0
  0
ARC
  5
206
330
1B
100
AcDbEntity
 67
     1
  8
0
  6
Continuous
 62
     7
370
    25
100
AcDbCircle
 10
13.6611099509
 20
11.615658724
 30
0.0
 40
0.0462219737082626
100
AcDbArc
 50
122.6524068369
 51
176.7703092773
  0
ARC
  5
207
330
1B
100
AcDbEntity
 67
     1
  8
0
  6
Continuous
 62
     7
370
    25
100
AcDbCircle
 10
14.3959403363
 20
11.2614617575
 30
0.0
 40
0.0462216962412912
100
AcDbArc
 50
3.2295192712
 51
57.3478454839
  0
SPLINE
  5
208
330
1B
100
AcDbEntity
 67
     1
  8
0
  6
Continuous
 62
     7
370
    25
100
AcDbSpline
210
0.0
220
0.0
230
1.0
 70
     8
 71
     3
 72
    12
 73
     8
 74
     0
 42
0.000000001
 43
0.00000001
 40
0.0
 40
0.0
 40
0.0
 40
0.0
 40
0.2240347647895197
 40
0.4476653506325543
 40
0.6819679901739449
 40
0.9298994255989538
 40
1.0
 40
1.0
 40
1.0
 40
1.0
 10
26.09552091457278
 20
11.25010513457738
 30
0.0
 10
26.100161161244
 20
11.25257185308729
 30
0.0
 10
26.10943328316244
 20
11.25750083992416
 30
0.0
 10
26.11970255723948
 20
11.25891124802503
 30
0.0
 10
26.12655158924372
 20
11.25472537359955
 30
0.0
 10
26.12980592718762
 20
11.24772752214425
 30
0.0
 10
26.12994746244913
 20
11.24034613319355
 30
0.0
 10
26.12997865963314
 20
11.23871912839738
 30
0.0
  0
LINE
  5
209
330
1B
100
AcDbEntity
 67
     1
  8
0
  6
Continuous
 62
     7
370
    25
100
AcDbLine
 10
26.1414205334
 20
11.3371344417
 30
0.0
 11
26.1413388117
 21
11.3351264275
 31
0.0
  0
ELLIPSE
  5
20A
330
1B
100
AcDbEntity
 67
     1
  8
0
  6
Continuous
 62
     7
370
    25
100
AcDbEllipse
 10
13.5937514358
 20
11.6055760914
 30
0.0
 11
0.03000000000000114
 21
0.0
 31
0.0
210
0.0
220
0.0
230
1.0
 40
0.5979655673
 41
0.7855504566450134
 42
2.35604219694478
  0
ARC
  5
20B
330
1B
100
AcDbEntity
 67
     1
  8
0
  6
Continuous
 62
     7
370
    25
100
AcDbCircle
 10
14.7739777388
 20
15.5330729494
 30
0.0
 40
0.045978746535592
100
AcDbArc
 50
122.5546829622
 51
178.0226540074
  0
LINE
  5
20C
330
1B
100
AcDbEntity
 67
     1
  8
0
  6
Continuous
 62
     7
370
    25
100
AcDbLine
 10
14.7280804021
 20
15.532870704
 30
0.0
 11
14.7280263704
 21
15.5346594161
 31
0.0
  0
LINE
  5
20D
330
1B
100
AcDbEntity
 67
     1
  8
0
  6
Continuous
 62
     7
370
    25
100
AcDbLine
 10
14.7280263704
 20
15.5346594161
 30
0.0
 11
13.9086244327
 21
16.0076900859
 31
0.0
  0
ARC
  5
20E
330
1B
100
AcDbEntity
 67
     1
  8
0
  6
Continuous
 62
     7
370
    25
100
AcDbCircle
 10
13.9545758011
 20
16.0061036193
 30
0.0
 40
0.0459787465355993
100
AcDbArc
 50
122.5546829622
 51
178.0226540074
  0
LINE
  5
20F
330
1B
100
AcDbEntity
 67
     1
  8
0
  6
Continuous
 62
     7
370
    25
100
AcDbLine
 10
13.9086784644
 20
16.0059013739
 30
0.0
 11
14.7280804021
 21
15.532870704
 31
0.0
  0
LINE
  5
210
330
1B
100
AcDbEntity
 67
     1
  8
0
  6
Continuous
 62
     7
370
    25
100
AcDbLine
 10
13.9086244327
 20
16.0076900859
 30
0.0
 11
13.9086784644
 21
16.0059013739
 31
0.0
  0
ARC
  5
211
330
1B
100
AcDbEntity
 67
     1
  8
0
  6
Continuous
 62
     7
370
    25
100
AcDbCircle
 10
17.0406714879
 20
16.3520524685
 30
0.0
 40
0.0459792330467714
100
AcDbArc
 50
1.9776566573
 51
57.4448446348
  0
LINE
  5
212
330
1B
100
AcDbEntity
 67
     1
  8
0
  6
Continuous
 62
     7
370
    25
100
AcDbLine
 10
17.2810839565
 20
16.4658989289
 30
0.0
 11
17.0866233339
 21
16.3536392011
 31
0.0
  0
ARC
  5
213
330
1B
100
AcDbEntity
 67
     1
  8
0
  6
Continuous
 62
     7
370
    25
100
AcDbCircle
 10
17.2351321104
 20
16.4643121963
 30
0.0
 40
0.0459792330467609
100
AcDbArc
 50
1.9776566573
 51
57.4448446348
  0
ARC
  5
214
330
1B
100
AcDbEntity
 67
     1
  8
0
  6
Continuous
 62
     7
370
    25
100
AcDbCircle
 10
19.1666945778
 20
8.1598324383
 30
0.0
 40
1.623703471147719
100
AcDbArc
 50
255.6900953035
 51
280.3192927846
  0
ARC
  5
215
330
1B
100
AcDbEntity
 67
     1
  8
0
  6
Continuous
 62
     7
370
    25
100
AcDbCircle
 10
19.8256353871
 20
6.6612331543
 30
0.0
 40
0.0462219737082495
100
AcDbArc
 50
3.2296907227
 51
57.3475931631
  0
ARC
  5
216
330
1B
100
AcDbEntity
 67
     1
  8
0
  6
Continuous
 62
     7
370
    25
100
AcDbCircle
 10
19.1659204749
 20
8.0211954354
 30
0.0
 40
1.529923032947845
100
AcDbArc
 50
242.5243318605
 51
297.4756681395
  0
ARC
  5
217
330
1B
100
AcDbEntity
 67
     1
  8
0
  6
Continuous
 62
     7
370
    25
100
AcDbCircle
 10
18.5062055627
 20
6.6612331543
 30
0.0
 40
0.0462219737082387
100
AcDbArc
 50
122.6524068369
 51
176.7703092773
  0
LINE
  5
218
330
1B
100
AcDbEntity
 67
     1
  8
0
  6
Continuous
 62
     7
370
    25
100
AcDbLine
 10
19.8717839466
 20
6.6638372491
 30
0.0
 11
19.8733574013
 21
6.5588199527
 31
0.0
  0
ARC
  5
219
330
1B
100
AcDbEntity
 67
     1
  8
0
  6
Continuous
 62
     7
370
    25
100
AcDbCircle
 10
19.1659200372
 20
7.9192023225
 30
0.0
 40
1.533332258938236
100
AcDbArc
 50
242.5243103455
 51
297.4757090499
  0
LINE
  5
21A
330
1B
100
AcDbEntity
 67
     1
  8
0
  6
Continuous
 62
     7
370
    25
100
AcDbLine
 10
18.4584831336
 20
6.5588197132
 30
0.0
 11
18.4600570032
 21
6.6638372491
 31
0.0
  0
LWPOLYLINE
  5
21B
330
1B
100
AcDbEntity
 67
     1
  8
0
  6
Continuous
 62
     7
370
    25
100
AcDbPolyline
 90
       14
 70
   128
 43
0.0
 10
27.2454966391
 20
10.9691481191
 10
27.323030662
 20
11.0196712889
 10
27.3894501128
 20
11.0752208403
 10
27.4437867757
 20
11.1349873413
 10
27.4852479083
 20
11.1980988563
 10
27.5132291015
 20
11.2636355543
 10
27.527322991
 20
11.3306414433
 10
27.5273225762
 20
11.3981392181
 10
27.5132295163
 20
11.4651451071
 10
27.4852479083
 20
11.5306815656
 10
27.4437863609
 20
11.5937933201
 10
27.3894501128
 20
11.6535595816
 10
27.3230302471
 20
11.7091093725
 10
27.2454966391
 20
11.7596323028
  0
LINE
  5
21C
330
1B
100
AcDbEntity
 67
     1
  8
0
  6
Continuous
 62
     7
370
    25
100
AcDbLine
 10
19.8505740429
 20
6.7001501725
 30
0.0
 11
27.2454966391
 21
10.9691481191
 31
0.0
  0
LINE
  5
21D
330
1B
100
AcDbEntity
 67
     1
  8
0
  6
Continuous
 62
     7
370
    25
100
AcDbLine
 10
7.9142629763
 20
12.8003516952
 30
0.0
 11
18.4812669069
 21
6.7001501725
 31
0.0
  0
LWPOLYLINE
  5
21E
330
1B
100
AcDbEntity
 67
     1
  8
0
  6
Continuous
 62
     7
370
    25
100
AcDbPolyline
 90
       14
 70
   128
 43
0.0
 10
7.9142629763
 20
13.5908358789
 10
7.8367289534
 20
13.5403127091
 10
7.7703095026
 20
13.4847631576
 10
7.7159728396
 20
13.4249966567
 10
7.6745117071
 20
13.3618851417
 10
7.6465305139
 20
13.2963484437
 10
7.6324366244
 20
13.2293425546
 10
7.6324370392
 20
13.1618447799
 10
7.6465300991
 20
13.0948388909
 10
7.6745117071
 20
13.0293024323
 10
7.7159732545
 20
12.9661906779
 10
7.7703095026
 20
12.9064244164
 10
7.8367293683
 20
12.8508746255
 10
7.9142629763
 20
12.8003516952
  0
LINE
  5
21F
330
1B
100
AcDbEntity
 67
     1
  8
0
  6
Continuous
 62
     7
370
    25
100
AcDbLine
 10
15.3091855725
 20
17.8598338255
 30
0.0
 11
7.9142629763
 21
13.5908358789
 31
0.0
  0
ARC
  5
220
330
1B
100
AcDbEntity
 67
     1
  8
0
  6
Continuous
 62
     7
370
    25
100
AcDbCircle
 10
15.9938391405
 20
16.5432619065
 30
0.0
 40
1.483951524204665
100
AcDbArc
 50
62.5243293419
 51
117.4756706581
  0
LINE
  5
221
330
1B
100
AcDbEntity
 67
     1
  8
0
  6
Continuous
 62
     7
370
    25
100
AcDbLine
 10
27.2454966391
 20
11.7596323028
 30
0.0
 11
16.6784927085
 21
17.8598338255
 31
0.0
  0
LINE
  5
222
330
1B
100
AcDbEntity
 67
     1
  8
0
  6
Continuous
 62
     7
370
    25
100
AcDbLine
 10
8.9712802174
 20
13.3145436626
 30
0.0
 11
15.7877895865
 21
17.2496307607
 31
0.0
  0
ARC
  5
223
330
1B
100
AcDbEntity
 67
     1
  8
0
  6
Continuous
 62
     7
370
    25
100
AcDbCircle
 10
9.0164261043
 20
13.195593787
 30
0.0
 40
0.1272290218834196
100
AcDbArc
 50
110.783610161
 51
249.216389839
  0
LINE
  5
224
330
1B
100
AcDbEntity
 67
     1
  8
0
  6
Continuous
 62
     7
370
    25
100
AcDbLine
 10
18.9598709209
 20
7.3103532372
 30
0.0
 11
8.9712802174
 21
13.0766439114
 31
0.0
  0
ARC
  5
225
330
1B
100
AcDbEntity
 67
     1
  8
0
  6
Continuous
 62
     7
370
    25
100
AcDbCircle
 10
19.1659204749
 20
7.7080292078
 30
0.0
 40
0.4478868119001388
100
AcDbArc
 50
242.609777535
 51
297.390222465
  0
LINE
  5
226
330
1B
100
AcDbEntity
 67
     1
  8
0
  6
Continuous
 62
     7
370
    25
100
AcDbLine
 10
26.188479398
 20
11.2454403354
 30
0.0
 11
19.3719700288
 21
7.3103532372
 31
0.0
  0
ARC
  5
227
330
1B
100
AcDbEntity
 67
     1
  8
0
  6
Continuous
 62
     7
370
    25
100
AcDbCircle
 10
26.1433335111
 20
11.364390211
 30
0.0
 40
0.127229021883424
100
AcDbArc
 50
290.783610161
 51
69.216389839
  0
LINE
  5
228
330
1B
100
AcDbEntity
 67
     1
  8
0
  6
Continuous
 62
     7
370
    25
100
AcDbLine
 10
25.0545615813
 20
12.1379369087
 30
0.0
 11
26.188479398
 21
11.4833400865
 31
0.0
  0
LINE
  5
229
330
1B
100
AcDbEntity
 67
     1
  8
0
  6
Continuous
 62
     7
370
    25
100
AcDbLine
 10
25.2214946285
 20
12.2343053056
 30
0.0
 11
25.0545615813
 21
12.1379369087
 31
0.0
  0
ELLIPSE
  5
22A
330
1B
100
AcDbEntity
 67
     1
  8
0
  6
Continuous
 62
     7
370
    25
100
AcDbEllipse
 10
25.1294026166
 20
12.287339672
 30
0.0
 11
0.1301584332757457
 21
0.0
 31
0.0
210
0.0
220
0.0
230
1.0
 40
0.5765850178
 41
5.498396131367745
 42
7.067974482991427
  0
LINE
  5
22B
330
1B
100
AcDbEntity
 67
     1
  8
0
  6
Continuous
 62
     7
370
    25
100
AcDbLine
 10
17.6844757578
 20
16.6914023356
 30
0.0
 11
25.2214946285
 21
12.3403739557
 31
0.0
  0
ELLIPSE
  5
22C
330
1B
100
AcDbEntity
 67
     1
  8
0
  6
Continuous
 62
     7
370
    25
100
AcDbEllipse
 10
17.5926077298
 20
16.6382387487
 30
0.0
 11
0.1300000000000026
 21
0.0
 31
0.0
210
0.0
220
0.0
230
1.0
 40
0.5779912627
 41
0.7860071509830578
 42
2.355585502606683
  0
LINE
  5
22D
330
1B
100
AcDbEntity
 67
     1
  8
0
  6
Continuous
 62
     7
370
    25
100
AcDbLine
 10
17.3338065112
 20
16.5950339386
 30
0.0
 11
17.5007395585
 21
16.6914023356
 31
0.0
  0
LINE
  5
22E
330
1B
100
AcDbEntity
 67
     1
  8
0
  6
Continuous
 62
     7
370
    25
100
AcDbLine
 10
16.1998886945
 20
17.2496307607
 30
0.0
 11
17.3338065112
 21
16.5950339386
 31
0.0
  0
ARC
  5
22F
330
1B
100
AcDbEntity
 67
     1
  8
0
  6
Continuous
 62
     7
370
    25
100
AcDbCircle
 10
15.9938391405
 20
16.8519547902
 30
0.0
 40
0.4478868119001403
100
AcDbArc
 50
62.609777535
 51
117.390222465
  0
ARC
  5
230
330
1B
100
AcDbEntity
 67
     1
  8
0
  6
Continuous
 62
     7
370
    25
100
AcDbCircle
 10
27.2205579833
 20
10.930231101
 30
0.0
 40
0.046221973708244
100
AcDbArc
 50
3.2296907227
 51
57.3475931631
  0
LINE
  5
231
330
1B
100
AcDbEntity
 67
     1
  8
0
  6
Continuous
 62
     7
370
    25
100
AcDbLine
 10
27.2667065428
 20
10.9328351957
 30
0.0
 11
19.8717839466
 21
6.6638372491
 31
0.0
  0
LINE
  5
232
330
1B
100
AcDbEntity
 67
     1
  8
0
  6
Continuous
 62
     7
370
    25
100
AcDbLine
 10
18.4600570032
 20
6.6638372491
 30
0.0
 11
7.8930530726
 21
12.7640387717
 31
0.0
  0
ARC
  5
233
330
1B
100
AcDbEntity
 67
     1
  8
0
  6
Continuous
 62
     7
370
    25
100
AcDbCircle
 10
7.9392016321
 20
12.761434677
 30
0.0
 40
0.0462219737082401
100
AcDbArc
 50
122.6524068369
 51
176.7703092773
  0
LINE
  5
234
330
1B
100
AcDbEntity
 67
     1
  8
0
  6
Continuous
 62
     7
370
    25
100
AcDbLine
 10
27.2682799975
 20
10.8278178993
 30
0.0
 11
27.2667065428
 21
10.9328351957
 31
0.0
  0
LINE
  5
235
330
1B
100
AcDbEntity
 67
     1
  8
0
  6
Continuous
 62
     7
370
    25
100
AcDbLine
 10
19.8733574013
 20
6.5588199527
 30
0.0
 11
27.2682799975
 21
10.8278178993
 31
0.0
  0
LINE
  5
236
330
1B
100
AcDbEntity
 67
     1
  8
0
  6
Continuous
 62
     7
370
    25
100
AcDbLine
 10
7.891479203
 20
12.6590212359
 30
0.0
 11
18.4584831336
 21
6.5588197132
 31
0.0
  0
LINE
  5
237
330
1B
100
AcDbEntity
 67
     1
  8
0
  6
Continuous
 62
     7
370
    25
100
AcDbLine
 10
7.8930530726
 20
12.7640387717
 30
0.0
 11
7.891479203
 21
12.6590212359
 31
0.0
  0
LINE
  5
238
330
1B
100
AcDbEntity
 67
     1
  8
0
  6
Continuous
 62
     7
370
    25
100
AcDbLine
 10
9.1723571899
 20
11.9051311853
 30
0.0
 11
18.1264767273
 21
6.7360280038
 31
0.0
  0
LINE
  5
239
330
1B
100
AcDbEntity
 67
     1
  8
0
  6
Continuous
 62
     7
370
    25
100
AcDbLine
 10
19.6396819571
 20
7.4984154328
 30
0.0
 11
19.5835658758
 21
7.4660203086
 31
0.0
  0
LINE
  5
23A
330
1B
100
AcDbEntity
 67
     1
  8
0
  6
Continuous
 62
     7
370
    25
100
AcDbLine
 10
22.6567800787
 20
9.2372425184
 30
0.0
 11
22.6598618596
 21
9.2354634441
 31
0.0
  0
ARC
  5
23B
330
1B
100
AcDbEntity
 67
     1
  8
0
  6
Continuous
 62
     7
370
    25
100
AcDbCircle
 10
27.1966714059
 20
11.3407806362
 30
0.0
 40
0.3611409629450812
100
AcDbArc
 50
326.0609018875
 51
37.2009419225
  0
ARC
  5
23C
330
1B
100
AcDbEntity
 67
     1
  8
0
  6
Continuous
 62
     7
370
    25
100
AcDbCircle
 10
27.1904294539
 20
11.241134631
 30
0.0
 40
0.3708108860326955
100
AcDbArc
 50
325.9891966389
 51
0.3407790985
  0
LINE
  5
23D
330
1B
100
AcDbEntity
 67
     1
  8
0
  6
Continuous
 62
     7
370
    25
100
AcDbLine
 10
25.6925159433
 20
10.9926421163
 30
0.0
 11
25.636399862
 21
10.9602469921
 31
0.0
  0
ARC
  5
23E
330
1B
100
AcDbEntity
 67
     1
  8
0
  6
Continuous
 62
     7
370
    25
100
AcDbCircle
 10
26.2552178308
 20
11.3793646271
 30
0.0
 40
0.1235512629099002
100
AcDbArc
 50
122.6950728649
 51
176.1501205676
  0
ELLIPSE
  5
23F
330
1B
100
AcDbEntity
 67
     1
  8
0
  6
Continuous
 62
     7
370
    25
100
AcDbEllipse
 10
25.0545613611
 20
12.0726137226
 30
0.0
 11
0.07035504793524794
 21
0.04631746217048339
 31
0.0
210
0.0
220
0.0
230
1.0
 40
0.7161180112
 41
1.130249831671315
 42
2.66613957342632
  0
ARC
  5
240
330
1B
100
AcDbEntity
 67
     1
  8
0
  6
Continuous
 62
     7
370
    25
100
AcDbCircle
 10
25.2882326058
 20
12.2363987654
 30
0.0
 40
0.123550790401619
100
AcDbArc
 50
122.6949625259
 51
176.1502309066
  0
LINE
  5
241
330
1B
100
AcDbEntity
 67
     1
  8
0
  6
Continuous
 62
     7
370
    25
100
AcDbLine
 10
25.1649606048
 20
12.2446940397
 30
0.0
 11
17.6279417341
 21
16.5957224195
 31
0.0
  0
ARC
  5
242
330
1B
100
AcDbEntity
 67
     1
  8
0
  6
Continuous
 62
     7
370
    25
100
AcDbCircle
 10
17.7512137351
 20
16.5874271453
 30
0.0
 40
0.1235507904015897
100
AcDbArc
 50
122.6949625259
 51
176.1502309066
  0
ARC
  5
243
330
1B
100
AcDbEntity
 67
     1
  8
0
  6
Continuous
 62
     7
370
    25
100
AcDbCircle
 10
7.96324699
 20
13.171849872
 30
0.0
 40
0.3612127612409204
100
AcDbArc
 50
143.5222780653
 51
214.0323082262
  0
ARC
  5
244
330
1B
100
AcDbEntity
 67
     1
  8
0
  6
Continuous
 62
     7
370
    25
100
AcDbCircle
 10
7.9690821435
 20
13.0722995246
 30
0.0
 40
0.3705635180702575
100
AcDbArc
 50
179.6530493303
 51
213.8564451766
  0
ARC
  5
245
330
1B
100
AcDbEntity
 67
     1
  8
0
  6
Continuous
 62
     7
370
    25
100
AcDbCircle
 10
8.904541111
 20
13.2105672915
 30
0.0
 40
0.1235523940065178
100
AcDbArc
 50
3.8501565738
 51
57.3048926378
  0
ELLIPSE
  5
246
330
1B
100
AcDbEntity
 67
     1
  8
0
  6
Continuous
 62
     7
370
    25
100
AcDbEllipse
 10
17.3338066478
 20
16.5297105466
 30
0.0
 11
0.02280095031179031
 21
0.07888191636604347
 31
0.0
210
0.0
220
0.0
230
1.0
 40
0.3425458243
 41
0.7009032438046816
 42
2.236792985559425
  0
ELLIPSE
  5
247
330
1B
100
AcDbEntity
 67
     1
  8
0
  6
Continuous
 62
     7
370
    25
100
AcDbEllipse
 10
17.3338066478
 20
16.5297105466
 30
0.0
 11
-0.02280095031179031
 21
0.07888191636604347
 31
0.0
210
0.0
220
0.0
230
1.0
 40
0.3425458243
 41
4.04639232161999
 42
5.582282063375192
  0
SPLINE
  5
248
330
1B
100
AcDbEntity
 67
     1
  8
0
  6
Continuous
 62
     7
370
    25
100
AcDbSpline
210
0.0
220
0.0
230
1.0
 70
     8
 71
     3
 72
    10
 73
     6
 74
     0
 42
0.000000001
 43
0.00000001
 40
0.0
 40
0.0
 40
0.0
 40
0.0
 40
0.1266812333394243
 40
0.5812430513106658
 40
1.0
 40
1.0
 40
1.0
 40
1.0
 10
17.45466384382109
 20
16.55015458843871
 30
0.0
 10
17.45323522319893
 20
16.54982314282734
 30
0.0
 10
17.44668037850959
 20
16.54830239304128
 30
0.0
 10
17.43574235848454
 20
16.5392522917386
 30
0.0
 10
17.42797776948315
 20
16.5287036737291
 30
0.0
 10
17.42425464372177
 20
16.52364560414537
 30
0.0
  0
ARC
  5
249
330
1B
100
AcDbEntity
 67
     1
  8
0
  6
Continuous
 62
     7
370
    25
100
AcDbCircle
 10
13.2936804885
 20
14.7362345745
 30
0.0
 40
0.046260506119999
100
AcDbArc
 50
3.8651176894
 51
57.4112185745
  0
LINE
  5
24A
330
1B
100
AcDbEntity
 67
     1
  8
0
  6
Continuous
 62
     7
370
    25
100
AcDbLine
 10
13.4410041243
 20
14.8461346845
 30
0.0
 11
13.3185966664
 21
14.7752117281
 31
0.0
  0
LINE
  5
24B
330
1B
100
AcDbEntity
 67
     1
  8
0
  6
Continuous
 62
     7
370
    25
100
AcDbLine
 10
13.441004954
 20
14.8461342056
 30
0.0
 11
13.4410041243
 21
14.8461346845
 31
0.0
  0
ELLIPSE
  5
24C
330
1B
100
AcDbEntity
 67
     1
  8
0
  6
Continuous
 62
     7
370
    25
100
AcDbEllipse
 10
13.4404494887
 20
14.8213172914
 30
0.0
 11
-0.01441322720639526
 21
0.02631724643730493
 31
0.0
210
0.0
220
0.0
230
1.0
 40
0.5928033323
 41
3.975292782446971
 42
5.511182545507854
  0
LINE
  5
24D
330
1B
100
AcDbEntity
 67
     1
  8
0
  6
Continuous
 62
     7
370
    25
100
AcDbLine
 10
13.3398357752
 20
14.739352897
 30
0.0
 11
13.4616885795
 21
14.8099547008
 31
0.0
  0
LINE
  5
24E
330
1B
100
AcDbEntity
 67
     1
  8
0
  6
Continuous
 62
     7
370
    25
100
AcDbLine
 10
13.3185966664
 20
14.7752117281
 30
0.0
 11
12.5150350576
 21
15.2390979708
 31
0.0
  0
LINE
  5
24F
330
1B
100
AcDbEntity
 67
     1
  8
0
  6
Continuous
 62
     7
370
    25
100
AcDbLine
 10
12.5150350576
 20
15.2390979708
 30
0.0
 11
12.637890948
 21
15.3097620526
 31
0.0
  0
LINE
  5
250
330
1B
100
AcDbEntity
 67
     1
  8
0
  6
Continuous
 62
     7
370
    25
100
AcDbLine
 10
13.4410041243
 20
14.8461346845
 30
0.0
 11
12.637890948
 21
15.3097620526
 31
0.0
  0
LINE
  5
251
330
1B
100
AcDbEntity
 67
     1
  8
0
  6
Continuous
 62
     7
370
    25
100
AcDbLine
 10
12.637890948
 20
15.3097620526
 30
0.0
 11
12.6378897035
 21
15.3097627711
 31
0.0
  0
ELLIPSE
  5
252
330
1B
100
AcDbEntity
 67
     1
  8
0
  6
Continuous
 62
     7
370
    25
100
AcDbEllipse
 10
12.6373342825
 20
15.2849458314
 30
0.0
 11
-0.01437121843846079
 21
0.02633940329545404
 31
0.0
210
0.0
220
0.0
230
1.0
 40
0.5917757073
 41
5.512144188272998
 42
6.296501093753577
  0
SPLINE
  5
253
330
1B
100
AcDbEntity
 67
     1
  8
0
  6
Continuous
 62
     7
370
    25
100
AcDbSpline
210
0.0
220
0.0
230
1.0
 70
     8
 71
     3
 72
    10
 73
     6
 74
     0
 42
0.000000001
 43
0.00000001
 40
0.0
 40
0.0
 40
0.0
 40
0.0
 40
0.0202072100689448
 40
0.9242832753941035
 40
1.0
 40
1.0
 40
1.0
 40
1.0
 10
21.09623887712699
 20
8.364074685298274
 30
0.0
 10
21.09626995404243
 20
8.364057956967278
 30
0.0
 10
21.09769142059307
 20
8.363292798565336
 30
0.0
 10
21.09923513377254
 20
8.36246091734552
 30
0.0
 10
21.1006956848557
 20
8.361562398730854
 30
0.0
 10
21.10080855376561
 20
8.361492962736632
 30
0.0
  0
SPLINE
  5
254
330
1B
100
AcDbEntity
 67
     1
  8
0
  6
Continuous
 62
     7
370
    25
100
AcDbSpline
210
0.0
220
0.0
230
1.0
 70
     8
 71
     3
 72
     9
 73
     5
 74
     0
 42
0.000000001
 43
0.00000001
 40
0.0
 40
0.0
 40
0.0
 40
0.0
 40
0.6633761204210403
 40
1.0
 40
1.0
 40
1.0
 40
1.0
 10
21.10080855376561
 20
8.361492962736632
 30
0.0
 10
21.1005845090602
 20
8.36150246923001
 30
0.0
 10
21.10024677500781
 20
8.361516799702699
 30
0.0
 10
21.09987534995279
 20
8.361343766469938
 30
0.0
 10
21.09975031940979
 20
8.36128551935183
 30
0.0
  0
LINE
  5
255
330
1B
100
AcDbEntity
 67
     1
  8
0
  6
Continuous
 62
     7
370
    25
100
AcDbLine
 10
20.9458413121
 20
8.2724357406
 30
0.0
 11
21.0997503194
 21
8.3612855194
 31
0.0
  0
LINE
  5
256
330
1B
100
AcDbEntity
 67
     1
  8
0
  6
Continuous
 62
     7
370
    25
100
AcDbLine
 10
21.7187546614
 20
9.740927769
 30
0.0
 11
21.718755491
 21
9.74092729
 31
0.0
  0
LINE
  5
257
330
1B
100
AcDbEntity
 67
     1
  8
0
  6
Continuous
 62
     7
370
    25
100
AcDbLine
 10
21.718755491
 20
9.74092729
 30
0.0
 11
22.5218686674
 21
9.2772999219
 31
0.0
  0
LINE
  5
258
330
1B
100
AcDbEntity
 67
     1
  8
0
  6
Continuous
 62
     7
370
    25
100
AcDbLine
 10
22.5218686674
 20
9.2772999219
 30
0.0
 11
22.5218699119
 21
9.2772992035
 31
0.0
  0
LINE
  5
259
330
1B
100
AcDbEntity
 67
     1
  8
0
  6
Continuous
 62
     7
370
    25
100
AcDbLine
 10
22.5218699119
 20
9.2772992035
 30
0.0
 11
21.2129585798
 21
8.4424673359
 31
0.0
  0
ELLIPSE
  5
25A
330
1B
100
AcDbEntity
 67
     1
  8
0
  6
Continuous
 62
     7
370
    25
100
AcDbEllipse
 10
22.5224253329
 20
9.2531236943
 30
0.0
 11
-0.01555181786529758
 21
0.0256605524517699
 31
0.0
210
0.0
220
0.0
230
1.0
 40
0.561535222
 41
3.949986534929019
 42
5.485876254193274
  0
LINE
  5
25B
330
1B
100
AcDbEntity
 67
     1
  8
0
  6
Continuous
 62
     7
370
    25
100
AcDbLine
 10
22.6658857594
 20
9.3120606767
 30
0.0
 11
22.671466203
 21
9.2608470857
 31
0.0
  0
LINE
  5
25C
330
1B
100
AcDbEntity
 67
     1
  8
0
  6
Continuous
 62
     7
370
    25
100
AcDbLine
 10
22.5435870115
 20
9.2417163106
 30
0.0
 11
22.6658857594
 21
9.3120606767
 31
0.0
  0
SPLINE
  5
25D
330
1B
100
AcDbEntity
 67
     1
  8
0
  6
Continuous
 62
     7
370
    25
100
AcDbSpline
210
0.0
220
0.0
230
1.0
 70
     8
 71
     3
 72
     9
 73
     5
 74
     0
 42
0.000000001
 43
0.00000001
 40
0.0
 40
0.0
 40
0.0
 40
0.0
 40
0.0474616139270541
 40
1.0
 40
1.0
 40
1.0
 40
1.0
 10
21.12502660582753
 20
8.37744096807587
 30
0.0
 10
21.12499147929374
 20
8.37740778298224
 30
0.0
 10
21.12425137522069
 20
8.376708584390276
 30
0.0
 10
21.12351681143003
 20
8.376001027979662
 30
0.0
 10
21.1228171112224
 20
8.37532705333824
 30
0.0
  0
SPLINE
  5
25E
330
1B
100
AcDbEntity
 67
     1
  8
0
  6
Continuous
 62
     7
370
    25
100
AcDbSpline
210
0.0
220
0.0
230
1.0
 70
     8
 71
     3
 72
    18
 73
    14
 74
     0
 42
0.000000001
 43
0.00000001
 40
0.0
 40
0.0
 40
0.0
 40
0.0
 40
0.0783283993506772
 40
0.2175536086638468
 40
0.4104051633366939
 40
0.6037643233016656
 40
0.7069450115059283
 40
0.7673663193679959
 40
0.8035984387272791
 40
0.8315624184815844
 40
0.8596182898445959
 40
0.8980036736642526
 40
1.0
 40
1.0
 40
1.0
 40
1.0
 10
21.1228171112224
 20
8.37532705333824
 30
0.0
 10
21.12233434860657
 20
8.375056122349434
 30
0.0
 10
21.12099349713925
 20
8.37430362370524
 30
0.0
 10
21.11699267632704
 20
8.374091420978866
 30
0.0
 10
21.11122086296609
 20
8.373032176771986
 30
0.0
 10
21.10569783429744
 20
8.370971770987614
 30
0.0
 10
21.10214808577967
 20
8.368661355555947
 30
0.0
 10
21.10044198519165
 20
8.36700293743034
 30
0.0
 10
21.09961105194847
 20
8.365772156950516
 30
0.0
 10
21.09923569287383
 20
8.364791981303052
 30
0.0
 10
21.0991634531255
 20
8.363863722320025
 30
0.0
 10
21.09956925310212
 20
8.362584289608362
 30
0.0
 10
21.1002870373909
 20
8.361952209512287
 30
0.0
 10
21.10080855376561
 20
8.361492962736632
 30
0.0
  0
ELLIPSE
  5
25F
330
1B
100
AcDbEntity
 67
     1
  8
0
  6
Continuous
 62
     7
370
    25
100
AcDbEllipse
 10
21.7193101267
 20
9.7167522343
 30
0.0
 11
-0.01559203288883992
 21
0.02563528584634511
 31
0.0
210
0.0
220
0.0
230
1.0
 40
0.5626180543
 41
5.485010327895878
 42
6.295175768124585
  0
ARC
  5
260
330
1B
100
AcDbEntity
 67
     1
  8
0
  6
Continuous
 62
     7
370
    25
100
AcDbCircle
 10
22.6195855107
 20
9.3089593981
 30
0.0
 40
0.0464039971427899
100
AcDbArc
 50
3.8320560575
 51
57.1976191431
  0
LINE
  5
261
330
1B
100
AcDbEntity
 67
     1
  8
0
  6
Continuous
 62
     7
370
    25
100
AcDbLine
 10
22.6447245578
 20
9.3479640038
 30
0.0
 11
22.5218686674
 21
9.2772999219
 31
0.0
  0
LINE
  5
262
330
1B
100
AcDbEntity
 67
     1
  8
0
  6
Continuous
 62
     7
370
    25
100
AcDbLine
 10
21.718755491
 20
9.74092729
 30
0.0
 11
21.8411629489
 21
9.8118502465
 31
0.0
  0
LINE
  5
263
330
1B
100
AcDbEntity
 67
     1
  8
0
  6
Continuous
 62
     7
370
    25
100
AcDbLine
 10
21.8411629489
 20
9.8118502465
 30
0.0
 11
22.6447245578
 21
9.3479640038
 31
0.0
  0
ARC
  5
264
330
1B
100
AcDbEntity
 67
     1
  8
0
  6
Continuous
 62
     7
370
    25
100
AcDbCircle
 10
17.2421169029
 20
16.3313978261
 30
0.0
 40
0.0853377641454684
100
AcDbArc
 50
92.1202191397
 51
147.8942471008
  0
LWPOLYLINE
  5
265
330
1B
100
AcDbEntity
 67
     1
  8
0
  6
Continuous
 62
     7
370
    25
100
AcDbPolyline
 90
        3
 70
   128
 43
0.0
 10
17.1670026839
 20
16.374898852
 10
17.1768549245
 20
16.3865294245
 10
17.2008603756
 20
16.4059037721
  0
LWPOLYLINE
  5
266
330
1B
100
AcDbEntity
 67
     1
  8
0
  6
Continuous
 62
     7
370
    25
100
AcDbPolyline
 90
        3
 70
   128
 43
0.0
 10
24.7599484729
 20
12.0272909354
 10
24.7746911584
 20
12.0377187673
 10
24.7894340513
 20
12.0443125976
  0
LWPOLYLINE
  5
267
330
1B
100
AcDbEntity
 67
     1
  8
0
  6
Continuous
 62
     7
370
    25
100
AcDbPolyline
 90
        6
 70
   128
 43
0.0
 10
24.7932782919
 20
12.0586881429
 10
24.7717757248
 20
12.0628646827
 10
24.7464071385
 20
12.0540467845
 10
24.7210385521
 20
12.0335747364
 10
24.6995322515
 20
12.0045653084
 10
24.6909715877
 20
11.9874711379
  0
ARC
  5
268
330
1B
100
AcDbEntity
 67
     1
  8
0
  6
Continuous
 62
     7
370
    25
100
AcDbCircle
 10
24.8174429783
 20
11.9364778783
 30
0.0
 40
0.13750494298687
100
AcDbArc
 50
122.8466356535
 51
158.6438044572
  0
ARC
  5
269
330
1B
100
AcDbEntity
 67
     1
  8
0
  6
Continuous
 62
     7
370
    25
100
AcDbCircle
 10
17.5058636299
 20
16.4836732011
 30
0.0
 40
0.0853222936895295
100
AcDbArc
 50
92.1179304739
 51
147.8766929934
  0
LWPOLYLINE
  5
26A
330
1B
100
AcDbEntity
 67
     1
  8
0
  6
Continuous
 62
     7
370
    25
100
AcDbPolyline
 90
        3
 70
   128
 43
0.0
 10
17.4310777871
 20
16.5275846546
 10
17.4406060446
 20
16.5387897052
 10
17.4646110808
 20
16.5581638133
  0
LWPOLYLINE
  5
26B
330
1B
100
AcDbEntity
 67
     1
  8
0
  6
Continuous
 62
     7
370
    25
100
AcDbPolyline
 90
        3
 70
   128
 43
0.0
 10
25.0261526971
 20
12.1485873145
 10
25.0419776772
 20
12.1611961531
 10
25.0578026573
 20
12.1668584476
  0
LWPOLYLINE
  5
26C
330
1B
100
AcDbEntity
 67
     1
  8
0
  6
Continuous
 62
     7
370
    25
100
AcDbPolyline
 90
        7
 70
   128
 43
0.0
 10
25.0902291815
 20
12.1855778816
 10
25.086352584
 20
12.1882468638
 10
25.0659930842
 20
12.1922026648
 10
25.0419776772
 20
12.183855161
 10
25.0179622702
 20
12.164475066
 10
24.9976027704
 20
12.1370126869
 10
24.9925206735
 20
12.1274450437
  0
LWPOLYLINE
  5
26D
330
1B
100
AcDbEntity
 67
     1
  8
0
  6
Continuous
 62
     7
370
    25
100
AcDbPolyline
 90
        7
 70
   128
 43
0.0
 10
24.9813712558
 20
12.1194278272
 10
24.9915669767
 20
12.1404973324
 10
25.0130734847
 20
12.1695068801
 10
25.038442071
 20
12.1899789283
 10
25.0638106574
 20
12.1987968265
 10
25.0853171654
 20
12.1946181644
 10
25.0937199859
 20
12.1875931651
  0
LWPOLYLINE
  5
26E
330
1B
100
AcDbEntity
 67
     1
  8
0
  6
Continuous
 62
     7
370
    25
100
AcDbPolyline
 90
        8
 70
   128
 43
0.0
 10
25.057029412
 20
12.2109484236
 10
25.0355266374
 20
12.2151248436
 10
25.0101580511
 20
12.2063069454
 10
24.9847894647
 20
12.1858348973
 10
24.9632829567
 20
12.1568253496
 10
24.9489127896
 20
12.1236947931
 10
24.9438667831
 20
12.0914871108
 10
24.9452938023
 20
12.0765124671
  0
ARC
  5
26F
330
1B
100
AcDbEntity
 67
     1
  8
0
  6
Continuous
 62
     7
370
    25
100
AcDbCircle
 10
25.0801196665
 20
12.0893683538
 30
0.0
 40
0.1363939117799072
100
AcDbArc
 50
122.6112386595
 51
177.3942618972
  0
LINE
  5
270
330
1B
100
AcDbEntity
 67
     1
  8
0
  6
Continuous
 62
     7
370
    25
100
AcDbLine
 10
17.1708185085
 20
16.3773402943
 30
0.0
 11
24.6774642695
 21
12.0438459375
 31
0.0
  0
ARC
  5
271
330
1B
100
AcDbEntity
 67
     1
  8
0
  6
Continuous
 62
     7
370
    25
100
AcDbCircle
 10
24.7188696964
 20
11.9791155512
 30
0.0
 40
0.0768403038269763
100
AcDbArc
 50
122.6054134842
 51
177.3944923647
  0
LINE
  5
272
330
1B
100
AcDbEntity
 67
     1
  8
0
  6
Continuous
 62
     7
370
    25
100
AcDbLine
 10
24.6421088297
 20
11.9826086357
 30
0.0
 11
17.1354630688
 21
16.3161029925
 31
0.0
  0
ARC
  5
273
330
1B
100
AcDbEntity
 67
     1
  8
0
  6
Continuous
 62
     7
370
    25
100
AcDbCircle
 10
17.2122239355
 20
16.3126099079
 30
0.0
 40
0.0768403038270035
100
AcDbArc
 50
122.6054134842
 51
177.3944923647
  0
LINE
  5
274
330
1B
100
AcDbEntity
 67
     1
  8
0
  6
Continuous
 62
     7
370
    25
100
AcDbLine
 10
25.0720297077
 20
12.2716237166
 30
0.0
 11
24.6774642695
 21
12.0438459375
 31
0.0
  0
ARC
  5
275
330
1B
100
AcDbEntity
 67
     1
  8
0
  6
Continuous
 62
     7
370
    25
100
AcDbCircle
 10
25.085831484
 20
12.2547036102
 30
0.0
 40
0.0218352702879577
100
AcDbArc
 50
350.784729961
 51
129.2042181049
  0
LINE
  5
276
330
1B
100
AcDbEntity
 67
     1
  8
0
  6
Continuous
 62
     7
370
    25
100
AcDbLine
 10
25.10738494
 20
12.195481567
 30
0.0
 11
25.10738494
 21
12.2512068169
 31
0.0
  0
LINE
  5
277
330
1B
100
AcDbEntity
 67
     1
  8
0
  6
Continuous
 62
     7
370
    25
100
AcDbLine
 10
17.1354630688
 20
16.3161029925
 30
0.0
 11
17.1354630688
 21
16.3115350955
 31
0.0
  0
LINE
  5
278
330
1B
100
AcDbEntity
 67
     1
  8
0
  6
Continuous
 62
     7
370
    25
100
AcDbLine
 10
17.5653839467
 20
16.6051180734
 30
0.0
 11
17.1708185085
 21
16.3773402943
 31
0.0
  0
LINE
  5
279
330
1B
100
AcDbEntity
 67
     1
  8
0
  6
Continuous
 62
     7
370
    25
100
AcDbLine
 10
25.0720297077
 20
12.2716237166
 30
0.0
 11
17.5653839467
 21
16.6051180734
 31
0.0
  0
ARC
  5
27A
330
1B
100
AcDbEntity
 67
     1
  8
0
  6
Continuous
 62
     7
370
    25
100
AcDbCircle
 10
17.5800301971
 20
16.5846731647
 30
0.0
 40
0.025149690649448
100
AcDbArc
 50
65.6939183102
 51
125.6169185867
  0
LINE
  5
27B
330
1B
100
AcDbEntity
 67
     1
  8
0
  6
Continuous
 62
     7
370
    25
100
AcDbLine
 10
25.7110933283
 20
11.0236580787
 30
0.0
 11
25.7342674577
 21
11.0102799386
 31
0.0
  0
LINE
  5
27C
330
1B
100
AcDbEntity
 67
     1
  8
0
  6
Continuous
 62
     7
370
    25
100
AcDbLine
 10
25.6068557924
 20
10.9409616601
 30
0.0
 11
25.5873496003
 21
10.9522223451
 31
0.0
  0
LINE
  5
27D
330
1B
100
AcDbEntity
 67
     1
  8
0
  6
Continuous
 62
     7
370
    25
100
AcDbLine
 10
25.8348370563
 20
11.0950938123
 30
0.0
 11
25.8580111857
 21
11.0817156722
 31
0.0
  0
LINE
  5
27E
330
1B
100
AcDbEntity
 67
     1
  8
0
  6
Continuous
 62
     7
370
    25
100
AcDbLine
 10
25.7026067119
 20
11.0187588086
 30
0.0
 11
25.7257808413
 21
11.0053806684
 31
0.0
  0
LINE
  5
27F
330
1B
100
AcDbEntity
 67
     1
  8
0
  6
Continuous
 62
     7
370
    25
100
AcDbLine
 10
19.4025389389
 20
7.3818071487
 30
0.0
 11
19.4257130683
 21
7.3684290086
 31
0.0
  0
LINE
  5
280
330
1B
100
AcDbEntity
 67
     1
  8
0
  6
Continuous
 62
     7
370
    25
100
AcDbLine
 10
19.5494567963
 20
7.4398647422
 30
0.0
 11
19.5262826669
 21
7.4532428823
 31
0.0
  0
LINE
  5
281
330
1B
100
AcDbEntity
 67
     1
  8
0
  6
Continuous
 62
     7
370
    25
100
AcDbLine
 10
19.6767359231
 20
7.5133414181
 30
0.0
 11
19.6535617937
 21
7.5267195582
 31
0.0
  0
LINE
  5
282
330
1B
100
AcDbEntity
 67
     1
  8
0
  6
Continuous
 62
     7
370
    25
100
AcDbLine
 10
19.5409701799
 20
7.434965472
 30
0.0
 11
19.5177960505
 21
7.4483436122
 31
0.0
  0
ARC
  5
283
330
1B
100
AcDbEntity
 67
     1
  8
0
  6
Continuous
 62
     7
370
    25
100
AcDbCircle
 10
22.6573894816
 20
9.3306824913
 30
0.0
 40
0.0462587031127298
100
AcDbArc
 50
3.8639575952
 51
57.4117328503
  0
LINE
  5
284
330
1B
100
AcDbEntity
 67
     1
  8
0
  6
Continuous
 62
     7
370
    25
100
AcDbLine
 10
22.7035430325
 20
9.3337997578
 30
0.0
 11
22.7011543001
 21
9.2779856593
 31
0.0
  0
LINE
  5
285
330
1B
100
AcDbEntity
 67
     1
  8
0
  6
Continuous
 62
     7
370
    25
100
AcDbLine
 10
22.8047113816
 20
9.4405815453
 30
0.0
 11
22.8047126261
 21
9.4405808269
 31
0.0
  0
ELLIPSE
  5
286
330
1B
100
AcDbEntity
 67
     1
  8
0
  6
Continuous
 62
     7
370
    25
100
AcDbEllipse
 10
22.8041570708
 20
9.4157639647
 30
0.0
 11
-0.01441322720639704
 21
0.02631724643730493
 31
0.0
210
0.0
220
0.0
230
1.0
 40
0.5928033323
 41
3.975292782447749
 42
5.511182545506819
  0
LINE
  5
287
330
1B
100
AcDbEntity
 67
     1
  8
0
  6
Continuous
 62
     7
370
    25
100
AcDbLine
 10
22.8253962517
 20
9.4044013221
 30
0.0
 11
22.7035430325
 21
9.3337997578
 31
0.0
  0
LINE
  5
288
330
1B
100
AcDbEntity
 67
     1
  8
0
  6
Continuous
 62
     7
370
    25
100
AcDbLine
 10
22.6823043386
 20
9.3696583494
 30
0.0
 11
22.8047113816
 21
9.4405815453
 31
0.0
  0
LINE
  5
289
330
1B
100
AcDbEntity
 67
     1
  8
0
  6
Continuous
 62
     7
370
    25
100
AcDbLine
 10
21.8787427297
 20
9.8335445921
 30
0.0
 11
22.6823043386
 21
9.3696583494
 31
0.0
  0
LINE
  5
28A
330
1B
100
AcDbEntity
 67
     1
  8
0
  6
Continuous
 62
     7
370
    25
100
AcDbLine
 10
22.0015982053
 20
9.9042089134
 30
0.0
 11
21.8787427297
 21
9.8335445921
 31
0.0
  0
LINE
  5
28B
330
1B
100
AcDbEntity
 67
     1
  8
0
  6
Continuous
 62
     7
370
    25
100
AcDbLine
 10
22.0015982053
 20
9.9042089134
 30
0.0
 11
22.8047113816
 21
9.4405815453
 31
0.0
  0
LINE
  5
28C
330
1B
100
AcDbEntity
 67
     1
  8
0
  6
Continuous
 62
     7
370
    25
100
AcDbLine
 10
22.8047126261
 20
9.4405808269
 30
0.0
 11
24.1136239583
 21
10.1169858158
 31
0.0
  0
LINE
  5
28D
330
1B
100
AcDbEntity
 67
     1
  8
0
  6
Continuous
 62
     7
370
    25
100
AcDbLine
 10
22.0015973756
 20
9.9042093924
 30
0.0
 11
22.0015982053
 21
9.9042089134
 31
0.0
  0
LINE
  5
28E
330
1B
100
AcDbEntity
 67
     1
  8
0
  6
Continuous
 62
     7
370
    25
100
AcDbLine
 10
24.2910141738
 20
10.2035629285
 30
0.0
 11
24.1386180558
 21
10.1155865222
 31
0.0
  0
ELLIPSE
  5
28F
330
1B
100
AcDbEntity
 67
     1
  8
0
  6
Continuous
 62
     7
370
    25
100
AcDbEllipse
 10
22.0010418646
 20
9.8793925047
 30
0.0
 11
-0.01437121843846257
 21
0.02633940329545582
 31
0.0
210
0.0
220
0.0
230
1.0
 40
0.5917757073
 41
5.51214418827297
 42
6.296501093753626
  0
ELLIPSE
  5
290
330
1B
100
AcDbEntity
 67
     1
  8
0
  6
Continuous
 62
     7
370
    25
100
AcDbEllipse
 10
24.3068891333
 20
10.5754539199
 30
0.0
 11
0.01662143939220329
 21
0.3720928981851017
 31
0.0
210
0.0
220
0.0
230
1.0
 40
0.0556763515
 41
3.1771226551792
 42
3.375438506832107
  0
ELLIPSE
  5
291
330
1B
100
AcDbEntity
 67
     1
  8
0
  6
Continuous
 62
     7
370
    25
100
AcDbEllipse
 10
13.1587177508
 20
14.658677021
 30
0.0
 11
-0.01555181786529758
 21
0.0256605524517699
 31
0.0
210
0.0
220
0.0
230
1.0
 40
0.561535222
 41
3.949986534930055
 42
5.485876254192154
  0
LINE
  5
292
330
1B
100
AcDbEntity
 67
     1
  8
0
  6
Continuous
 62
     7
370
    25
100
AcDbLine
 10
13.3021785021
 20
14.7176138159
 30
0.0
 11
13.1798793394
 21
14.6472696893
 31
0.0
  0
LINE
  5
293
330
1B
100
AcDbEntity
 67
     1
  8
0
  6
Continuous
 62
     7
370
    25
100
AcDbLine
 10
12.3550482337
 20
15.1464804292
 30
0.0
 11
12.3550469893
 21
15.1464811477
 31
0.0
  0
LINE
  5
294
330
1B
100
AcDbEntity
 67
     1
  8
0
  6
Continuous
 62
     7
370
    25
100
AcDbLine
 10
13.1581614101
 20
14.6828530611
 30
0.0
 11
12.3550482337
 21
15.1464804292
 31
0.0
  0
LINE
  5
295
330
1B
100
AcDbEntity
 67
     1
  8
0
  6
Continuous
 62
     7
370
    25
100
AcDbLine
 10
13.1581622398
 20
14.6828525822
 30
0.0
 11
13.1581614101
 21
14.6828530611
 31
0.0
  0
ELLIPSE
  5
296
330
1B
100
AcDbEntity
 67
     1
  8
0
  6
Continuous
 62
     7
370
    25
100
AcDbEllipse
 10
12.3556025446
 20
15.122305561
 30
0.0
 11
-0.01559203288883992
 21
0.02563528584634511
 31
0.0
210
0.0
220
0.0
230
1.0
 40
0.5626180543
 41
5.485010327895602
 42
6.295175768124497
  0
LINE
  5
297
330
1B
100
AcDbEntity
 67
     1
  8
0
  6
Continuous
 62
     7
370
    25
100
AcDbLine
 10
13.1581614101
 20
14.6828530611
 30
0.0
 11
13.2810168857
 21
14.7535173824
 31
0.0
  0
ARC
  5
298
330
1B
100
AcDbEntity
 67
     1
  8
0
  6
Continuous
 62
     7
370
    25
100
AcDbCircle
 10
13.2558765092
 20
14.7145114789
 30
0.0
 40
0.0464058081881222
100
AcDbArc
 50
3.8332158991
 51
57.1971075966
  0
LINE
  5
299
330
1B
100
AcDbEntity
 67
     1
  8
0
  6
Continuous
 62
     7
370
    25
100
AcDbLine
 10
12.4774552768
 20
15.2174036251
 30
0.0
 11
12.3550482337
 21
15.1464804292
 31
0.0
  0
LINE
  5
29A
330
1B
100
AcDbEntity
 67
     1
  8
0
  6
Continuous
 62
     7
370
    25
100
AcDbLine
 10
13.2810168857
 20
14.7535173824
 30
0.0
 11
12.4774552768
 21
15.2174036251
 31
0.0
  0
ELLIPSE
  5
29B
330
1B
100
AcDbEntity
 67
     1
  8
0
  6
Continuous
 62
     8
370
    25
100
AcDbEllipse
 10
15.9188203546
 20
9.4652115896
 30
0.0
 11
0.1128183351711503
 21
0.1888895755290392
 31
0.0
210
0.0
220
0.0
230
1.0
 40
0.5672200025
 41
0.7937455747123205
 42
1.143796270077643
  0
LINE
  5
29C
330
1B
100
AcDbEntity
 67
     1
  8
0
  6
Continuous
 62
     8
370
    25
100
AcDbLine
 10
16.4460923517
 20
9.9353990825
 30
0.0
 11
16.4464217276
 21
9.946293228
 31
0.0
  0
LINE
  5
29D
330
1B
100
AcDbEntity
 67
     1
  8
0
  6
Continuous
 62
     8
370
    25
100
AcDbLine
 10
15.7767642033
 20
9.5527076755
 30
0.0
 11
15.7799147424
 21
9.5508229205
 31
0.0
  0
LINE
  5
29E
330
1B
100
AcDbEntity
 67
     1
  8
0
  6
Continuous
 62
     8
370
    25
100
AcDbLine
 10
15.7733271195
 20
9.5470200168
 30
0.0
 11
15.7767642033
 21
9.5527076755
 31
0.0
  0
LINE
  5
29F
330
1B
100
AcDbEntity
 67
     1
  8
0
  6
Continuous
 62
     8
370
    25
100
AcDbLine
 10
12.9232540339
 20
11.127135606
 30
0.0
 11
15.7036509327
 21
9.5220466416
 31
0.0
  0
ARC
  5
2A0
330
1B
100
AcDbEntity
 67
     1
  8
0
  6
Continuous
 62
     8
370
    25
100
AcDbCircle
 10
16.4340024837
 20
9.9711969306
 30
0.0
 40
0.0150890572932291
100
AcDbArc
 50
65.6923846012
 51
125.6175516583
  0
ARC
  5
2A1
330
1B
100
AcDbEntity
 67
     1
  8
0
  6
Continuous
 62
     8
370
    25
100
AcDbCircle
 10
13.6105315887
 20
11.6011519837
 30
0.0
 40
0.015089057293202
100
AcDbArc
 50
65.6923846012
 51
125.6175516583
  0
ARC
  5
2A2
330
1B
100
AcDbEntity
 67
     1
  8
0
  6
Continuous
 62
     8
370
    25
100
AcDbCircle
 10
13.0680710402
 20
11.2981732561
 30
0.0
 40
0.0150598674543989
100
AcDbArc
 50
54.3195247307
 51
114.3860813845
  0
ARC
  5
2A3
330
1B
100
AcDbEntity
 67
     1
  8
0
  6
Continuous
 62
     8
370
    25
100
AcDbCircle
 10
12.8977441202
 20
11.0865316654
 30
0.0
 40
0.1110412306287735
100
AcDbArc
 50
59.0705147523
 51
65.6228155104
  0
ARC
  5
2A4
330
1B
100
AcDbEntity
 67
     1
  8
0
  6
Continuous
 62
     8
370
    25
100
AcDbCircle
 10
12.8662211453
 20
11.0319584626
 30
0.0
 40
0.1109569241034206
100
AcDbArc
 50
59.0687431755
 51
65.6261622879
  0
ARC
  5
2A5
330
1B
100
AcDbEntity
 67
     1
  8
0
  6
Continuous
 62
     8
370
    25
100
AcDbCircle
 10
13.5929597539
 20
11.6011838221
 30
0.0
 40
0.0150614046557585
100
AcDbArc
 50
54.3213598952
 51
114.368328576
  0
LINE
  5
2A6
330
1B
100
AcDbEntity
 67
     1
  8
0
  6
Continuous
 62
     8
370
    25
100
AcDbLine
 10
19.0581095831
 20
7.3388759594
 30
0.0
 11
19.0588413453
 21
7.2908958075
 31
0.0
  0
LINE
  5
2A7
330
1B
100
AcDbEntity
 67
     1
  8
0
  6
Continuous
 62
     8
370
    25
100
AcDbLine
 10
19.2779736378
 20
7.3388760791
 30
0.0
 11
19.277250587
 21
7.2914565674
 31
0.0
  0
LINE
  5
2A8
330
1B
100
AcDbEntity
 67
     1
  8
0
  6
Continuous
 62
     8
370
    25
100
AcDbLine
 10
9.0638622415
 20
13.1084321412
 30
0.0
 11
9.0647574472
 21
13.0497308619
 31
0.0
  0
ELLIPSE
  5
2A9
330
1B
100
AcDbEntity
 67
     1
  8
0
  6
Continuous
 62
     8
370
    25
100
AcDbEllipse
 10
19.801342399
 20
7.5736181067
 30
0.0
 11
0.03076863686485964
 21
0.0515153387806464
 31
0.0
210
0.0
220
0.0
230
1.0
 40
0.5672200025
 41
5.750727576221744
 42
7.076930881891906
  0
ELLIPSE
  5
2AA
330
1B
100
AcDbEntity
 67
     1
  8
0
  6
Continuous
 62
     8
370
    25
100
AcDbEllipse
 10
19.3875130466
 20
7.3347195067
 30
0.0
 11
0.03076863686485964
 21
0.0515153387806464
 31
0.0
210
0.0
220
0.0
230
1.0
 40
0.5672200025
 41
0.7937455747123324
 42
2.119948880382586
  0
LINE
  5
2AB
330
1B
100
AcDbEntity
 67
     1
  8
0
  6
Continuous
 62
     8
370
    25
100
AcDbLine
 10
20.342486671
 20
7.8976710237
 30
0.0
 11
21.2510811509
 21
8.4761691612
 31
0.0
  0
ARC
  5
2AC
330
1B
100
AcDbEntity
 67
     1
  8
0
  6
Continuous
 62
     8
370
    25
100
AcDbCircle
 10
19.3733902878
 20
7.3821017697
 30
0.0
 40
0.0149102873140442
100
AcDbArc
 50
306.0433940293
 51
4.5490464603
  0
ARC
  5
2AD
330
1B
100
AcDbEntity
 67
     1
  8
0
  6
Continuous
 62
     8
370
    25
100
AcDbCircle
 10
19.787274505
 20
7.6209895386
 30
0.0
 40
0.0148564792364506
100
AcDbArc
 50
305.3580090584
 51
4.6074999696
  0
ELLIPSE
  5
2AE
330
1B
100
AcDbEntity
 67
     1
  8
0
  6
Continuous
 62
     8
370
    25
100
AcDbEllipse
 10
19.7801324264
 20
7.5862898813
 30
0.0
 11
0.0157560245954329
 21
0.02553973119975339
 31
0.0
210
0.0
220
0.0
230
1.0
 40
0.5569002919
 41
5.531433618896115
 42
6.290913891320993
  0
ARC
  5
2AF
330
1B
100
AcDbEntity
 67
     1
  8
0
  6
Continuous
 62
     8
370
    25
100
AcDbCircle
 10
19.8207084424
 20
7.6330970494
 30
0.0
 40
0.0392463055803745
100
AcDbArc
 50
240.4545840014
 51
263.9548179284
  0
ARC
  5
2B0
330
1B
100
AcDbEntity
 67
     1
  8
0
  6
Continuous
 62
     8
370
    25
100
AcDbCircle
 10
21.2375202427
 20
8.4742953567
 30
0.0
 40
0.0136897544050227
100
AcDbArc
 50
308.1850293822
 51
7.8671379071
  0
LINE
  5
2B1
330
1B
100
AcDbEntity
 67
     1
  8
0
  6
Continuous
 62
     8
370
    25
100
AcDbLine
 10
19.8013555671
 20
7.5989541333
 30
0.0
 11
19.7900223791
 21
7.6054966435
 31
0.0
  0
LINE
  5
2B2
330
1B
100
AcDbEntity
 67
     1
  8
0
  6
Continuous
 62
     8
370
    25
100
AcDbLine
 10
19.8013555671
 20
7.5852825279
 30
0.0
 11
19.8013555671
 21
7.5989541333
 31
0.0
  0
LINE
  5
2B3
330
1B
100
AcDbEntity
 67
     1
  8
0
  6
Continuous
 62
     8
370
    25
100
AcDbLine
 10
19.7737300917
 20
7.5960913829
 30
0.0
 11
19.7969042211
 21
7.5827132427
 31
0.0
  0
ELLIPSE
  5
2B4
330
1B
100
AcDbEntity
 67
     1
  8
0
  6
Continuous
 62
     8
370
    25
100
AcDbEllipse
 10
20.3892721755
 20
8.9745358983
 30
0.0
 11
0.0307686368648561
 21
0.0515153387806464
 31
0.0
210
0.0
220
0.0
230
1.0
 40
0.5672200025
 41
5.26778469169165
 42
5.488681262577014
  0
LINE
  5
2B5
330
1B
100
AcDbEntity
 67
     1
  8
0
  6
Continuous
 62
     8
370
    25
100
AcDbLine
 10
23.2184939653
 20
10.6087282503
 30
0.0
 11
22.1208948781
 21
9.9750977846
 31
0.0
  0
LINE
  5
2B6
330
1B
100
AcDbEntity
 67
     1
  8
0
  6
Continuous
 62
     8
370
    25
100
AcDbLine
 10
21.8504276201
 20
9.81896036
 30
0.0
 11
21.846739335
 21
9.8168311583
 31
0.0
  0
LINE
  5
2B7
330
1B
100
AcDbEntity
 67
     1
  8
0
  6
Continuous
 62
     8
370
    25
100
AcDbLine
 10
21.5694905577
 20
9.656778846
 30
0.0
 11
20.4317333487
 21
8.9999655899
 31
0.0
  0
LINE
  5
2B8
330
1B
100
AcDbEntity
 67
     1
  8
0
  6
Continuous
 62
     8
370
    25
100
AcDbLine
 10
23.2729627519
 20
10.5902910721
 30
0.0
 11
23.257966812
 21
10.5825266587
 31
0.0
  0
ARC
  5
2B9
330
1B
100
AcDbEntity
 67
     1
  8
0
  6
Continuous
 62
     8
370
    25
100
AcDbCircle
 10
21.2452040633
 20
8.4915379723
 30
0.0
 40
0.014818718326012
100
AcDbArc
 50
293.5930641697
 51
352.9658948908
  0
ARC
  5
2BA
330
1B
100
AcDbEntity
 67
     1
  8
0
  6
Continuous
 62
     8
370
    25
100
AcDbCircle
 10
21.2387096687
 20
8.5028914404
 30
0.0
 40
0.0150615120846593
100
AcDbArc
 50
65.6318555465
 51
125.6788312463
  0
ARC
  5
2BB
330
1B
100
AcDbEntity
 67
     1
  8
0
  6
Continuous
 62
     8
370
    25
100
AcDbCircle
 10
20.419307731
 20
8.9759221103
 30
0.0
 40
0.0150615120846694
100
AcDbArc
 50
65.6318555465
 51
125.6788312463
  0
ARC
  5
2BC
330
1B
100
AcDbEntity
 67
     1
  8
0
  6
Continuous
 62
     8
370
    25
100
AcDbCircle
 10
21.2451487191
 20
8.4897502568
 30
0.0
 40
0.0148202532644085
100
AcDbArc
 50
293.5964470233
 51
352.9625120372
  0
ELLIPSE
  5
2BD
330
1B
100
AcDbEntity
 67
     1
  8
0
  6
Continuous
 62
     8
370
    25
100
AcDbEllipse
 10
20.4529690948
 20
8.9881488703
 30
0.0
 11
0.03002287833276895
 21
0.0009054294013655094
 31
0.0
210
0.0
220
0.0
230
1.0
 40
0.5764107037
 41
2.338965150917664
 42
3.094771941700697
  0
ARC
  5
2BE
330
1B
100
AcDbEntity
 67
     1
  8
0
  6
Continuous
 62
     8
370
    25
100
AcDbCircle
 10
20.4375771523
 20
8.9846366237
 30
0.0
 40
0.0147688761788227
100
AcDbArc
 50
113.5370621493
 51
173.6278466893
  0
ARC
  5
2BF
330
1B
100
AcDbEntity
 67
     1
  8
0
  6
Continuous
 62
     8
370
    25
100
AcDbCircle
 10
15.7456878484
 20
9.5136351669
 30
0.0
 40
0.0151967096690818
100
AcDbArc
 50
54.5276859578
 51
113.2779254095
  0
ARC
  5
2C0
330
1B
100
AcDbEntity
 67
     1
  8
0
  6
Continuous
 62
     8
370
    25
100
AcDbCircle
 10
15.6784864466
 20
9.5136330741
 30
0.0
 40
0.0151988846540558
100
AcDbArc
 50
66.7490105316
 51
125.4698360781
  0
ARC
  5
2C1
330
1B
100
AcDbEntity
 67
     1
  8
0
  6
Continuous
 62
     8
370
    25
100
AcDbCircle
 10
16.4876368926
 20
9.9418345519
 30
0.0
 40
0.0153502584810003
100
AcDbArc
 50
54.6879403423
 51
111.4678703195
  0
ARC
  5
2C2
330
1B
100
AcDbEntity
 67
     1
  8
0
  6
Continuous
 62
     8
370
    25
100
AcDbCircle
 10
12.8182013029
 20
11.1647237565
 30
0.0
 40
0.015349990271904
100
AcDbArc
 50
68.5316380923
 51
125.3121827991
  0
ELLIPSE
  5
2C3
330
1B
100
AcDbEntity
 67
     1
  8
0
  6
Continuous
 62
     8
370
    25
100
AcDbEllipse
 10
16.454063911
 20
9.9543528467
 30
0.0
 11
0.0300228783327654
 21
0.0009054294013637332
 31
0.0
210
0.0
220
0.0
230
1.0
 40
0.5764107037
 41
6.236364595290514
 42
7.051049544807322
  0
LINE
  5
2C4
330
1B
100
AcDbEntity
 67
     1
  8
0
  6
Continuous
 62
     8
370
    25
100
AcDbLine
 10
16.4748454419
 20
9.9519979543
 30
0.0
 11
16.4752997858
 21
9.9670246112
 31
0.0
  0
LINE
  5
2C5
330
1B
100
AcDbEntity
 67
     1
  8
0
  6
Continuous
 62
     8
370
    25
100
AcDbLine
 10
15.7761691798
 20
10.3706241192
 30
0.0
 11
15.776099903
 21
10.3683331012
 31
0.0
  0
ARC
  5
2C6
330
1B
100
AcDbEntity
 67
     1
  8
0
  6
Continuous
 62
     8
370
    25
100
AcDbCircle
 10
24.1073937948
 20
10.1331322518
 30
0.0
 40
0.0153631827211689
100
AcDbArc
 50
301.0563795987
 51
3.0140482268
  0
ARC
  5
2C7
330
1B
100
AcDbEntity
 67
     1
  8
0
  6
Continuous
 62
     8
370
    25
100
AcDbCircle
 10
24.0949062237
 20
10.1326447163
 30
0.0
 40
0.0146476941105667
100
AcDbArc
 50
174.92651734
 51
235.1070367212
  0
ELLIPSE
  5
2C8
330
1B
100
AcDbEntity
 67
     1
  8
0
  6
Continuous
 62
     8
370
    25
100
AcDbEllipse
 10
25.9842840937
 20
11.1429543716
 30
0.0
 11
0.03076863686485964
 21
0.05151533878064818
 31
0.0
210
0.0
220
0.0
230
1.0
 40
0.5672200025
 41
5.750727576221761
 42
7.076930881891947
  0
ELLIPSE
  5
2C9
330
1B
100
AcDbEntity
 67
     1
  8
0
  6
Continuous
 62
     8
370
    25
100
AcDbEllipse
 10
25.5704547413
 20
10.9040557716
 30
0.0
 11
0.03076863686485964
 21
0.0515153387806464
 31
0.0
210
0.0
220
0.0
230
1.0
 40
0.5672200025
 41
0.7937455747124107
 42
2.119948880382521
  0
LINE
  5
2CA
330
1B
100
AcDbEntity
 67
     1
  8
0
  6
Continuous
 62
     8
370
    25
100
AcDbLine
 10
24.1227357253
 20
10.1339400603
 30
0.0
 11
25.0296692211
 21
10.6035239142
 31
0.0
  0
ELLIPSE
  5
2CB
330
1B
100
AcDbEntity
 67
     1
  8
0
  6
Continuous
 62
     8
370
    25
100
AcDbEllipse
 10
23.2821367753
 20
10.6196350533
 30
0.0
 11
0.0157560245954329
 21
0.02553973119975339
 31
0.0
210
0.0
220
0.0
230
1.0
 40
0.5569002919
 41
2.389840965306342
 42
3.157867100246095
  0
ELLIPSE
  5
2CC
330
1B
100
AcDbEntity
 67
     1
  8
0
  6
Continuous
 62
     8
370
    25
100
AcDbEllipse
 10
15.6137512383
 20
10.469838937
 30
0.0
 11
0.2047452722778047
 21
0.3436566631298668
 31
0.0
210
0.0
220
0.0
230
1.0
 40
0.5679878202
 41
4.98876572987529
 42
5.073614619737328
  0
SPLINE
  5
2CD
330
1B
100
AcDbEntity
 67
     1
  8
0
  6
Continuous
 62
     8
370
    25
100
AcDbSpline
210
0.0
220
0.0
230
1.0
 70
     8
 71
     3
 72
    12
 73
     8
 74
     0
 42
0.000000001
 43
0.00000001
 40
0.0
 40
0.0
 40
0.0
 40
0.0
 40
0.0372974214623741
 40
0.3831302233528924
 40
0.6972098654676696
 40
0.9489298332038373
 40
0.9999999999999999
 40
0.9999999999999999
 40
0.9999999999999999
 40
0.9999999999999999
 10
15.87432736471835
 20
10.46230493819183
 30
0.0
 10
15.87448080829431
 20
10.46258785213863
 30
0.0
 10
15.87605702641406
 20
10.46549402847415
 30
0.0
 10
15.87644151632013
 20
10.47098516628172
 30
0.0
 10
15.87470295101708
 20
10.47750851466845
 30
0.0
 10
15.87125397557177
 20
10.48100988421102
 30
0.0
 10
15.869075761556
 20
10.48229061512124
 30
0.0
 10
15.86870837259441
 20
10.48250662989103
 30
0.0
  0
ELLIPSE
  5
2CE
330
1B
100
AcDbEntity
 67
     1
  8
0
  6
Continuous
 62
     8
370
    25
100
AcDbEllipse
 10
14.2320964697
 20
11.2674512573
 30
0.0
 11
0.1950527172652574
 21
0.3492501106923082
 31
0.0
210
0.0
220
0.0
230
1.0
 40
0.5866246588
 41
4.687196464323744
 42
5.057459050197483
  0
ARC
  5
2CF
330
1B
100
AcDbEntity
 67
     1
  8
0
  6
Continuous
 62
     8
370
    25
100
AcDbCircle
 10
15.7886228486
 20
10.3949874658
 30
0.0
 40
0.0148143186545628
100
AcDbArc
 50
53.7673334409
 51
114.9221673975
  0
ARC
  5
2D0
330
1B
100
AcDbEntity
 67
     1
  8
0
  6
Continuous
 62
     8
370
    25
100
AcDbCircle
 10
15.781994498
 20
10.3840309248
 30
0.0
 40
0.0146176867994104
100
AcDbArc
 50
182.6803879165
 51
246.5148337901
  0
ARC
  5
2D1
330
1B
100
AcDbEntity
 67
     1
  8
0
  6
Continuous
 62
     8
370
    25
100
AcDbCircle
 10
15.8741996185
 20
10.4443898835
 30
0.0
 40
0.0148143186545603
100
AcDbArc
 50
53.7673334409
 51
114.9221673975
  0
ARC
  5
2D2
330
1B
100
AcDbEntity
 67
     1
  8
0
  6
Continuous
 62
     8
370
    25
100
AcDbCircle
 10
23.2748777035
 20
10.5827545626
 30
0.0
 40
0.0169124272120791
100
AcDbArc
 50
132.4024763894
 51
180.7721143292
  0
ARC
  5
2D3
330
1B
100
AcDbEntity
 67
     1
  8
0
  6
Continuous
 62
     8
370
    25
100
AcDbCircle
 10
25.5564379903
 20
10.9514172367
 30
0.0
 40
0.0148064504843361
100
AcDbArc
 50
304.7048586176
 51
4.6621010914
  0
ARC
  5
2D4
330
1B
100
AcDbEntity
 67
     1
  8
0
  6
Continuous
 62
     8
370
    25
100
AcDbCircle
 10
25.9702163519
 20
11.1903258913
 30
0.0
 40
0.0148564792364439
100
AcDbArc
 50
305.3580090584
 51
4.6074999697
  0
ELLIPSE
  5
2D5
330
1B
100
AcDbEntity
 67
     1
  8
0
  6
Continuous
 62
     8
370
    25
100
AcDbEllipse
 10
14.2108864971
 20
11.2792679957
 30
0.0
 11
0.1800467512691259
 21
0.3232714001563757
 31
0.0
210
0.0
220
0.0
230
1.0
 40
0.5873670493
 41
4.686131027593664
 42
4.983840409716088
  0
LINE
  5
2D6
330
1B
100
AcDbEntity
 67
     1
  8
0
  6
Continuous
 62
     8
370
    25
100
AcDbLine
 10
14.3565118567
 20
11.2146632808
 30
0.0
 11
14.3565118567
 21
11.1878437642
 31
0.0
  0
ELLIPSE
  5
2D7
330
1B
100
AcDbEntity
 67
     1
  8
0
  6
Continuous
 62
     8
370
    25
100
AcDbEllipse
 10
12.8517743129
 20
11.1772418157
 30
0.0
 11
0.03002287833276718
 21
-0.0009054294013637333
 31
0.0
210
0.0
220
0.0
230
1.0
 40
0.5764107037
 41
2.37372841596209
 42
3.170360308372611
  0
LINE
  5
2D8
330
1B
100
AcDbEntity
 67
     1
  8
0
  6
Continuous
 62
     8
370
    25
100
AcDbLine
 10
12.8305384342
 20
11.189913518
 30
0.0
 11
12.8309928817
 21
11.1748869209
 31
0.0
  0
LINE
  5
2D9
330
1B
100
AcDbEntity
 67
     1
  8
0
  6
Continuous
 62
     8
370
    25
100
AcDbLine
 10
13.572541584
 20
11.6067037476
 30
0.0
 11
13.572541584
 21
11.6182628187
 31
0.0
  0
LINE
  5
2DA
330
1B
100
AcDbEntity
 67
     1
  8
0
  6
Continuous
 62
     8
370
    25
100
AcDbLine
 10
14.3140919974
 20
11.2123323001
 30
0.0
 11
14.3140919974
 21
11.2146633107
 31
0.0
  0
LINE
  5
2DB
330
1B
100
AcDbEntity
 67
     1
  8
0
  6
Continuous
 62
     8
370
    25
100
AcDbLine
 10
13.6149613914
 20
11.6182628187
 30
0.0
 11
13.6149612877
 21
11.6158533388
 31
0.0
  0
ARC
  5
2DC
330
1B
100
AcDbEntity
 67
     1
  8
0
  6
Continuous
 62
     8
370
    25
100
AcDbCircle
 10
26.0036500819
 20
11.2024332824
 30
0.0
 40
0.0392463055803823
100
AcDbArc
 50
240.4545840014
 51
263.9548179284
  0
ELLIPSE
  5
2DD
330
1B
100
AcDbEntity
 67
     1
  8
0
  6
Continuous
 62
     8
370
    25
100
AcDbEllipse
 10
25.9630741211
 20
11.1556261462
 30
0.0
 11
0.0157560245954329
 21
0.02553973119974984
 31
0.0
210
0.0
220
0.0
230
1.0
 40
0.5569002919
 41
5.531433618896188
 42
6.290913891321022
  0
LINE
  5
2DE
330
1B
100
AcDbEntity
 67
     1
  8
0
  6
Continuous
 62
     8
370
    25
100
AcDbLine
 10
25.9842972066
 20
11.1682903663
 30
0.0
 11
25.9729640186
 21
11.1748328765
 31
0.0
  0
LINE
  5
2DF
330
1B
100
AcDbEntity
 67
     1
  8
0
  6
Continuous
 62
     8
370
    25
100
AcDbLine
 10
25.9842972066
 20
11.1546187609
 30
0.0
 11
25.9842972066
 21
11.1682903663
 31
0.0
  0
ARC
  5
2E0
330
1B
100
AcDbEntity
 67
     1
  8
0
  6
Continuous
 62
     8
370
    25
100
AcDbCircle
 10
26.0627863688
 20
11.3469946168
 30
0.0
 40
0.0794439437253384
100
AcDbArc
 50
294.6315813041
 51
351.4083794658
  0
ARC
  5
2E1
330
1B
100
AcDbEntity
 67
     1
  8
0
  6
Continuous
 62
     8
370
    25
100
AcDbCircle
 10
26.0834718482
 20
11.4021485424
 30
0.0
 40
0.0150622253917963
100
AcDbArc
 50
65.6317366225
 51
125.6782853563
  0
LINE
  5
2E2
330
1B
100
AcDbEntity
 67
     1
  8
0
  6
Continuous
 62
     8
370
    25
100
AcDbLine
 10
25.8985793941
 20
11.1318913211
 30
0.0
 11
25.9217535235
 21
11.118513181
 31
0.0
  0
ARC
  5
2E3
330
1B
100
AcDbEntity
 67
     1
  8
0
  6
Continuous
 62
     8
370
    25
100
AcDbCircle
 10
24.9040374487
 20
12.0830217179
 30
0.0
 40
0.0150620077738707
100
AcDbArc
 50
65.6328411368
 51
125.6785961676
  0
ARC
  5
2E4
330
1B
100
AcDbEntity
 67
     1
  8
0
  6
Continuous
 62
     8
370
    25
100
AcDbCircle
 10
24.6920113588
 20
11.9707726657
 30
0.0
 40
0.0150510048318368
100
AcDbArc
 50
54.3100617082
 51
114.5017216764
  0
ARC
  5
2E5
330
1B
100
AcDbEntity
 67
     1
  8
0
  6
Continuous
 62
     8
370
    25
100
AcDbCircle
 10
24.6247329409
 20
11.970773216
 30
0.0
 40
0.0150504223525576
100
AcDbArc
 50
65.4969931183
 51
125.6912234971
  0
ARC
  5
2E6
330
1B
100
AcDbEntity
 67
     1
  8
0
  6
Continuous
 62
     8
370
    25
100
AcDbCircle
 10
17.0741976927
 20
16.3295959587
 30
0.0
 40
0.015061305669134
100
AcDbArc
 50
65.6314017577
 51
125.6792850352
  0
ARC
  5
2E7
330
1B
100
AcDbEntity
 67
     1
  8
0
  6
Continuous
 62
     8
370
    25
100
AcDbCircle
 10
24.8864684696
 20
12.0830226735
 30
0.0
 40
0.0150609483718486
100
AcDbArc
 50
54.3207840887
 51
114.3692796518
  0
ARC
  5
2E8
330
1B
100
AcDbEntity
 67
     1
  8
0
  6
Continuous
 62
     8
370
    25
100
AcDbCircle
 10
9.0966985049
 20
13.1803221407
 30
0.0
 40
0.0790341205679763
100
AcDbArc
 50
187.662984799
 51
245.4511159472
  0
ARC
  5
2E9
330
1B
100
AcDbEntity
 67
     1
  8
0
  6
Continuous
 62
     8
370
    25
100
AcDbCircle
 10
9.0762880453
 20
13.2358023244
 30
0.0
 40
0.0150611660785952
100
AcDbArc
 50
54.3210950769
 51
114.3703839905
  0
ARC
  5
2EA
330
1B
100
AcDbEntity
 67
     1
  8
0
  6
Continuous
 62
     8
370
    25
100
AcDbCircle
 10
11.0494495471
 20
14.3748844029
 30
0.0
 40
0.0150609483718296
100
AcDbArc
 50
54.3207840887
 51
114.3692796519
  0
ARC
  5
2EB
330
1B
100
AcDbEntity
 67
     1
  8
0
  6
Continuous
 62
     8
370
    25
100
AcDbCircle
 10
11.9536948188
 20
13.9018635728
 30
0.0
 40
0.0150510048318392
100
AcDbArc
 50
54.3100617082
 51
114.5017216764
  0
ARC
  5
2EC
330
1B
100
AcDbEntity
 67
     1
  8
0
  6
Continuous
 62
     8
370
    25
100
AcDbCircle
 10
11.8864164241
 20
13.9018638869
 30
0.0
 40
0.0150506277491405
100
AcDbArc
 50
65.4974463267
 51
125.6907702887
  0
ARC
  5
2ED
330
1B
100
AcDbEntity
 67
     1
  8
0
  6
Continuous
 62
     8
370
    25
100
AcDbCircle
 10
14.7404519236
 20
15.5106165132
 30
0.0
 40
0.0150609483718306
100
AcDbArc
 50
54.3207840887
 51
114.3692796519
  0
ARC
  5
2EE
330
1B
100
AcDbEntity
 67
     1
  8
0
  6
Continuous
 62
     8
370
    25
100
AcDbCircle
 10
11.0670182873
 20
14.374883886
 30
0.0
 40
0.0150615120846705
100
AcDbArc
 50
65.6318555465
 51
125.6788312463
  0
ELLIPSE
  5
2EF
330
1B
100
AcDbEntity
 67
     1
  8
0
  6
Continuous
 62
     8
370
    25
100
AcDbEllipse
 10
14.7067905205
 20
15.522842679
 30
0.0
 11
0.0300228783327654
 21
-0.000905429401367286
 31
0.0
210
0.0
220
0.0
230
1.0
 40
0.5764107037
 41
0.0287274896947765
 42
0.8026275026720892
  0
ARC
  5
2F0
330
1B
100
AcDbEntity
 67
     1
  8
0
  6
Continuous
 62
     8
370
    25
100
AcDbCircle
 10
14.7221489535
 20
15.5192902029
 30
0.0
 40
0.0148193148658177
100
AcDbArc
 50
7.035852948
 51
66.4061164381
  0
ELLIPSE
  5
2F1
330
1B
100
AcDbEntity
 67
     1
  8
0
  6
Continuous
 62
     8
370
    25
100
AcDbEllipse
 10
14.7492774673
 20
15.5455498808
 30
0.0
 11
0.0141820678089637
 21
0.02644688007171503
 31
0.0
210
0.0
220
0.0
230
1.0
 40
0.5971575212
 41
2.354854456999361
 42
2.854464879757103
  0
ARC
  5
2F2
330
1B
100
AcDbEntity
 67
     1
  8
0
  6
Continuous
 62
     8
370
    25
100
AcDbCircle
 10
13.9232687704
 20
16.0046060299
 30
0.0
 40
0.0146476941105643
100
AcDbArc
 50
174.9265173399
 51
235.1070367212
  0
ARC
  5
2F3
330
1B
100
AcDbEntity
 67
     1
  8
0
  6
Continuous
 62
     8
370
    25
100
AcDbCircle
 10
13.9210501933
 20
16.03262417
 30
0.0
 40
0.0150609483718282
100
AcDbArc
 50
54.3207840887
 51
114.3692796519
  0
ARC
  5
2F4
330
1B
100
AcDbEntity
 67
     1
  8
0
  6
Continuous
 62
     8
370
    25
100
AcDbCircle
 10
13.9145563737
 20
16.0212710932
 30
0.0
 40
0.0148199757986835
100
AcDbArc
 50
187.0377425702
 51
246.4051552607
  0
ARC
  5
2F5
330
1B
100
AcDbEntity
 67
     1
  8
0
  6
Continuous
 62
     8
370
    25
100
AcDbCircle
 10
15.8942116345
 20
17.171706024
 30
0.0
 40
0.0150609483718321
100
AcDbArc
 50
54.3207840887
 51
114.3692796519
  0
ARC
  5
2F6
330
1B
100
AcDbEntity
 67
     1
  8
0
  6
Continuous
 62
     8
370
    25
100
AcDbCircle
 10
13.9146101549
 20
16.0194821943
 30
0.0
 40
0.0148197041875952
100
AcDbArc
 50
187.0371439978
 51
246.4057538331
  0
ELLIPSE
  5
2F7
330
1B
100
AcDbEntity
 67
     1
  8
0
  6
Continuous
 62
     8
370
    25
100
AcDbEllipse
 10
17.1078590451
 20
16.3418224763
 30
0.0
 11
0.03002287833276895
 21
0.0009054294013672859
 31
0.0
210
0.0
220
0.0
230
1.0
 40
0.5764107037
 41
2.338965150917358
 42
3.094771941700393
  0
LINE
  5
2F8
330
1B
100
AcDbEntity
 67
     1
  8
0
  6
Continuous
 62
     8
370
    25
100
AcDbLine
 10
17.0866233339
 20
16.3536392011
 30
0.0
 11
17.0862101621
 21
16.3399683593
 31
0.0
  0
LINE
  5
2F9
330
1B
100
AcDbEntity
 67
     1
  8
0
  6
Continuous
 62
     8
370
    25
100
AcDbLine
 10
17.2803177633
 20
16.4405528972
 30
0.0
 11
17.2810839565
 21
16.4658989289
 31
0.0
  0
ARC
  5
2FA
330
1B
100
AcDbEntity
 67
     1
  8
0
  6
Continuous
 62
     8
370
    25
100
AcDbCircle
 10
17.2686587851
 20
16.4908319975
 30
0.0
 40
0.0150620077738559
100
AcDbArc
 50
65.6328411368
 51
125.6785961676
  0
ARC
  5
2FB
330
1B
100
AcDbEntity
 67
     1
  8
0
  6
Continuous
 62
     8
370
    25
100
AcDbCircle
 10
17.2751530516
 20
16.4794788855
 30
0.0
 40
0.0148185982388702
100
AcDbArc
 50
293.592799475
 51
352.9661595854
  0
ARC
  5
2FC
330
1B
100
AcDbEntity
 67
     1
  8
0
  6
Continuous
 62
     8
370
    25
100
AcDbCircle
 10
16.0892244461
 20
17.1717049486
 30
0.0
 40
0.0150620077738678
100
AcDbArc
 50
65.6328411368
 51
125.6785961676
  0
ARC
  5
2FD
330
1B
100
AcDbEntity
 67
     1
  8
0
  6
Continuous
 62
     8
370
    25
100
AcDbCircle
 10
19.0497971758
 20
7.7095116086
 30
0.0
 40
1.158463281865018
100
AcDbArc
 50
240.6092930152
 51
255.7873402794
  0
ARC
  5
2FE
330
1B
100
AcDbEntity
 67
     1
  8
0
  6
Continuous
 62
     8
370
    25
100
AcDbCircle
 10
19.2514654036
 20
7.7798792872
 30
0.0
 40
1.234806107371878
100
AcDbArc
 50
279.6076141057
 51
299.0245533816
  0
ARC
  5
2FF
330
1B
100
AcDbEntity
 67
     1
  8
0
  6
Continuous
 62
     8
370
    25
100
AcDbCircle
 10
18.4733840765
 20
6.5569092506
 30
0.0
 40
0.0150229147003857
100
AcDbArc
 50
172.6939180036
 51
234.6463651377
  0
ARC
  5
300
330
1B
100
AcDbEntity
 67
     1
  8
0
  6
Continuous
 62
     8
370
    25
100
AcDbCircle
 10
19.8589271568
 20
6.5567033698
 30
0.0
 40
0.0145846453514271
100
AcDbArc
 50
304.3026842223
 51
8.3444628631
  0
ARC
  5
301
330
1B
100
AcDbEntity
 67
     1
  8
0
  6
Continuous
 62
     8
370
    25
100
AcDbCircle
 10
27.2538541705
 20
10.8256995054
 30
0.0
 40
0.0145805376212902
100
AcDbArc
 50
304.2907099469
 51
8.354023341
  0
ARC
  5
302
330
1B
100
AcDbEntity
 67
     1
  8
0
  6
Continuous
 62
     8
370
    25
100
AcDbCircle
 10
7.9063750841
 20
12.6571089625
 30
0.0
 40
0.0150181244846394
100
AcDbArc
 50
172.6846098071
 51
234.6706569051
  0
ARC
  5
303
330
1B
100
AcDbEntity
 67
     1
  8
0
  6
Continuous
 62
     8
370
    25
100
AcDbCircle
 10
18.9831193792
 20
7.279598665
 30
0.0
 40
0.0385530093272546
100
AcDbArc
 50
64.4237659947
 51
127.0869114811
  0
ARC
  5
304
330
1B
100
AcDbEntity
 67
     1
  8
0
  6
Continuous
 62
     8
370
    25
100
AcDbCircle
 10
19.3487465098
 20
7.2796838751
 30
0.0
 40
0.0384700092126559
100
AcDbArc
 50
52.8661894734
 51
116.0171290195
  0
ARC
  5
305
330
1B
100
AcDbEntity
 67
     1
  8
0
  6
Continuous
 62
     8
370
    25
100
AcDbCircle
 10
8.9945160202
 20
13.045931188
 30
0.0
 40
0.0385119969707406
100
AcDbArc
 50
64.2010627149
 51
127.1094364466
  0
ARC
  5
306
330
1B
100
AcDbEntity
 67
     1
  8
0
  6
Continuous
 62
     8
370
    25
100
AcDbCircle
 10
26.1652446098
 20
11.2147378577
 30
0.0
 40
0.0385032144333327
100
AcDbArc
 50
52.882568825
 51
115.8069320135
  0
ARC
  5
307
330
1B
100
AcDbEntity
 67
     1
  8
0
  6
Continuous
 62
     8
370
    25
100
AcDbCircle
 10
18.1458231149
 20
6.7701539791
 30
0.0
 40
0.0392283685601025
100
AcDbArc
 50
240.4506263369
 51
263.8817518478
  0
LINE
  5
308
330
1B
100
AcDbEntity
 67
     1
  8
0
  6
Continuous
 62
     8
370
    25
100
AcDbLine
 10
18.1264767273
 20
6.7360280038
 30
0.0
 11
18.1264767273
 21
6.7399041004
 31
0.0
  0
LINE
  5
309
330
1B
100
AcDbEntity
 67
     1
  8
0
  6
Continuous
 62
     8
370
    25
100
AcDbLine
 10
9.1722377185
 20
11.9090762512
 30
0.0
 11
9.1723571899
 21
11.9051311853
 31
0.0
  0
LINE
  5
30A
330
1B
100
AcDbEntity
 67
     1
  8
0
  6
Continuous
 62
     8
370
    25
100
AcDbLine
 10
19.5835658758
 20
7.4660203086
 30
0.0
 11
19.5891652671
 21
7.4627878488
 31
0.0
  0
ARC
  5
30B
330
1B
100
AcDbEntity
 67
     1
  8
0
  6
Continuous
 62
     8
370
    25
100
AcDbCircle
 10
19.6061740155
 20
7.4296532426
 30
0.0
 40
0.0428216238904906
100
AcDbArc
 50
121.8677790085
 51
149.6875757467
  0
LINE
  5
30C
330
1B
100
AcDbEntity
 67
     1
  8
0
  6
Continuous
 62
     8
370
    25
100
AcDbLine
 10
19.6452813484
 20
7.4951829729
 30
0.0
 11
19.6396819571
 21
7.4984154328
 31
0.0
  0
LWPOLYLINE
  5
30D
330
1B
100
AcDbEntity
 67
     1
  8
0
  6
Continuous
 62
     8
370
    25
100
AcDbPolyline
 90
        3
 70
   128
 43
0.0
 10
19.5536134048
 20
7.4422640029
 10
19.5536024118
 20
7.4427322553
 10
19.5536204569
 20
7.4433353629
  0
ARC
  5
30E
330
1B
100
AcDbEntity
 67
     1
  8
0
  6
Continuous
 62
     8
370
    25
100
AcDbCircle
 10
19.5748058929
 20
7.4540353717
 30
0.0
 40
0.0148450668911723
100
AcDbArc
 50
53.8363306926
 51
114.8521966103
  0
ARC
  5
30F
330
1B
100
AcDbEntity
 67
     1
  8
0
  6
Continuous
 62
     8
370
    25
100
AcDbCircle
 10
19.6485805721
 20
7.4857961727
 30
0.0
 40
0.0154412135281962
100
AcDbArc
 50
69.2909911859
 51
125.190013283
  0
ARC
  5
310
330
1B
100
AcDbEntity
 67
     1
  8
0
  6
Continuous
 62
     8
370
    25
100
AcDbCircle
 10
19.6309679603
 20
7.4868948467
 30
0.0
 40
0.0144449867593324
100
AcDbArc
 50
52.8966908963
 51
115.7918364066
  0
ARC
  5
311
330
1B
100
AcDbEntity
 67
     1
  8
0
  6
Continuous
 62
     8
370
    25
100
AcDbCircle
 10
18.1412832843
 20
6.7348332171
 30
0.0
 40
0.0148546842587825
100
AcDbArc
 50
175.3866229266
 51
234.6441574518
  0
ARC
  5
312
330
1B
100
AcDbEntity
 67
     1
  8
0
  6
Continuous
 62
     8
370
    25
100
AcDbCircle
 10
9.1871637469
 20
11.9039363986
 30
0.0
 40
0.0148546842587842
100
AcDbArc
 50
175.3866229266
 51
234.6441574518
  0
ARC
  5
313
330
1B
100
AcDbEntity
 67
     1
  8
0
  6
Continuous
 62
     8
370
    25
100
AcDbCircle
 10
27.2542065614
 20
11.748147325
 30
0.0
 40
0.014414140995729
100
AcDbArc
 50
64.1199036315
 51
127.1757777586
  0
ARC
  5
314
330
1B
100
AcDbEntity
 67
     1
  8
0
  6
Continuous
 62
     8
370
    25
100
AcDbCircle
 10
26.9571254443
 20
11.5082121952
 30
0.0
 40
0.653375197078784
100
AcDbArc
 50
298.2824348644
 51
325.6079452104
  0
ARC
  5
315
330
1B
100
AcDbEntity
 67
     1
  8
0
  6
Continuous
 62
     8
370
    25
100
AcDbCircle
 10
26.957665763
 20
11.4049492617
 30
0.0
 40
0.6554096522286963
100
AcDbArc
 50
298.2893020176
 51
325.5000750069
  0
LINE
  5
316
330
1B
100
AcDbEntity
 67
     1
  8
0
  6
Continuous
 62
     8
370
    25
100
AcDbLine
 10
25.636399862
 20
10.9602469921
 30
0.0
 11
25.6419992534
 21
10.9570145323
 31
0.0
  0
ARC
  5
317
330
1B
100
AcDbEntity
 67
     1
  8
0
  6
Continuous
 62
     8
370
    25
100
AcDbCircle
 10
25.6590079818
 20
10.9238802899
 30
0.0
 40
0.0428213044115787
100
AcDbArc
 50
121.8680132448
 51
149.6877040258
  0
LINE
  5
318
330
1B
100
AcDbEntity
 67
     1
  8
0
  6
Continuous
 62
     8
370
    25
100
AcDbLine
 10
25.6981153347
 20
10.9894096565
 30
0.0
 11
25.6925159433
 21
10.9926421163
 31
0.0
  0
LWPOLYLINE
  5
319
330
1B
100
AcDbEntity
 67
     1
  8
0
  6
Continuous
 62
     8
370
    25
100
AcDbPolyline
 90
        3
 70
   128
 43
0.0
 10
25.6064473911
 20
10.9364906865
 10
25.6064366054
 20
10.9369590586
 10
25.6064544432
 20
10.9375620464
  0
ARC
  5
31A
330
1B
100
AcDbEntity
 67
     1
  8
0
  6
Continuous
 62
     8
370
    25
100
AcDbCircle
 10
25.6276398792
 20
10.9482620553
 30
0.0
 40
0.0148450668911509
100
AcDbArc
 50
53.8363306925
 51
114.8521966103
  0
ARC
  5
31B
330
1B
100
AcDbEntity
 67
     1
  8
0
  6
Continuous
 62
     8
370
    25
100
AcDbCircle
 10
25.7014147806
 20
10.9800226762
 30
0.0
 40
0.0154414886755724
100
AcDbArc
 50
69.2914357448
 51
125.1903021467
  0
ARC
  5
31C
330
1B
100
AcDbEntity
 67
     1
  8
0
  6
Continuous
 62
     8
370
    25
100
AcDbCircle
 10
25.6838019465
 20
10.9811215303
 30
0.0
 40
0.0144449867593519
100
AcDbArc
 50
52.8966908963
 51
115.7918364065
  0
ARC
  5
31D
330
1B
100
AcDbEntity
 67
     1
  8
0
  6
Continuous
 62
     8
370
    25
100
AcDbCircle
 10
26.0908210673
 20
11.2930986629
 30
0.0
 40
0.1031168625384849
100
AcDbArc
 50
2.8684153515
 51
66.496028905
  0
LINE
  5
31E
330
1B
100
AcDbEntity
 67
     1
  8
0
  6
Continuous
 62
     8
370
    25
100
AcDbLine
 10
26.1315118757
 20
11.3730767409
 30
0.0
 11
26.1319453743
 21
11.3876601705
 31
0.0
  0
LINE
  5
31F
330
1B
100
AcDbEntity
 67
     1
  8
0
  6
Continuous
 62
     8
370
    25
100
AcDbLine
 10
25.651637856
 20
10.9893353862
 30
0.0
 11
25.6604268843
 21
10.9842615881
 31
0.0
  0
LWPOLYLINE
  5
320
330
1B
100
AcDbEntity
 67
     1
  8
0
  6
Continuous
 62
     8
370
    25
100
AcDbPolyline
 90
        3
 70
   128
 43
0.0
 10
25.8372308397
 20
11.0937118922
 10
25.8375369851
 20
11.0940054909
 10
25.846397157
 20
11.1017675375
  0
LINE
  5
321
330
1B
100
AcDbEntity
 67
     1
  8
0
  6
Continuous
 62
     8
370
    25
100
AcDbLine
 10
25.6188981343
 20
10.9601168833
 30
0.0
 11
25.609961426
 21
10.9652759352
 31
0.0
  0
LINE
  5
322
330
1B
100
AcDbEntity
 67
     1
  8
0
  6
Continuous
 62
     8
370
    25
100
AcDbLine
 10
25.5937904767
 20
10.9559407663
 30
0.0
 11
25.6087210808
 21
10.9473215121
 31
0.0
  0
LINE
  5
323
330
1B
100
AcDbEntity
 67
     1
  8
0
  6
Continuous
 62
     8
370
    25
100
AcDbLine
 10
26.1319453743
 20
11.3876601705
 30
0.0
 11
26.1105882055
 21
11.3999894016
 31
0.0
  0
ARC
  5
324
330
1B
100
AcDbEntity
 67
     1
  8
0
  6
Continuous
 62
     8
370
    25
100
AcDbCircle
 10
16.6872025518
 20
17.8483512922
 30
0.0
 40
0.0144121456214091
100
AcDbArc
 50
64.1285366615
 51
127.181399598
  0
ARC
  5
325
330
1B
100
AcDbEntity
 67
     1
  8
0
  6
Continuous
 62
     8
370
    25
100
AcDbCircle
 10
24.9809191799
 20
12.0756016477
 30
0.0
 40
0.018688383366604
100
AcDbArc
 50
177.2906830243
 51
215.6249847765
  0
ELLIPSE
  5
326
330
1B
100
AcDbEntity
 67
     1
  8
0
  6
Continuous
 62
     8
370
    25
100
AcDbEllipse
 10
25.0545613611
 20
12.0726137226
 30
0.0
 11
0.07035504793524794
 21
-0.04631746217048693
 31
0.0
210
0.0
220
0.0
230
1.0
 40
0.7161180112
 41
2.011342821918511
 42
2.797283088245845
  0
ARC
  5
327
330
1B
100
AcDbEntity
 67
     1
  8
0
  6
Continuous
 62
     8
370
    25
100
AcDbCircle
 10
25.1982598403
 20
12.2036028279
 30
0.0
 40
0.0385032144333185
100
AcDbArc
 50
52.882568825
 51
115.8069320135
  0
ELLIPSE
  5
328
330
1B
100
AcDbEntity
 67
     1
  8
0
  6
Continuous
 62
     8
370
    25
100
AcDbEllipse
 10
25.1294026166
 20
12.222016407
 30
0.0
 11
0.05018146788772881
 21
0.004786771415815848
 31
0.0
210
0.0
220
0.0
230
1.0
 40
0.5708579708
 41
0.2019080320691352
 42
0.730389202015588
  0
LINE
  5
329
330
1B
100
AcDbEntity
 67
     1
  8
0
  6
Continuous
 62
     8
370
    25
100
AcDbLine
 10
25.1639592023
 20
12.228141502
 30
0.0
 11
25.1649606048
 21
12.2446940397
 31
0.0
  0
LINE
  5
32A
330
1B
100
AcDbEntity
 67
     1
  8
0
  6
Continuous
 62
     8
370
    25
100
AcDbLine
 10
17.6279417341
 20
16.5957224195
 30
0.0
 11
17.6279413193
 21
16.585910758
 31
0.0
  0
ARC
  5
32B
330
1B
100
AcDbEntity
 67
     1
  8
0
  6
Continuous
 62
     8
370
    25
100
AcDbCircle
 10
9.1798220772
 20
11.9204045909
 30
0.0
 40
0.017000042962985
100
AcDbArc
 50
203.1493530934
 51
243.9528964723
  0
ARC
  5
32C
330
1B
100
AcDbEntity
 67
     1
  8
0
  6
Continuous
 62
     8
370
    25
100
AcDbCircle
 10
8.2028938115
 20
13.3397727365
 30
0.0
 40
0.6538125738353538
100
AcDbArc
 50
214.4740355708
 51
241.7123502075
  0
ARC
  5
32D
330
1B
100
AcDbEntity
 67
     1
  8
0
  6
Continuous
 62
     8
370
    25
100
AcDbCircle
 10
7.9055051975
 20
13.5788759328
 30
0.0
 40
0.0148235960089585
100
AcDbArc
 50
53.7862091581
 51
114.8770543025
  0
ARC
  5
32E
330
1B
100
AcDbEntity
 67
     1
  8
0
  6
Continuous
 62
     8
370
    25
100
AcDbCircle
 10
8.2017174596
 20
13.2356377437
 30
0.0
 40
0.6547781097075785
100
AcDbArc
 50
214.3847633235
 51
241.7183170941
  0
ARC
  5
32F
330
1B
100
AcDbEntity
 67
     1
  8
0
  6
Continuous
 62
     8
370
    25
100
AcDbCircle
 10
9.0663265396
 20
13.1260872185
 30
0.0
 40
0.1004520029829791
100
AcDbArc
 50
112.5435727784
 51
177.9298697053
  0
LINE
  5
330
330
1B
100
AcDbEntity
 67
     1
  8
0
  6
Continuous
 62
     8
370
    25
100
AcDbLine
 10
9.0278146559
 20
13.2188635071
 30
0.0
 11
9.0281672624
 21
13.2070009029
 31
0.0
  0
LINE
  5
331
330
1B
100
AcDbEntity
 67
     1
  8
0
  6
Continuous
 62
     8
370
    25
100
AcDbLine
 10
13.9026474412
 20
16.0330445725
 30
0.0
 11
12.9036958843
 21
15.4563621137
 31
0.0
  0
LINE
  5
332
330
1B
100
AcDbEntity
 67
     1
  8
0
  6
Continuous
 62
     8
370
    25
100
AcDbLine
 10
12.0592745962
 20
14.9688880803
 30
0.0
 11
11.0608468155
 21
14.3925079911
 31
0.0
  0
LINE
  5
333
330
1B
100
AcDbEntity
 67
     1
  8
0
  6
Continuous
 62
     8
370
    25
100
AcDbLine
 10
9.0442562826
 20
13.2283550561
 30
0.0
 11
9.0278146559
 21
13.2188635071
 31
0.0
  0
ARC
  5
334
330
1B
100
AcDbEntity
 67
     1
  8
0
  6
Continuous
 62
     8
370
    25
100
AcDbCircle
 10
15.7201712259
 20
17.1448923208
 30
0.0
 40
0.1246690959763493
100
AcDbArc
 50
6.9521110439
 51
57.1540127843
  0
ARC
  5
335
330
1B
100
AcDbEntity
 67
     1
  8
0
  6
Continuous
 62
     8
370
    25
100
AcDbCircle
 10
15.3004294804
 20
17.8478842245
 30
0.0
 40
0.014814253738574
100
AcDbArc
 50
53.767834134
 51
114.9222296065
  0
ARC
  5
336
330
1B
100
AcDbEntity
 67
     1
  8
0
  6
Continuous
 62
     8
370
    25
100
AcDbCircle
 10
17.3338680875
 20
16.5615259001
 30
0.0
 40
0.082399989026363
100
AcDbArc
 50
244.5607466088
 51
281.1793657892
  0
ARC
  5
337
330
1B
100
AcDbEntity
 67
     1
  8
0
  6
Continuous
 62
     8
370
    25
100
AcDbCircle
 10
17.4333101423
 20
16.5868255191
 30
0.0
 40
0.1244308510977293
100
AcDbArc
 50
6.2093675158
 51
57.1867408214
  0
LINE
  5
338
330
1B
100
AcDbEntity
 67
     1
  8
0
  6
Continuous
 62
     8
370
    25
100
AcDbLine
 10
17.2984728501
 20
16.4871153137
 30
0.0
 11
17.2850725583
 21
16.4948511375
 31
0.0
  0
ARC
  5
339
330
1B
100
AcDbEntity
 67
     1
  8
0
  6
Continuous
 62
     8
370
    25
100
AcDbCircle
 10
16.2671993557
 20
17.1451565473
 30
0.0
 40
0.1242802734914403
100
AcDbArc
 50
122.7928794099
 51
174.2297169273
  0
LINE
  5
33A
330
1B
100
AcDbEntity
 67
     1
  8
0
  6
Continuous
 62
     8
370
    25
100
AcDbLine
 10
17.2984728501
 20
16.4510333812
 30
0.0
 11
17.2984728501
 21
16.4871153137
 31
0.0
  0
ELLIPSE
  5
33B
330
1B
100
AcDbEntity
 67
     1
  8
0
  6
Continuous
 62
     8
370
    25
100
AcDbEllipse
 10
17.5926077298
 20
16.5729154837
 30
0.0
 11
0.05000000000000426
 21
0.0
 31
0.0
210
0.0
220
0.0
230
1.0
 40
0.6446830633
 41
0.7860071509830341
 42
1.529687900752322
  0
ARC
  5
33C
330
1B
100
AcDbEntity
 67
     1
  8
0
  6
Continuous
 62
     8
370
    25
100
AcDbCircle
 10
13.3202118231
 20
14.7869205802
 30
0.0
 40
0.0514566223993736
100
AcDbArc
 50
258.6405930902
 51
292.4184972589
  0
ARC
  5
33D
330
1B
100
AcDbEntity
 67
     1
  8
0
  6
Continuous
 62
     8
370
    25
100
AcDbCircle
 10
13.3433891035
 20
14.7364628871
 30
0.0
 40
0.0460014957921594
100
AcDbArc
 50
122.6120871716
 51
160.0796446234
  0
LINE
  5
33E
330
1B
100
AcDbEntity
 67
     1
  8
0
  6
Continuous
 62
     8
370
    25
100
AcDbLine
 10
13.3389583781
 20
14.7188581297
 30
0.0
 11
13.3398357752
 21
14.739352897
 31
0.0
  0
ARC
  5
33F
330
1B
100
AcDbEntity
 67
     1
  8
0
  6
Continuous
 62
     8
370
    25
100
AcDbCircle
 10
12.5397945076
 20
15.2003906709
 30
0.0
 40
0.0459487260893642
100
AcDbArc
 50
122.6053565652
 51
159.5839069338
  0
LINE
  5
340
330
1B
100
AcDbEntity
 67
     1
  8
0
  6
Continuous
 62
     8
370
    25
100
AcDbLine
 10
13.4616885795
 20
14.8099547008
 30
0.0
 11
13.7962306934
 21
14.9828357414
 31
0.0
  0
LINE
  5
341
330
1B
100
AcDbEntity
 67
     1
  8
0
  6
Continuous
 62
     8
370
    25
100
AcDbLine
 10
14.5706718789
 20
15.4299112147
 30
0.0
 11
13.441004954
 21
14.8461342056
 31
0.0
  0
LINE
  5
342
330
1B
100
AcDbEntity
 67
     1
  8
0
  6
Continuous
 62
     8
370
    25
100
AcDbLine
 10
12.6378897035
 20
15.3097627711
 30
0.0
 11
13.935834351
 21
15.9805005112
 31
0.0
  0
ARC
  5
343
330
1B
100
AcDbEntity
 67
     1
  8
0
  6
Continuous
 62
     8
370
    25
100
AcDbCircle
 10
12.5063232556
 20
15.2276292337
 30
0.0
 40
0.0144023409015193
100
AcDbArc
 50
52.7792231828
 51
115.700229726
  0
LINE
  5
344
330
1B
100
AcDbEntity
 67
     1
  8
0
  6
Continuous
 62
     8
370
    25
100
AcDbLine
 10
21.0269096966
 20
8.3240518013
 30
0.0
 11
21.0962388771
 21
8.3640746853
 31
0.0
  0
LINE
  5
345
330
1B
100
AcDbEntity
 67
     1
  8
0
  6
Continuous
 62
     8
370
    25
100
AcDbLine
 10
20.8840387249
 20
8.2103022246
 30
0.0
 11
20.8829677345
 21
8.2324046392
 31
0.0
  0
ELLIPSE
  5
346
330
1B
100
AcDbEntity
 67
     1
  8
0
  6
Continuous
 62
     8
370
    25
100
AcDbEllipse
 10
21.1391988191
 20
8.403051671
 30
0.0
 11
0.03151450152101632
 21
0.05107801804340008
 31
0.0
210
0.0
220
0.0
230
1.0
 40
0.5568653866
 41
2.785802424562985
 42
3.663992736735189
  0
LINE
  5
347
330
1B
100
AcDbEntity
 67
     1
  8
0
  6
Continuous
 62
     8
370
    25
100
AcDbLine
 10
20.8418435485
 20
8.2062208677
 30
0.0
 11
20.8427991122
 21
8.186495344
 31
0.0
  0
LINE
  5
348
330
1B
100
AcDbEntity
 67
     1
  8
0
  6
Continuous
 62
     8
370
    25
100
AcDbLine
 10
20.4860490626
 20
8.9547003906
 30
0.0
 11
21.7187546614
 21
9.740927769
 31
0.0
  0
ARC
  5
349
330
1B
100
AcDbEntity
 67
     1
  8
0
  6
Continuous
 62
     8
370
    25
100
AcDbCircle
 10
21.1866361355
 20
8.4009961778
 30
0.0
 40
0.0491195279813303
100
AcDbArc
 50
13.6031508232
 51
57.5960141842
  0
LINE
  5
34A
330
1B
100
AcDbEntity
 67
     1
  8
0
  6
Continuous
 62
     8
370
    25
100
AcDbLine
 10
21.3311124575
 20
8.4683924241
 30
0.0
 11
22.5435870115
 21
9.2417163106
 31
0.0
  0
LINE
  5
34B
330
1B
100
AcDbEntity
 67
     1
  8
0
  6
Continuous
 62
     8
370
    25
100
AcDbLine
 10
20.8159789278
 20
8.1710123143
 30
0.0
 11
20.8005414
 21
8.1799242094
 31
0.0
  0
LINE
  5
34C
330
1B
100
AcDbEntity
 67
     1
  8
0
  6
Continuous
 62
     8
370
    25
100
AcDbLine
 10
22.671466203
 20
9.2608470857
 30
0.0
 11
22.3627198107
 21
9.0639266996
 31
0.0
  0
ELLIPSE
  5
34D
330
1B
100
AcDbEntity
 67
     1
  8
0
  6
Continuous
 62
     8
370
    25
100
AcDbEllipse
 10
21.0821227051
 20
8.3716730059
 30
0.0
 11
-0.01050401639695053
 21
0.01702648746650048
 31
0.0
210
0.0
220
0.0
230
1.0
 40
0.5569002919
 41
3.945752142851386
 42
4.166740046061683
  0
ELLIPSE
  5
34E
330
1B
100
AcDbEntity
 67
     1
  8
0
  6
Continuous
 62
     8
370
    25
100
AcDbEllipse
 10
21.2070019637
 20
8.4227356562
 30
0.0
 11
0.03995892049457339
 21
0.001812415134340384
 31
0.0
210
0.0
220
0.0
230
1.0
 40
0.5769492108
 41
3.900752419955152
 42
4.830105368965588
  0
ARC
  5
34F
330
1B
100
AcDbEntity
 67
     1
  8
0
  6
Continuous
 62
     8
370
    25
100
AcDbCircle
 10
21.2202908014
 20
8.4048414701
 30
0.0
 40
0.0415617693690872
100
AcDbArc
 50
153.2547563917
 51
179.0200611011
  0
LINE
  5
350
330
1B
100
AcDbEntity
 67
     1
  8
0
  6
Continuous
 62
     8
370
    25
100
AcDbLine
 10
21.1787351106
 20
8.4055522731
 30
0.0
 11
21.1798359689
 21
8.3810623486
 31
0.0
  0
ELLIPSE
  5
351
330
1B
100
AcDbEntity
 67
     1
  8
0
  6
Continuous
 62
     8
370
    25
100
AcDbEllipse
 10
22.6361936213
 20
9.2715558361
 30
0.0
 11
0.03042383175117892
 21
-0.02724456265167775
 31
0.0
210
0.0
220
0.0
230
1.0
 40
0.6626131501
 41
6.099940842646943
 42
6.895478314272997
  0
LINE
  5
352
330
1B
100
AcDbEntity
 67
     1
  8
0
  6
Continuous
 62
     8
370
    25
100
AcDbLine
 10
21.1662424694
 20
8.4127641213
 30
0.0
 11
21.1787351106
 21
8.4055522731
 31
0.0
  0
LINE
  5
353
330
1B
100
AcDbEntity
 67
     1
  8
0
  6
Continuous
 62
     8
370
    25
100
AcDbLine
 10
21.149294645
 20
8.3634313272
 30
0.0
 11
21.1250266058
 21
8.3774409681
 31
0.0
  0
ELLIPSE
  5
354
330
1B
100
AcDbEntity
 67
     1
  8
0
  6
Continuous
 62
     8
370
    25
100
AcDbEllipse
 10
21.0962626868
 20
8.3801208556
 30
0.0
 11
-0.0205124245765731
 21
0.03434355918709819
 31
0.0
210
0.0
220
0.0
230
1.0
 40
0.5672200025
 41
4.253149332940992
 42
4.474604155679118
  0
ELLIPSE
  5
355
330
1B
100
AcDbEntity
 67
     1
  8
0
  6
Continuous
 62
     8
370
    25
100
AcDbEllipse
 10
21.153332316
 20
8.3943218574
 30
0.0
 11
0.02148888129791971
 21
0.03376864307424654
 31
0.0
210
0.0
220
0.0
230
1.0
 40
0.5463861643
 41
2.397165376372445
 42
3.165191511312199
  0
ARC
  5
356
330
1B
100
AcDbEntity
 67
     1
  8
0
  6
Continuous
 62
     8
370
    25
100
AcDbCircle
 10
22.6534934385
 20
9.3358866156
 30
0.0
 40
0.0149250317602757
100
AcDbArc
 50
65.3286415441
 51
125.9818144994
  0
ARC
  5
357
330
1B
100
AcDbEntity
 67
     1
  8
0
  6
Continuous
 62
     8
370
    25
100
AcDbCircle
 10
22.6581144571
 20
9.3265414929
 30
0.0
 40
0.0164343292302966
100
AcDbArc
 50
298.2207604375
 51
0.6133285535
  0
ARC
  5
358
330
1B
100
AcDbEntity
 67
     1
  8
0
  6
Continuous
 62
     8
370
    25
100
AcDbCircle
 10
22.6629681976
 20
9.275928192
 30
0.0
 40
0.0173105708319456
100
AcDbArc
 50
299.4006882879
 51
354.2715329765
  0
ARC
  5
359
330
1B
100
AcDbEntity
 67
     1
  8
0
  6
Continuous
 62
     8
370
    25
100
AcDbCircle
 10
21.8498865231
 20
9.800230388
 30
0.0
 40
0.0145300329251946
100
AcDbArc
 50
64.4131752047
 51
126.8972808388
  0
ARC
  5
35A
330
1B
100
AcDbEntity
 67
     1
  8
0
  6
Continuous
 62
     8
370
    25
100
AcDbCircle
 10
21.8324030345
 20
9.7998189596
 30
0.0
 40
0.0148824716949497
100
AcDbArc
 50
53.9418410427
 51
114.9585657138
  0
ARC
  5
35B
330
1B
100
AcDbEntity
 67
     1
  8
0
  6
Continuous
 62
     8
370
    25
100
AcDbCircle
 10
22.6839194533
 20
9.3813608557
 30
0.0
 40
0.0514503926308794
100
AcDbArc
 50
258.639246994
 51
292.4209101544
  0
ARC
  5
35C
330
1B
100
AcDbEntity
 67
     1
  8
0
  6
Continuous
 62
     8
370
    25
100
AcDbCircle
 10
22.7070967756
 20
9.3309095084
 30
0.0
 40
0.0460014957921424
100
AcDbArc
 50
122.6120871716
 51
160.0796446234
  0
ARC
  5
35D
330
1B
100
AcDbEntity
 67
     1
  8
0
  6
Continuous
 62
     8
370
    25
100
AcDbCircle
 10
22.6824695258
 20
9.3214752116
 30
0.0
 40
0.0473335182194592
100
AcDbArc
 50
267.0158457453
 51
293.2502091588
  0
ARC
  5
35E
330
1B
100
AcDbEntity
 67
     1
  8
0
  6
Continuous
 62
     8
370
    25
100
AcDbCircle
 10
21.9035021798
 20
9.7948372923
 30
0.0
 40
0.045948726089342
100
AcDbArc
 50
122.6053565652
 51
159.5839069338
  0
LINE
  5
35F
330
1B
100
AcDbEntity
 67
     1
  8
0
  6
Continuous
 62
     8
370
    25
100
AcDbLine
 10
24.0378708057
 20
10.030970758
 30
0.0
 11
22.8253962517
 21
9.4044013221
 31
0.0
  0
LINE
  5
360
330
1B
100
AcDbEntity
 67
     1
  8
0
  6
Continuous
 62
     8
370
    25
100
AcDbLine
 10
22.7011543001
 20
9.2779856593
 30
0.0
 11
23.0099006924
 21
9.4375362702
 31
0.0
  0
ELLIPSE
  5
361
330
1B
100
AcDbEntity
 67
     1
  8
0
  6
Continuous
 62
     8
370
    25
100
AcDbEllipse
 10
22.6798925481
 20
9.2967826896
 30
0.0
 11
-0.01219173174302313
 21
0.03858867507704922
 31
0.0
210
0.0
220
0.0
230
1.0
 40
0.4518052955
 41
3.223619220058615
 42
4.067412995437282
  0
ARC
  5
362
330
1B
100
AcDbEntity
 67
     1
  8
0
  6
Continuous
 62
     8
370
    25
100
AcDbCircle
 10
24.089675074
 20
10.0799319546
 30
0.0
 40
0.0441195839694134
100
AcDbArc
 50
8.0321816849
 51
57.12435194
  0
LINE
  5
363
330
1B
100
AcDbEntity
 67
     1
  8
0
  6
Continuous
 62
     8
370
    25
100
AcDbLine
 10
23.2995420231
 20
10.5749471325
 30
0.0
 11
22.0015973756
 21
9.9042093924
 31
0.0
  0
ELLIPSE
  5
364
330
1B
100
AcDbEntity
 67
     1
  8
0
  6
Continuous
 62
     8
370
    25
100
AcDbEllipse
 10
24.1065398974
 20
10.1210659291
 30
0.0
 11
0.01000242347731728
 21
-0.0004418894693625219
 31
0.0
210
0.0
220
0.0
230
1.0
 40
0.5456146131
 41
5.523180625944493
 42
6.279478683184758
  0
LINE
  5
365
330
1B
100
AcDbEntity
 67
     1
  8
0
  6
Continuous
 62
     8
370
    25
100
AcDbLine
 10
24.2881071405
 20
10.1754290921
 30
0.0
 11
24.2910141738
 21
10.2035629285
 31
0.0
  0
ARC
  5
366
330
1B
100
AcDbEntity
 67
     1
  8
0
  6
Continuous
 62
     8
370
    25
100
AcDbCircle
 10
21.8699840701
 20
9.8216113469
 30
0.0
 40
0.0148025828411735
100
AcDbArc
 50
53.7223991828
 51
114.757053726
  0
LINE
  5
367
330
1B
100
AcDbEntity
 67
     1
  8
0
  6
Continuous
 62
     8
370
    25
100
AcDbLine
 10
24.1268444207
 20
10.1259382461
 30
0.0
 11
24.1275191437
 21
10.1255807577
 31
0.0
  0
LINE
  5
368
330
1B
100
AcDbEntity
 67
     1
  8
0
  6
Continuous
 62
     8
370
    25
100
AcDbLine
 10
24.2369019345
 20
10.1771408761
 30
0.0
 11
24.1357428608
 21
10.1187429859
 31
0.0
  0
LINE
  5
369
330
1B
100
AcDbEntity
 67
     1
  8
0
  6
Continuous
 62
     8
370
    25
100
AcDbLine
 10
24.2370707708
 20
10.1830104195
 30
0.0
 11
24.2369019345
 21
10.1771408761
 31
0.0
  0
ELLIPSE
  5
36A
330
1B
100
AcDbEntity
 67
     1
  8
0
  6
Continuous
 62
     8
370
    25
100
AcDbEllipse
 10
24.2227684658
 20
10.1847292115
 30
0.0
 11
0.02469516164931207
 21
-0.008721406541159384
 31
0.0
210
0.0
220
0.0
230
1.0
 40
0.1174655998
 41
5.037906050398963
 42
5.362580370418627
  0
ELLIPSE
  5
36B
330
1B
100
AcDbEntity
 67
     1
  8
0
  6
Continuous
 62
     8
370
    25
100
AcDbEllipse
 10
24.2227684658
 20
10.1847292115
 30
0.0
 11
0.01917902690249207
 21
-0.01821208889867343
 31
0.0
210
0.0
220
0.0
230
1.0
 40
0.1971868312
 41
0.9458273433121076
 42
1.173210016957796
  0
LINE
  5
36C
330
1B
100
AcDbEntity
 67
     1
  8
0
  6
Continuous
 62
     8
370
    25
100
AcDbLine
 10
13.1798793394
 20
14.6472696893
 30
0.0
 11
12.8453372256
 21
14.4338966269
 31
0.0
  0
LINE
  5
36D
330
1B
100
AcDbEntity
 67
     1
  8
0
  6
Continuous
 62
     8
370
    25
100
AcDbLine
 10
12.0284953149
 20
13.9623439223
 30
0.0
 11
13.1581622398
 21
14.6828525822
 31
0.0
  0
LINE
  5
36E
330
1B
100
AcDbEntity
 67
     1
  8
0
  6
Continuous
 62
     8
370
    25
100
AcDbLine
 10
13.3042273825
 20
14.6988083526
 30
0.0
 11
13.3021785021
 21
14.7176138159
 31
0.0
  0
LINE
  5
36F
330
1B
100
AcDbEntity
 67
     1
  8
0
  6
Continuous
 62
     8
370
    25
100
AcDbLine
 10
12.3550469893
 20
15.1464811477
 30
0.0
 11
11.1223413905
 21
14.3602537693
 31
0.0
  0
ARC
  5
370
330
1B
100
AcDbEntity
 67
     1
  8
0
  6
Continuous
 62
     8
370
    25
100
AcDbCircle
 10
13.2948353327
 20
14.7318411609
 30
0.0
 40
0.0160106052757802
100
AcDbArc
 50
297.2996471418
 51
1.5376656723
  0
ARC
  5
371
330
1B
100
AcDbEntity
 67
     1
  8
0
  6
Continuous
 62
     8
370
    25
100
AcDbCircle
 10
13.2897404599
 20
14.741897524
 30
0.0
 40
0.0145300329251996
100
AcDbArc
 50
64.4131752048
 51
126.8972808388
  0
ARC
  5
372
330
1B
100
AcDbEntity
 67
     1
  8
0
  6
Continuous
 62
     8
370
    25
100
AcDbCircle
 10
12.4862241575
 20
15.205326237
 30
0.0
 40
0.014925031760292
100
AcDbArc
 50
65.3286415441
 51
125.9818144994
  0
ARC
  5
373
330
1B
100
AcDbEntity
 67
     1
  8
0
  6
Continuous
 62
     8
370
    25
100
AcDbCircle
 10
12.4687404652
 20
15.20583652
 30
0.0
 40
0.0144826054833328
100
AcDbArc
 50
53.0051414515
 51
115.8952653049
  0
ENDSEC
  0
SECTION
  2
OBJECTS
  0
DICTIONARY
  5
C
330
0
100
AcDbDictionary
281
     1
  3
ACAD_GROUP
350
D
  3
ACAD_LAYOUT
350
1A
  3
ACAD_MLINESTYLE
350
17
  3
ACAD_PLOTSETTINGS
350
19
  3
ACAD_PLOTSTYLENAME
350
E
  3
ACAD_SCALELIST
350
47
  0
DICTIONARY
  5
D
102
{ACAD_REACTORS
330
C
102
}
330
C
100
AcDbDictionary
281
     1
  0
DICTIONARY
  5
1A
102
{ACAD_REACTORS
330
C
102
}
330
C
100
AcDbDictionary
281
     1
  3
EFB6810BTXXTR_LINEART
350
1E
  3
Model
350
22
  0
DICTIONARY
  5
17
102
{ACAD_REACTORS
330
C
102
}
330
C
100
AcDbDictionary
281
     1
  3
Standard
350
18
  0
DICTIONARY
  5
19
102
{ACAD_REACTORS
330
C
102
}
330
C
100
AcDbDictionary
281
     1
  0
ACDBDICTIONARYWDFLT
  5
E
102
{ACAD_REACTORS
330
C
102
}
330
C
100
AcDbDictionary
281
     1
  3
Normal
350
F
100
AcDbDictionaryWithDefault
340
F
  0
DICTIONARY
  5
47
102
{ACAD_REACTORS
330
C
102
}
330
C
100
AcDbDictionary
281
     1
  3
A0
350
48
  3
A1
350
49
  3
A2
350
4A
  3
A3
350
4B
  3
A4
350
4C
  3
A5
350
4D
  3
A6
350
4E
  3
A7
350
4F
  3
A8
350
50
  3
A9
350
51
  3
B0
350
52
  3
B1
350
53
  3
B2
350
54
  3
B3
350
55
  3
B4
350
56
  3
B5
350
57
  3
B6
350
58
  3
B7
350
59
  3
B8
350
5A
  3
B9
350
5B
  3
C0
350
5C
  3
C1
350
5D
  3
C2
350
5E
  3
C3
350
5F
  3
C4
350
60
  3
C5
350
61
  3
C6
350
62
  3
C7
350
63
  3
C8
350
64
  3
C9
350
65
  3
D0
350
66
  3
D1
350
67
  3
D2
350
68
  0
LAYOUT
  5
1E
102
{ACAD_REACTORS
330
1A
102
}
330
1A
100
AcDbPlotSettings
  1

  2
none_device
  4
ANSI_D_(34.00_x_22.00_Inches)
  6

 40
6.35
 41
19.05
 42
6.3499746
 43
19.0499873
 44
863.6
 45
558.8
 46
0.0
 47
0.0
 48
0.0
 49
0.0
140
0.0
141
0.0
142
1.0
143
1.0
 70
  4832
 72
     0
 73
     0
 74
     1
  7

 75
     0
147
1.0
148
0.0
149
0.0
100
AcDbLayout
  1
EFB6810BTXXTR_LINEART
 70
     1
 71
     0
 10
0.0
 20
0.0
 11
34.0
 21
22.0
 12
0.0
 22
0.0
 32
0.0
 14
0.0
 24
0.0
 34
0.0
 15
34.0
 25
22.0
 35
0.0
146
0.0
 13
0.0
 23
0.0
 33
0.0
 16
1.0
 26
0.0
 36
0.0
 17
0.0
 27
1.0
 37
0.0
 76
     0
330
1B
331
79
  0
LAYOUT
  5
22
102
{ACAD_REACTORS
330
1A
102
}
330
1A
100
AcDbPlotSettings
  1

  2
none_device
  4
Letter_(8.50_x_11.00_Inches)
  6

 40
6.35
 41
6.35
 42
6.35000508
 43
6.35000508
 44
215.9
 45
279.4
 46
0.0
 47
0.0
 48
0.0
 49
0.0
140
0.0
141
0.0
142
1.0
143
1.0
 70
  1712
 72
     0
 73
     0
 74
     0
  7

 75
     0
147
1.0
148
0.0
149
0.0
100
AcDbLayout
  1
Model
 70
     1
 71
     0
 10
0.0
 20
0.0
 11
12.0
 21
9.0
 12
0.0
 22
0.0
 32
0.0
 14
0.0
 24
0.0
 34
0.0
 15
34.0
 25
22.0
 35
0.0
146
0.0
 13
0.0
 23
0.0
 33
0.0
 16
1.0
 26
0.0
 36
0.0
 17
0.0
 27
1.0
 37
0.0
 76
     0
330
1F
331
29
  0
MLINESTYLE
  5
18
102
{ACAD_REACTORS
330
17
102
}
330
17
100
AcDbMlineStyle
  2
Standard
 70
     0
  3

 62
   256
 51
90.0
 52
90.0
 71
     2
 49
0.5
 62
   256
  6
BYLAYER
 49
-0.5
 62
   256
  6
BYLAYER
  0
ACDBPLACEHOLDER
  5
F
102
{ACAD_REACTORS
330
E
102
}
330
E
  0
SCALE
  5
48
102
{ACAD_REACTORS
330
47
102
}
330
47
100
AcDbScale
 70
     0
300
1:1
140
1.0
141
1.0
290
     1
  0
SCALE
  5
49
102
{ACAD_REACTORS
330
47
102
}
330
47
100
AcDbScale
 70
     0
300
1:2
140
1.0
141
2.0
290
     0
  0
SCALE
  5
4A
102
{ACAD_REACTORS
330
47
102
}
330
47
100
AcDbScale
 70
     0
300
1:4
140
1.0
141
4.0
290
     0
  0
SCALE
  5
4B
102
{ACAD_REACTORS
330
47
102
}
330
47
100
AcDbScale
 70
     0
300
1:5
140
1.0
141
5.0
290
     0
  0
SCALE
  5
4C
102
{ACAD_REACTORS
330
47
102
}
330
47
100
AcDbScale
 70
     0
300
1:8
140
1.0
141
8.0
290
     0
  0
SCALE
  5
4D
102
{ACAD_REACTORS
330
47
102
}
330
47
100
AcDbScale
 70
     0
300
1:10
140
1.0
141
10.0
290
     0
  0
SCALE
  5
4E
102
{ACAD_REACTORS
330
47
102
}
330
47
100
AcDbScale
 70
     0
300
1:16
140
1.0
141
16.0
290
     0
  0
SCALE
  5
4F
102
{ACAD_REACTORS
330
47
102
}
330
47
100
AcDbScale
 70
     0
300
1:20
140
1.0
141
20.0
290
     0
  0
SCALE
  5
50
102
{ACAD_REACTORS
330
47
102
}
330
47
100
AcDbScale
 70
     0
300
1:30
140
1.0
141
30.0
290
     0
  0
SCALE
  5
51
102
{ACAD_REACTORS
330
47
102
}
330
47
100
AcDbScale
 70
     0
300
1:40
140
1.0
141
40.0
290
     0
  0
SCALE
  5
52
102
{ACAD_REACTORS
330
47
102
}
330
47
100
AcDbScale
 70
     0
300
1:50
140
1.0
141
50.0
290
     0
  0
SCALE
  5
53
102
{ACAD_REACTORS
330
47
102
}
330
47
100
AcDbScale
 70
     0
300
1:100
140
1.0
141
100.0
290
     0
  0
SCALE
  5
54
102
{ACAD_REACTORS
330
47
102
}
330
47
100
AcDbScale
 70
     0
300
2:1
140
2.0
141
1.0
290
     0
  0
SCALE
  5
55
102
{ACAD_REACTORS
330
47
102
}
330
47
100
AcDbScale
 70
     0
300
4:1
140
4.0
141
1.0
290
     0
  0
SCALE
  5
56
102
{ACAD_REACTORS
330
47
102
}
330
47
100
AcDbScale
 70
     0
300
8:1
140
8.0
141
1.0
290
     0
  0
SCALE
  5
57
102
{ACAD_REACTORS
330
47
102
}
330
47
100
AcDbScale
 70
     0
300
10:1
140
10.0
141
1.0
290
     0
  0
SCALE
  5
58
102
{ACAD_REACTORS
330
47
102
}
330
47
100
AcDbScale
 70
     0
300
100:1
140
100.0
141
1.0
290
     0
  0
SCALE
  5
59
102
{ACAD_REACTORS
330
47
102
}
330
47
100
AcDbScale
 70
     0
300
1/128" = 1'-0"
140
0.0078125
141
12.0
290
     0
  0
SCALE
  5
5A
102
{ACAD_REACTORS
330
47
102
}
330
47
100
AcDbScale
 70
     0
300
1/64" = 1'-0"
140
0.015625
141
12.0
290
     0
  0
SCALE
  5
5B
102
{ACAD_REACTORS
330
47
102
}
330
47
100
AcDbScale
 70
     0
300
1/32" = 1'-0"
140
0.03125
141
12.0
290
     0
  0
SCALE
  5
5C
102
{ACAD_REACTORS
330
47
102
}
330
47
100
AcDbScale
 70
     0
300
1/16" = 1'-0"
140
0.0625
141
12.0
290
     0
  0
SCALE
  5
5D
102
{ACAD_REACTORS
330
47
102
}
330
47
100
AcDbScale
 70
     0
300
3/32" = 1'-0"
140
0.09375
141
12.0
290
     0
  0
SCALE
  5
5E
102
{ACAD_REACTORS
330
47
102
}
330
47
100
AcDbScale
 70
     0
300
1/8" = 1'-0"
140
0.125
141
12.0
290
     0
  0
SCALE
  5
5F
102
{ACAD_REACTORS
330
47
102
}
330
47
100
AcDbScale
 70
     0
300
3/16" = 1'-0"
140
0.1875
141
12.0
290
     0
  0
SCALE
  5
60
102
{ACAD_REACTORS
330
47
102
}
330
47
100
AcDbScale
 70
     0
300
1/4" = 1'-0"
140
0.25
141
12.0
290
     0
  0
SCALE
  5
61
102
{ACAD_REACTORS
330
47
102
}
330
47
100
AcDbScale
 70
     0
300
3/8" = 1'-0"
140
0.375
141
12.0
290
     0
  0
SCALE
  5
62
102
{ACAD_REACTORS
330
47
102
}
330
47
100
AcDbScale
 70
     0
300
1/2" = 1'-0"
140
0.5
141
12.0
290
     0
  0
SCALE
  5
63
102
{ACAD_REACTORS
330
47
102
}
330
47
100
AcDbScale
 70
     0
300
3/4" = 1'-0"
140
0.75
141
12.0
290
     0
  0
SCALE
  5
64
102
{ACAD_REACTORS
330
47
102
}
330
47
100
AcDbScale
 70
     0
300
1" = 1'-0"
140
1.0
141
12.0
290
     0
  0
SCALE
  5
65
102
{ACAD_REACTORS
330
47
102
}
330
47
100
AcDbScale
 70
     0
300
1-1/2" = 1'-0"
140
1.5
141
12.0
290
     0
  0
SCALE
  5
66
102
{ACAD_REACTORS
330
47
102
}
330
47
100
AcDbScale
 70
     0
300
3" = 1'-0"
140
3.0
141
12.0
290
     0
  0
SCALE
  5
67
102
{ACAD_REACTORS
330
47
102
}
330
47
100
AcDbScale
 70
     0
300
6" = 1'-0"
140
6.0
141
12.0
290
     0
  0
SCALE
  5
68
102
{ACAD_REACTORS
330
47
102
}
330
47
100
AcDbScale
 70
     0
300
1'-0" = 1'-0"
140
12.0
141
12.0
290
     0
  0
ENDSEC
  0
EOF
