  0
SECTION
  2
HEADER
  9
$ACADVER
  1
AC1009
  9
$INSBASE
 10
0.0
 20
0.0
 30
0.0
  9
$EXTMIN
 10
-3.65625
 20
-2.1152810033
 30
0.0
  9
$EXTMAX
 10
3.34375
 20
2.0493033225
 30
0.0
  9
$LIMMIN
 10
0.0
 20
0.0
  9
$LIMMAX
 10
12.0
 20
9.0
  9
$ORTHOMODE
 70
         0
  9
$REGENMODE
 70
         1
  9
$FILLMODE
 70
         1
  9
$QTEXTMODE
 70
         0
  9
$MIRRTEXT
 70
         1
  9
$DRAGMODE
 70
         2
  9
$LTSCALE
 40
1.0
  9
$OSMODE
 70
         0
  9
$ATTMODE
 70
         1
  9
$TEXTSIZE
 40
0.2
  9
$TRACEWID
 40
0.05
  9
$TEXTSTYLE
  7
STANDARD
  9
$CLAYER
  8
0
  9
$CELTYPE
  6
CONTINUOUS
  9
$CECOLOR
 62
       256
  9
$DIMSCALE
 40
1.0
  9
$DIMASZ
 40
0.18
  9
$DIMEXO
 40
0.0625
  9
$DIMDLI
 40
0.38
  9
$DIMRND
 40
0.0
  9
$DIMDLE
 40
0.0
  9
$DIMEXE
 40
0.18
  9
$DIMTP
 40
0.0
  9
$DIMTM
 40
0.0
  9
$DIMTXT
 40
0.18
  9
$DIMCEN
 40
0.09
  9
$DIMTSZ
 40
0.0
  9
$DIMTOL
 70
         0
  9
$DIMLIM
 70
         0
  9
$DIMTIH
 70
         1
  9
$DIMTOH
 70
         1
  9
$DIMSE1
 70
         0
  9
$DIMSE2
 70
         0
  9
$DIMTAD
 70
         0
  9
$DIMZIN
 70
         0
  9
$DIMBLK
  1

  9
$DIMASO
 70
         1
  9
$DIMSHO
 70
         1
  9
$DIMPOST
  1

  9
$DIMAPOST
  1

  9
$DIMALT
 70
         0
  9
$DIMALTD
 70
         2
  9
$DIMALTF
 40
25.4
  9
$DIMLFAC
 40
1.0
  9
$DIMTOFL
 70
         0
  9
$DIMTVP
 40
0.0
  9
$DIMTIX
 70
         0
  9
$DIMSOXD
 70
         0
  9
$DIMSAH
 70
         0
  9
$DIMBLK1
  1

  9
$DIMBLK2
  1

  9
$DIMSTYLE
  2
STANDARD
  9
$DIMCLRD
 70
         0
  9
$DIMCLRE
 70
         0
  9
$DIMCLRT
 70
         0
  9
$DIMTFAC
 40
1.0
  9
$DIMGAP
 40
0.09
  9
$LUNITS
 70
         2
  9
$LUPREC
 70
         4
  9
$AXISMODE
 70
         0
  9
$AXISUNIT
 10
0.0
 20
0.0
  9
$SKETCHINC
 40
0.1
  9
$FILLETRAD
 40
0.0
  9
$AUNITS
 70
         0
  9
$AUPREC
 70
         0
  9
$MENU
  1
acad
  9
$ELEVATION
 40
0.0
  9
$PELEVATION
 40
0.0
  9
$THICKNESS
 40
0.0
  9
$LIMCHECK
 70
         0
  9
$BLIPMODE
 70
         1
  9
$CHAMFERA
 40
0.0
  9
$CHAMFERB
 40
0.0
  9
$SKPOLY
 70
         0
  9
$TDCREATE
 40
0.000000000
  9
$TDUPDATE
 40
0.000000000
  9
$TDINDWG
 40
0.0000000000
  9
$TDUSRTIMER
 40
0.0000000000
  9
$USRTIMER
 70
         1
  9
$ANGBASE
 50
0.0
  9
$ANGDIR
 70
         0
  9
$PDMODE
 70
         0
  9
$PDSIZE
 40
0.0
  9
$PLINEWID
 40
0.0
  9
$COORDS
 70
         0
  9
$SPLFRAME
 70
         0
  9
$SPLINETYPE
 70
         6
  9
$SPLINESEGS
 70
         8
  9
$ATTDIA
 70
         0
  9
$ATTREQ
 70
         1
  9
$HANDLING
 70
         1
  9
$HANDSEED
  5
2AC
  9
$SURFTAB1
 70
         6
  9
$SURFTAB2
 70
         6
  9
$SURFTYPE
 70
         6
  9
$SURFU
 70
         6
  9
$SURFV
 70
         6
  9
$UCSNAME
  2

  9
$UCSORG
 10
0.0
 20
0.0
 30
0.0
  9
$UCSXDIR
 10
1.0
 20
0.0
 30
0.0
  9
$UCSYDIR
 10
0.0
 20
1.0
 30
0.0
  9
$PUCSNAME
  2

  9
$PUCSORG
 10
0.0
 20
0.0
 30
0.0
  9
$PUCSXDIR
 10
1.0
 20
0.0
 30
0.0
  9
$PUCSYDIR
 10
0.0
 20
1.0
 30
0.0
  9
$USERI1
 70
         0
  9
$USERI2
 70
         0
  9
$USERI3
 70
         0
  9
$USERI4
 70
         0
  9
$USERI5
 70
         0
  9
$USERR1
 40
0.0
  9
$USERR2
 40
0.0
  9
$USERR3
 40
0.0
  9
$USERR4
 40
0.0
  9
$USERR5
 40
0.0
  9
$WORLDVIEW
 70
         1
  9
$SHADEDGE
 70
         3
  9
$SHADEDIF
 70
        70
  9
$TILEMODE
 70
         1
  9
$MAXACTVP
 70
        16
  9
$PINSBASE
 10
0.0
 20
0.0
 30
0.0
  9
$PLIMCHECK
 70
         0
  9
$PEXTMIN
 10
1.0000000000E+20
 20
1.0000000000E+20
 30
1.0000000000E+20
  9
$PEXTMAX
 10
-1.0000000000E+20
 20
-1.0000000000E+20
 30
-1.0000000000E+20
  9
$PLIMMIN
 10
0.0
 20
0.0
  9
$PLIMMAX
 10
12.0
 20
9.0
  9
$UNITMODE
 70
         0
  9
$VISRETAIN
 70
         0
  9
$PLINEGEN
 70
         1
  9
$PSLTSCALE
 70
         0
  9
$TREEDEPTH
 70
      3020
  9
$DWGCODEPAGE
  3
ansi_1252
  0
ENDSEC
  0
SECTION
  2
TABLES
  0
TABLE
  2
VPORT
 70
         1
  0
VPORT
  2
*ACTIVE
 70
         0
 10
0.0
 20
0.0
 11
1.0
 21
1.0
 12
-0.15625
 22
-0.0329888404
 13
0.0
 23
0.0
 14
1.0
 24
1.0
 15
0.0
 25
0.0
 16
0.0
 26
0.0
 36
1.0
 17
0.0
 27
0.0
 37
0.0
 40
4.1645843258
 41
1.604229
 42
50.0
 43
0.0
 44
0.0
 50
0.0
 51
0.0
 71
         0
 72
       100
 73
         1
 74
         1
 75
         0
 76
         0
 77
         0
 78
         0
  0
ENDTAB
  0
TABLE
  2
LTYPE
 70
         5
  0
LTYPE
  2
CONTINUOUS
 70
         0
  3
Solid line
 72
        65
 73
         0
 40
0.0
  0
LTYPE
  2
HIDDEN2
 70
        64
  3
_ _ _ _ _ _ _ _ _ _ _ _ _ _ _ _ _ _ _ _ _ _ _ _
 72
        65
 73
         2
 40
0.1875
 49
0.125
 49
-0.0625
  0
LTYPE
  2
CENTER2
 70
        64
  3
___ _ ___ _ ___ _ ___ _ ___ _ ___ _ ___ _ ___ _
 72
        65
 73
         4
 40
1.125
 49
0.75
 49
-0.125
 49
0.125
 49
-0.125
  0
LTYPE
  2
PHANTOM2
 70
        64
  3
___ _ _ ___ _ _ ___ _ _ ___ _ _ ___ _ _ ___ _ _
 72
        65
 73
         6
 40
1.25
 49
0.625
 49
-0.125
 49
0.125
 49
-0.125
 49
0.125
 49
-0.125
  0
LTYPE
  2
DOT2
 70
        64
  3
...............................................
 72
        65
 73
         2
 40
0.125
 49
0.0
 49
-0.125
  0
ENDTAB
  0
TABLE
  2
LAYER
 70
         3
  0
LAYER
  2
0
 70
         0
 62
         7
  6
CONTINUOUS
  0
LAYER
  2
DEFAULT
 70
         0
 62
         7
  6
CONTINUOUS
  0
LAYER
  2
HIDE
 70
         0
 62
        -1
  6
CONTINUOUS
  0
ENDTAB
  0
TABLE
  2
STYLE
 70
         3
  0
STYLE
  2
STANDARD
 70
         0
 40
0.0
 41
1.0
 50
0.0
 71
         0
 42
0.2
  3
txt
  4

  0
STYLE
  2
ARIAL_TTF
 70
         0
 40
0.0
 41
1.0
 50
0.0
 71
         0
 42
0.2
  3
arial.ttf
  4

  0
STYLE
  2
SEMECA1_TTF
 70
         0
 40
0.0
 41
1.0
 50
0.0
 71
         0
 42
0.2
  3
semeca1.ttf
  4

  0
ENDTAB
  0
TABLE
  2
VIEW
 70
         0
  0
ENDTAB
  0
TABLE
  2
UCS
 70
         0
  0
ENDTAB
  0
TABLE
  2
APPID
 70
         1
  0
APPID
  2
ACAD
 70
         0
  0
ENDTAB
  0
TABLE
  2
DIMSTYLE
 70
         1
  0
DIMSTYLE
  2
STANDARD
 70
         0
  3

  4

  5

  6

  7

 40
1.0
 41
0.18
 42
0.0625
 43
0.38
 44
0.18
 45
0.0
 46
0.0
 47
0.0
 48
0.0
 71
         0
 72
         0
 73
         1
 74
         1
 75
         0
 76
         0
 77
         0
 78
         0
140
0.18
141
0.09
142
0.0
143
25.4
144
1.0
145
0.0
146
1.0
147
0.09
170
         0
171
         2
172
         0
173
         0
174
         0
175
         0
176
         0
177
         0
178
         0
  0
ENDTAB
  0
ENDSEC
  0
SECTION
  2
BLOCKS
  0
BLOCK
  8
DEFAULT
 62
         1
 48
0.0
  5
48
  2
*X0
 70
         1
 10
0.0
 20
0.0
 30
0.0
  3
*X0
  0
POLYLINE
  8
DEFAULT
  6
CONTINUOUS
 62
         7
  5
49
 66
         1
 10
0.0
 20
0.0
 30
0.0
  0
VERTEX
  8
DEFAULT
  6
CONTINUOUS
 62
         7
  5
4A
 10
12.1725270337
 20
13.1630978704
 30
0.0
  0
VERTEX
  8
DEFAULT
  6
CONTINUOUS
 62
         7
  5
4B
 10
11.7505359194
 20
12.224886312
 30
0.0
  0
SEQEND
  8
DEFAULT
  6
CONTINUOUS
 62
         7
  5
4C
  0
LINE
  8
DEFAULT
  6
CONTINUOUS
 62
         7
  5
4E
 10
11.7505359194
 20
12.224886312
 30
0.0
 11
11.0005359194
 21
12.224886312
 31
0.0
  0
TEXT
  8
0
  6
CONTINUOUS
 62
         7
  5
4F
 10
10.2094699392
 20
12.099886312
 30
0.0
 40
0.25
  1
O
  7
SEMECA1_TTF
 11
10.2094699392
 21
12.349886312
 31
0.0
 73
         3
  0
TEXT
  8
0
  6
CONTINUOUS
 62
         7
  5
50
 10
10.4945576585
 20
12.099886312
 30
0.0
 40
0.25
  1
 7"
  7
ARIAL_TTF
 11
10.4945576585
 21
12.349886312
 31
0.0
 73
         3
  0
ENDBLK
  8
0
  6
CONTINUOUS
 62
         7
  5
51
  0
BLOCK
  8
0
 62
         1
 48
0.0
  5
64
  2
*X1
 70
         1
 10
0.0
 20
0.0
 30
0.0
  3
*X1
  0
INSERT
  8
0
 62
         0
 48
0.0
  5
65
  2
*X2
 10
0.0
 20
0.0
 30
0.0
  0
ENDBLK
  8
0
 62
         0
 48
0.0
  5
66
  0
BLOCK
  8
0
 62
         1
 48
0.0
  5
52
  2
*X2
 70
         1
 10
0.0
 20
0.0
 30
0.0
  3
*X2
  0
LINE
  8
0
  6
CONTINUOUS
 62
         7
  5
53
 10
7.4278305868
 20
4.6656788744
 30
0.0
 11
3.3808369135
 21
4.6656788744
 31
0.0
  0
LINE
  8
0
  6
CONTINUOUS
 62
         7
  5
54
 10
8.9043337502
 20
4.3531788744
 30
0.0
 11
7.4403052883
 21
4.6643677305
 31
0.0
  0
ARC
  8
0
  6
CONTINUOUS
 62
         7
  5
55
 10
7.4278305868
 20
4.6056788744
 30
0.0
 40
0.06
 50
78.0
 51
90.0
  0
LINE
  8
0
  6
CONTINUOUS
 62
         7
  5
56
 10
1.9043337502
 20
4.3531788744
 30
0.0
 11
1.9043337502
 21
4.2831788744
 31
0.0
  0
LINE
  8
0
  6
CONTINUOUS
 62
         7
  5
57
 10
3.368362212
 20
4.6643677305
 30
0.0
 11
1.9043337502
 21
4.3531788744
 31
0.0
  0
ARC
  8
0
  6
CONTINUOUS
 62
         7
  5
58
 10
3.3808369135
 20
4.6056788744
 30
0.0
 40
0.06
 50
90.0
 51
102.0
  0
LINE
  8
0
  6
CONTINUOUS
 62
         7
  5
59
 10
8.9043337502
 20
4.2831788744
 30
0.0
 11
8.9043337502
 21
4.3531788744
 31
0.0
  0
LINE
  8
0
  6
CONTINUOUS
 62
         7
  5
5A
 10
8.9043337502
 20
4.2831788744
 30
0.0
 11
1.9043337502
 21
4.2831788744
 31
0.0
  0
LINE
  8
0
  6
CONTINUOUS
 62
         7
  5
5B
 10
3.368362212
 20
4.6643677305
 30
0.0
 11
7.4403052883
 21
4.6643677305
 31
0.0
  0
LINE
  8
0
  6
CONTINUOUS
 62
         7
  5
5C
 10
1.9043337502
 20
4.3531788744
 30
0.0
 11
8.9043337502
 21
4.3531788744
 31
0.0
  0
LINE
  8
0
  6
CONTINUOUS
 62
         7
  5
5D
 10
8.8418337502
 20
4.1581788744
 30
0.0
 11
1.9668337502
 21
4.1581788744
 31
0.0
  0
LINE
  8
0
  6
CONTINUOUS
 62
         7
  5
5E
 10
8.8418337502
 20
4.1581788744
 30
0.0
 11
8.8418337502
 21
4.2831788744
 31
0.0
  0
LINE
  8
0
  6
CONTINUOUS
 62
         7
  5
5F
 10
1.9668337502
 20
4.2831788744
 30
0.0
 11
1.9668337502
 21
4.1581788744
 31
0.0
  0
LINE
  8
0
  6
CONTINUOUS
 62
         7
  5
60
 10
8.4355837502
 20
3.9706788744
 30
0.0
 11
8.4355837502
 21
4.1581788744
 31
0.0
  0
LINE
  8
0
  6
CONTINUOUS
 62
         7
  5
61
 10
2.3730837502
 20
4.1581788744
 30
0.0
 11
2.3730837502
 21
3.9706788744
 31
0.0
  0
LINE
  8
0
  6
CONTINUOUS
 62
         7
  5
62
 10
8.4355837502
 20
3.9706788744
 30
0.0
 11
2.3730837502
 21
3.9706788744
 31
0.0
  0
ENDBLK
  8
0
  6
CONTINUOUS
 62
         7
  5
63
  0
BLOCK
  8
0
 62
         1
 48
0.0
  5
86
  2
*X3
 70
         1
 10
0.0
 20
0.0
 30
0.0
  3
*X3
  0
INSERT
  8
0
 62
         0
 48
0.0
  5
87
  2
*X4
 10
0.0
 20
0.0
 30
0.0
  0
ENDBLK
  8
0
 62
         0
 48
0.0
  5
88
  0
BLOCK
  8
0
 62
         1
 48
0.0
  5
67
  2
*X4
 70
         1
 10
0.0
 20
0.0
 30
0.0
  3
*X4
  0
CIRCLE
  8
0
  6
CONTINUOUS
 62
         7
  5
68
 10
5.4043337502
 20
10.394579846
 30
0.0
 40
2.0234968367
  0
CIRCLE
  8
0
  6
CONTINUOUS
 62
         7
  5
69
 10
5.4043337502
 20
10.394579846
 30
0.0
 40
0.534
  0
CIRCLE
  8
0
  6
CONTINUOUS
 62
         7
  5
6A
 10
6.7163337502
 20
10.394579846
 30
0.0
 40
0.424
  0
CIRCLE
  8
0
  6
CONTINUOUS
 62
         7
  5
6B
 10
4.0923337502
 20
10.394579846
 30
0.0
 40
0.424
  0
CIRCLE
  8
0
  6
CONTINUOUS
 62
         7
  5
6C
 10
4.1668968831
 20
9.1571429789
 30
0.0
 40
0.075
  0
CIRCLE
  8
0
  6
CONTINUOUS
 62
         7
  5
6D
 10
4.1668968831
 20
9.1571429789
 30
0.0
 40
0.1406
  0
CIRCLE
  8
0
  6
CONTINUOUS
 62
         7
  5
6E
 10
4.1668968831
 20
11.6320167131
 30
0.0
 40
0.1406
  0
CIRCLE
  8
0
  6
CONTINUOUS
 62
         7
  5
6F
 10
6.6417706172
 20
11.6320167131
 30
0.0
 40
0.075
  0
CIRCLE
  8
0
  6
CONTINUOUS
 62
         7
  5
70
 10
4.1668968831
 20
11.6320167131
 30
0.0
 40
0.075
  0
CIRCLE
  8
0
  6
CONTINUOUS
 62
         7
  5
71
 10
6.6417706172
 20
11.6320167131
 30
0.0
 40
0.1406
  0
CIRCLE
  8
0
  6
CONTINUOUS
 62
         7
  5
72
 10
6.6417706172
 20
9.1571429789
 30
0.0
 40
0.1406
  0
CIRCLE
  8
0
  6
CONTINUOUS
 62
         7
  5
73
 10
6.6417706172
 20
9.1571429789
 30
0.0
 40
0.075
  0
CIRCLE
  8
0
  6
CONTINUOUS
 62
         7
  5
74
 10
5.4043337502
 20
10.394579846
 30
0.0
 40
3.5
  0
CIRCLE
  8
0
  6
CONTINUOUS
 62
         7
  5
75
 10
5.4043337502
 20
10.394579846
 30
0.0
 40
2.0359715381
  0
CIRCLE
  8
0
  6
CONTINUOUS
 62
         7
  5
76
 10
5.4043337502
 20
10.394579846
 30
0.0
 40
0.531
  0
LINE
  8
0
  6
CONTINUOUS
 62
         7
  5
77
 10
5.7417313762
 20
10.6655094346
 30
0.0
 11
5.6752633387
 21
10.731977472
 31
0.0
  0
LINE
  8
0
  6
CONTINUOUS
 62
         7
  5
78
 10
5.1334041616
 20
10.05718222
 30
0.0
 11
5.0669361241
 21
10.1236502574
 31
0.0
  0
LINE
  8
0
  6
CONTINUOUS
 62
         7
  5
79
 10
5.7417313762
 20
10.6655094346
 30
0.0
 11
5.1334041616
 21
10.05718222
 31
0.0
  0
LINE
  8
0
  6
CONTINUOUS
 62
         7
  5
7A
 10
5.6752633387
 20
10.731977472
 30
0.0
 11
5.0669361241
 21
10.1236502574
 31
0.0
  0
LINE
  8
0
  6
CONTINUOUS
 62
         7
  5
7B
 10
4.3716305149
 20
10.1817511186
 30
0.0
 11
4.3051624775
 21
10.1152830812
 31
0.0
  0
LINE
  8
0
  6
CONTINUOUS
 62
         7
  5
7C
 10
3.8130369854
 20
10.6074085733
 30
0.0
 11
4.3051624775
 21
10.1152830812
 31
0.0
  0
LINE
  8
0
  6
CONTINUOUS
 62
         7
  5
7D
 10
3.8795050228
 20
10.6738766108
 30
0.0
 11
3.8130369854
 21
10.6074085733
 31
0.0
  0
LINE
  8
0
  6
CONTINUOUS
 62
         7
  5
7E
 10
3.8795050228
 20
10.6738766108
 30
0.0
 11
4.3716305149
 21
10.1817511186
 31
0.0
  0
CIRCLE
  8
0
  6
CONTINUOUS
 62
         7
  5
7F
 10
4.0923337502
 20
10.394579846
 30
0.0
 40
0.421
  0
LINE
  8
0
  6
CONTINUOUS
 62
         7
  5
80
 10
6.4370369854
 20
10.6074085733
 30
0.0
 11
6.9291624775
 21
10.1152830812
 31
0.0
  0
LINE
  8
0
  6
CONTINUOUS
 62
         7
  5
81
 10
6.9956305149
 20
10.1817511186
 30
0.0
 11
6.9291624775
 21
10.1152830812
 31
0.0
  0
LINE
  8
0
  6
CONTINUOUS
 62
         7
  5
82
 10
6.5035050228
 20
10.6738766108
 30
0.0
 11
6.9956305149
 21
10.1817511186
 31
0.0
  0
LINE
  8
0
  6
CONTINUOUS
 62
         7
  5
83
 10
6.5035050228
 20
10.6738766108
 30
0.0
 11
6.4370369854
 21
10.6074085733
 31
0.0
  0
CIRCLE
  8
0
  6
CONTINUOUS
 62
         7
  5
84
 10
6.7163337502
 20
10.394579846
 30
0.0
 40
0.421
  0
ENDBLK
  8
0
  6
CONTINUOUS
 62
         7
  5
85
  0
BLOCK
  8
0
 62
         1
 48
0.0
  5
2A7
  2
*X5
 70
         1
 10
0.0
 20
0.0
 30
0.0
  3
*X5
  0
INSERT
  8
0
 62
         0
 48
0.0
  5
2A8
  2
*X6
 10
0.0
 20
0.0
 30
0.0
  0
ENDBLK
  8
0
 62
         0
 48
0.0
  5
2A9
  0
BLOCK
  8
0
 62
         1
 48
0.0
  5
89
  2
*X6
 70
         1
 10
0.0
 20
0.0
 30
0.0
  3
*X6
  0
POLYLINE
  8
0
  6
CONTINUOUS
 62
         7
  5
8A
 66
         1
 10
0.0
 20
0.0
 30
0.0
 70
         1
  0
VERTEX
  8
0
  6
CONTINUOUS
 62
         7
  5
8B
 10
14.2896057165
 20
15.4954113141
 30
0.0
  0
VERTEX
  8
0
  6
CONTINUOUS
 62
         7
  5
8C
 10
14.2770113378
 20
15.6255532268
 30
0.0
  0
VERTEX
  8
0
  6
CONTINUOUS
 62
         7
  5
8D
 10
14.2363557997
 20
15.7616608979
 30
0.0
  0
VERTEX
  8
0
  6
CONTINUOUS
 62
         7
  5
8E
 10
14.1637199686
 20
15.9010431685
 30
0.0
  0
VERTEX
  8
0
  6
CONTINUOUS
 62
         7
  5
8F
 10
14.0561253123
 20
16.040198924
 30
0.0
  0
VERTEX
  8
0
  6
CONTINUOUS
 62
         7
  5
90
 10
13.91208765
 20
16.1749438339
 30
0.0
  0
VERTEX
  8
0
  6
CONTINUOUS
 62
         7
  5
91
 10
13.7321116901
 20
16.3006804634
 30
0.0
  0
VERTEX
  8
0
  6
CONTINUOUS
 62
         7
  5
92
 10
13.5189994082
 20
16.4127997763
 30
0.0
  0
VERTEX
  8
0
  6
CONTINUOUS
 62
         7
  5
93
 10
13.2778572982
 20
16.5071597324
 30
0.0
  0
VERTEX
  8
0
  6
CONTINUOUS
 62
         7
  5
94
 10
13.015746309
 20
16.5805508094
 30
0.0
  0
VERTEX
  8
0
  6
CONTINUOUS
 62
         7
  5
95
 10
12.7410111986
 20
16.6310472939
 30
0.0
  0
VERTEX
  8
0
  6
CONTINUOUS
 62
         7
  5
96
 10
12.4624182744
 20
16.658166959
 30
0.0
  0
VERTEX
  8
0
  6
CONTINUOUS
 62
         7
  5
97
 10
12.1882820784
 20
16.6628133353
 30
0.0
  0
VERTEX
  8
0
  6
CONTINUOUS
 62
         7
  5
98
 10
11.925751117
 20
16.6470327857
 30
0.0
  0
VERTEX
  8
0
  6
CONTINUOUS
 62
         7
  5
99
 10
11.6803597955
 20
16.6136595659
 30
0.0
  0
VERTEX
  8
0
  6
CONTINUOUS
 62
         7
  5
9A
 10
11.4558705199
 20
16.5659334995
 30
0.0
  0
VERTEX
  8
0
  6
CONTINUOUS
 62
         7
  5
9B
 10
11.2543604615
 20
16.5071597324
 30
0.0
  0
VERTEX
  8
0
  6
CONTINUOUS
 62
         7
  5
9C
 10
11.0654447817
 20
16.4357915867
 30
0.0
  0
VERTEX
  8
0
  6
CONTINUOUS
 62
         7
  5
9D
 10
10.8816110442
 20
16.3474099822
 30
0.0
  0
VERTEX
  8
0
  6
CONTINUOUS
 62
         7
  5
9E
 10
10.7088555539
 20
16.2414009313
 30
0.0
  0
VERTEX
  8
0
  6
CONTINUOUS
 62
         7
  5
9F
 10
10.5539192488
 20
16.1180257254
 30
0.0
  0
VERTEX
  8
0
  6
CONTINUOUS
 62
         7
  5
A0
 10
10.4238207151
 20
15.9786344393
 30
0.0
  0
VERTEX
  8
0
  6
CONTINUOUS
 62
         7
  5
A1
 10
10.3252037508
 20
15.8257781446
 30
0.0
  0
VERTEX
  8
0
  6
CONTINUOUS
 62
         7
  5
A2
 10
10.2635809223
 20
15.6631623472
 30
0.0
  0
VERTEX
  8
0
  6
CONTINUOUS
 62
         7
  5
A3
 10
10.2426120432
 20
15.4954113141
 30
0.0
  0
VERTEX
  8
0
  6
CONTINUOUS
 62
         7
  5
A4
 10
10.2635809223
 20
15.327660281
 30
0.0
  0
VERTEX
  8
0
  6
CONTINUOUS
 62
         7
  5
A5
 10
10.3252037508
 20
15.1650444836
 30
0.0
  0
VERTEX
  8
0
  6
CONTINUOUS
 62
         7
  5
A6
 10
10.4238207151
 20
15.0121881889
 30
0.0
  0
VERTEX
  8
0
  6
CONTINUOUS
 62
         7
  5
A7
 10
10.5539192488
 20
14.8727969028
 30
0.0
  0
VERTEX
  8
0
  6
CONTINUOUS
 62
         7
  5
A8
 10
10.7088555539
 20
14.7494216969
 30
0.0
  0
VERTEX
  8
0
  6
CONTINUOUS
 62
         7
  5
A9
 10
10.8816110442
 20
14.643412646
 30
0.0
  0
VERTEX
  8
0
  6
CONTINUOUS
 62
         7
  5
AA
 10
11.0654447817
 20
14.5550310415
 30
0.0
  0
VERTEX
  8
0
  6
CONTINUOUS
 62
         7
  5
AB
 10
11.2543604615
 20
14.4836628958
 30
0.0
  0
VERTEX
  8
0
  6
CONTINUOUS
 62
         7
  5
AC
 10
11.4558705199
 20
14.4248891287
 30
0.0
  0
VERTEX
  8
0
  6
CONTINUOUS
 62
         7
  5
AD
 10
11.6803597955
 20
14.3771630623
 30
0.0
  0
VERTEX
  8
0
  6
CONTINUOUS
 62
         7
  5
AE
 10
11.925751117
 20
14.3437898425
 30
0.0
  0
VERTEX
  8
0
  6
CONTINUOUS
 62
         7
  5
AF
 10
12.1882820784
 20
14.3280092929
 30
0.0
  0
VERTEX
  8
0
  6
CONTINUOUS
 62
         7
  5
B0
 10
12.4624182744
 20
14.3326556691
 30
0.0
  0
VERTEX
  8
0
  6
CONTINUOUS
 62
         7
  5
B1
 10
12.7410111986
 20
14.3597753343
 30
0.0
  0
VERTEX
  8
0
  6
CONTINUOUS
 62
         7
  5
B2
 10
13.015746309
 20
14.4102718188
 30
0.0
  0
VERTEX
  8
0
  6
CONTINUOUS
 62
         7
  5
B3
 10
13.2778572982
 20
14.4836628958
 30
0.0
  0
VERTEX
  8
0
  6
CONTINUOUS
 62
         7
  5
B4
 10
13.5189994082
 20
14.5780228519
 30
0.0
  0
VERTEX
  8
0
  6
CONTINUOUS
 62
         7
  5
B5
 10
13.7321116901
 20
14.6901421648
 30
0.0
  0
VERTEX
  8
0
  6
CONTINUOUS
 62
         7
  5
B6
 10
13.91208765
 20
14.8158787943
 30
0.0
  0
VERTEX
  8
0
  6
CONTINUOUS
 62
         7
  5
B7
 10
14.0561253123
 20
14.9506237042
 30
0.0
  0
VERTEX
  8
0
  6
CONTINUOUS
 62
         7
  5
B8
 10
14.1637199686
 20
15.0897794597
 30
0.0
  0
VERTEX
  8
0
  6
CONTINUOUS
 62
         7
  5
B9
 10
14.2363557997
 20
15.2291617303
 30
0.0
  0
VERTEX
  8
0
  6
CONTINUOUS
 62
         7
  5
BA
 10
14.2770113378
 20
15.3652694014
 30
0.0
  0
VERTEX
  8
0
  6
CONTINUOUS
 62
         7
  5
BB
 10
14.2896057165
 20
15.4954113141
 30
0.0
  0
SEQEND
  8
0
  6
CONTINUOUS
 62
         7
  5
BC
  0
LINE
  8
0
  6
CONTINUOUS
 62
         7
  5
BD
 10
8.7661088798
 20
15.2402561326
 30
0.0
 11
8.7661088798
 21
15.1831013719
 31
0.0
  0
LINE
  8
0
  6
CONTINUOUS
 62
         7
  5
BE
 10
15.7661088798
 20
15.1831013719
 30
0.0
 11
15.7661088798
 21
15.2402561326
 31
0.0
  0
POLYLINE
  8
0
  6
CONTINUOUS
 62
         7
  5
BF
 66
         1
 10
0.0
 20
0.0
 30
0.0
  0
VERTEX
  8
0
  6
CONTINUOUS
 62
         7
  5
C0
 10
11.8993339446
 20
15.2736092372
 30
0.0
  0
VERTEX
  8
0
  6
CONTINUOUS
 62
         7
  5
C1
 10
11.9061162976
 20
15.2688029539
 30
0.0
  0
VERTEX
  8
0
  6
CONTINUOUS
 62
         7
  5
C2
 10
11.9130875565
 20
15.2640876265
 30
0.0
  0
SEQEND
  8
0
  6
CONTINUOUS
 62
         7
  5
C3
  0
POLYLINE
  8
0
  6
CONTINUOUS
 62
         7
  5
C4
 66
         1
 10
0.0
 20
0.0
 30
0.0
  0
VERTEX
  8
0
  6
CONTINUOUS
 62
         7
  5
C5
 10
12.6191302031
 20
15.2640876265
 30
0.0
  0
VERTEX
  8
0
  6
CONTINUOUS
 62
         7
  5
C6
 10
12.626101462
 20
15.2688029539
 30
0.0
  0
VERTEX
  8
0
  6
CONTINUOUS
 62
         7
  5
C7
 10
12.6328838151
 20
15.2736092372
 30
0.0
  0
SEQEND
  8
0
  6
CONTINUOUS
 62
         7
  5
C8
  0
POLYLINE
  8
0
  6
CONTINUOUS
 62
         7
  5
C9
 66
         1
 10
0.0
 20
0.0
 30
0.0
 70
         1
  0
VERTEX
  8
0
  6
CONTINUOUS
 62
         7
  5
CA
 10
11.7321088798
 20
15.4954113141
 30
0.0
  0
VERTEX
  8
0
  6
CONTINUOUS
 62
         7
  5
CB
 10
11.7461615114
 20
15.4251481562
 30
0.0
  0
VERTEX
  8
0
  6
CONTINUOUS
 62
         7
  5
CC
 10
11.7937242644
 20
15.3516420833
 30
0.0
  0
VERTEX
  8
0
  6
CONTINUOUS
 62
         7
  5
CD
 10
11.8792313288
 20
15.28290111
 30
0.0
  0
VERTEX
  8
0
  6
CONTINUOUS
 62
         7
  5
CE
 10
11.9991088798
 20
15.2284113141
 30
0.0
  0
VERTEX
  8
0
  6
CONTINUOUS
 62
         7
  5
CF
 10
12.1407823492
 20
15.1957174365
 30
0.0
  0
VERTEX
  8
0
  6
CONTINUOUS
 62
         7
  5
D0
 10
12.2866473414
 20
15.187334391
 30
0.0
  0
VERTEX
  8
0
  6
CONTINUOUS
 62
         7
  5
D1
 10
12.4206878272
 20
15.2003060509
 30
0.0
  0
VERTEX
  8
0
  6
CONTINUOUS
 62
         7
  5
D2
 10
12.5331088798
 20
15.2284113141
 30
0.0
  0
VERTEX
  8
0
  6
CONTINUOUS
 62
         7
  5
D3
 10
12.6314773009
 20
15.2705692088
 30
0.0
  0
VERTEX
  8
0
  6
CONTINUOUS
 62
         7
  5
D4
 10
12.7179550337
 20
15.3311036218
 30
0.0
  0
VERTEX
  8
0
  6
CONTINUOUS
 62
         7
  5
D5
 10
12.7783129615
 20
15.4082276406
 30
0.0
  0
VERTEX
  8
0
  6
CONTINUOUS
 62
         7
  5
D6
 10
12.8001088798
 20
15.4954113141
 30
0.0
  0
VERTEX
  8
0
  6
CONTINUOUS
 62
         7
  5
D7
 10
12.7783129615
 20
15.5825949876
 30
0.0
  0
VERTEX
  8
0
  6
CONTINUOUS
 62
         7
  5
D8
 10
12.7179550337
 20
15.6597190064
 30
0.0
  0
VERTEX
  8
0
  6
CONTINUOUS
 62
         7
  5
D9
 10
12.6314773009
 20
15.7202534194
 30
0.0
  0
VERTEX
  8
0
  6
CONTINUOUS
 62
         7
  5
DA
 10
12.5331088798
 20
15.7624113141
 30
0.0
  0
VERTEX
  8
0
  6
CONTINUOUS
 62
         7
  5
DB
 10
12.4206878272
 20
15.7905165773
 30
0.0
  0
VERTEX
  8
0
  6
CONTINUOUS
 62
         7
  5
DC
 10
12.2866473414
 20
15.8034882372
 30
0.0
  0
VERTEX
  8
0
  6
CONTINUOUS
 62
         7
  5
DD
 10
12.1407823492
 20
15.7951051916
 30
0.0
  0
VERTEX
  8
0
  6
CONTINUOUS
 62
         7
  5
DE
 10
11.9991088798
 20
15.7624113141
 30
0.0
  0
VERTEX
  8
0
  6
CONTINUOUS
 62
         7
  5
DF
 10
11.8792313288
 20
15.7079215182
 30
0.0
  0
VERTEX
  8
0
  6
CONTINUOUS
 62
         7
  5
E0
 10
11.7937242644
 20
15.6391805449
 30
0.0
  0
VERTEX
  8
0
  6
CONTINUOUS
 62
         7
  5
E1
 10
11.7461615114
 20
15.565674472
 30
0.0
  0
VERTEX
  8
0
  6
CONTINUOUS
 62
         7
  5
E2
 10
11.7321088798
 20
15.4954113141
 30
0.0
  0
SEQEND
  8
0
  6
CONTINUOUS
 62
         7
  5
E3
  0
POLYLINE
  8
0
  6
CONTINUOUS
 62
         7
  5
E4
 66
         1
 10
0.0
 20
0.0
 30
0.0
 70
         1
  0
VERTEX
  8
0
  6
CONTINUOUS
 62
         7
  5
E5
 10
12.7698329767
 20
14.959789557
 30
0.0
  0
VERTEX
  8
0
  6
CONTINUOUS
 62
         7
  5
E6
 10
12.7809908715
 20
14.9040000833
 30
0.0
  0
VERTEX
  8
0
  6
CONTINUOUS
 62
         7
  5
E7
 10
12.8187560537
 20
14.8456357109
 30
0.0
  0
VERTEX
  8
0
  6
CONTINUOUS
 62
         7
  5
E8
 10
12.8866493033
 20
14.7910548631
 30
0.0
  0
VERTEX
  8
0
  6
CONTINUOUS
 62
         7
  5
E9
 10
12.9818329767
 20
14.747789557
 30
0.0
  0
VERTEX
  8
0
  6
CONTINUOUS
 62
         7
  5
EA
 10
13.0943227727
 20
14.7218303733
 30
0.0
  0
VERTEX
  8
0
  6
CONTINUOUS
 62
         7
  5
EB
 10
13.210140669
 20
14.7151741724
 30
0.0
  0
VERTEX
  8
0
  6
CONTINUOUS
 62
         7
  5
EC
 10
13.3165698188
 20
14.7254737675
 30
0.0
  0
VERTEX
  8
0
  6
CONTINUOUS
 62
         7
  5
ED
 10
13.4058329767
 20
14.747789557
 30
0.0
  0
VERTEX
  8
0
  6
CONTINUOUS
 62
         7
  5
EE
 10
13.4839382399
 20
14.7812632412
 30
0.0
  0
VERTEX
  8
0
  6
CONTINUOUS
 62
         7
  5
EF
 10
13.5526022075
 20
14.8293280185
 30
0.0
  0
VERTEX
  8
0
  6
CONTINUOUS
 62
         7
  5
F0
 10
13.6005268543
 20
14.8905650672
 30
0.0
  0
VERTEX
  8
0
  6
CONTINUOUS
 62
         7
  5
F1
 10
13.6178329767
 20
14.959789557
 30
0.0
  0
VERTEX
  8
0
  6
CONTINUOUS
 62
         7
  5
F2
 10
13.6005268543
 20
15.0290140468
 30
0.0
  0
VERTEX
  8
0
  6
CONTINUOUS
 62
         7
  5
F3
 10
13.5526022075
 20
15.0902510955
 30
0.0
  0
VERTEX
  8
0
  6
CONTINUOUS
 62
         7
  5
F4
 10
13.4839382399
 20
15.1383158728
 30
0.0
  0
VERTEX
  8
0
  6
CONTINUOUS
 62
         7
  5
F5
 10
13.4058329767
 20
15.171789557
 30
0.0
  0
VERTEX
  8
0
  6
CONTINUOUS
 62
         7
  5
F6
 10
13.3165698188
 20
15.1941053465
 30
0.0
  0
VERTEX
  8
0
  6
CONTINUOUS
 62
         7
  5
F7
 10
13.210140669
 20
15.2044049416
 30
0.0
  0
VERTEX
  8
0
  6
CONTINUOUS
 62
         7
  5
F8
 10
13.0943227727
 20
15.1977487407
 30
0.0
  0
VERTEX
  8
0
  6
CONTINUOUS
 62
         7
  5
F9
 10
12.9818329767
 20
15.171789557
 30
0.0
  0
VERTEX
  8
0
  6
CONTINUOUS
 62
         7
  5
FA
 10
12.8866493033
 20
15.1285242509
 30
0.0
  0
VERTEX
  8
0
  6
CONTINUOUS
 62
         7
  5
FB
 10
12.8187560537
 20
15.0739434032
 30
0.0
  0
VERTEX
  8
0
  6
CONTINUOUS
 62
         7
  5
FC
 10
12.7809908715
 20
15.0155790307
 30
0.0
  0
VERTEX
  8
0
  6
CONTINUOUS
 62
         7
  5
FD
 10
12.7698329767
 20
14.959789557
 30
0.0
  0
SEQEND
  8
0
  6
CONTINUOUS
 62
         7
  5
FE
  0
POLYLINE
  8
0
  6
CONTINUOUS
 62
         7
  5
FF
 66
         1
 10
0.0
 20
0.0
 30
0.0
 70
         1
  0
VERTEX
  8
0
  6
CONTINUOUS
 62
         7
  5
100
 10
10.9143847829
 20
16.0310330712
 30
0.0
  0
VERTEX
  8
0
  6
CONTINUOUS
 62
         7
  5
101
 10
10.9255426776
 20
15.9752435975
 30
0.0
  0
VERTEX
  8
0
  6
CONTINUOUS
 62
         7
  5
102
 10
10.9633078598
 20
15.916879225
 30
0.0
  0
VERTEX
  8
0
  6
CONTINUOUS
 62
         7
  5
103
 10
11.0312011094
 20
15.8622983773
 30
0.0
  0
VERTEX
  8
0
  6
CONTINUOUS
 62
         7
  5
104
 10
11.1263847829
 20
15.8190330712
 30
0.0
  0
VERTEX
  8
0
  6
CONTINUOUS
 62
         7
  5
105
 10
11.2388745788
 20
15.7930738875
 30
0.0
  0
VERTEX
  8
0
  6
CONTINUOUS
 62
         7
  5
106
 10
11.3546924752
 20
15.7864176866
 30
0.0
  0
VERTEX
  8
0
  6
CONTINUOUS
 62
         7
  5
107
 10
11.461121625
 20
15.7967172817
 30
0.0
  0
VERTEX
  8
0
  6
CONTINUOUS
 62
         7
  5
108
 10
11.5503847829
 20
15.8190330712
 30
0.0
  0
VERTEX
  8
0
  6
CONTINUOUS
 62
         7
  5
109
 10
11.6284900461
 20
15.8525067554
 30
0.0
  0
VERTEX
  8
0
  6
CONTINUOUS
 62
         7
  5
10A
 10
11.6971540137
 20
15.9005715327
 30
0.0
  0
VERTEX
  8
0
  6
CONTINUOUS
 62
         7
  5
10B
 10
11.7450786605
 20
15.9618085814
 30
0.0
  0
VERTEX
  8
0
  6
CONTINUOUS
 62
         7
  5
10C
 10
11.7623847829
 20
16.0310330712
 30
0.0
  0
VERTEX
  8
0
  6
CONTINUOUS
 62
         7
  5
10D
 10
11.7450786605
 20
16.100257561
 30
0.0
  0
VERTEX
  8
0
  6
CONTINUOUS
 62
         7
  5
10E
 10
11.6971540137
 20
16.1614946096
 30
0.0
  0
VERTEX
  8
0
  6
CONTINUOUS
 62
         7
  5
10F
 10
11.6284900461
 20
16.209559387
 30
0.0
  0
VERTEX
  8
0
  6
CONTINUOUS
 62
         7
  5
110
 10
11.5503847829
 20
16.2430330712
 30
0.0
  0
VERTEX
  8
0
  6
CONTINUOUS
 62
         7
  5
111
 10
11.461121625
 20
16.2653488607
 30
0.0
  0
VERTEX
  8
0
  6
CONTINUOUS
 62
         7
  5
112
 10
11.3546924752
 20
16.2756484558
 30
0.0
  0
VERTEX
  8
0
  6
CONTINUOUS
 62
         7
  5
113
 10
11.2388745788
 20
16.2689922549
 30
0.0
  0
VERTEX
  8
0
  6
CONTINUOUS
 62
         7
  5
114
 10
11.1263847829
 20
16.2430330712
 30
0.0
  0
VERTEX
  8
0
  6
CONTINUOUS
 62
         7
  5
115
 10
11.0312011094
 20
16.1997677651
 30
0.0
  0
VERTEX
  8
0
  6
CONTINUOUS
 62
         7
  5
116
 10
10.9633078598
 20
16.1451869173
 30
0.0
  0
VERTEX
  8
0
  6
CONTINUOUS
 62
         7
  5
117
 10
10.9255426776
 20
16.0868225449
 30
0.0
  0
VERTEX
  8
0
  6
CONTINUOUS
 62
         7
  5
118
 10
10.9143847829
 20
16.0310330712
 30
0.0
  0
SEQEND
  8
0
  6
CONTINUOUS
 62
         7
  5
119
  0
POLYLINE
  8
0
  6
CONTINUOUS
 62
         7
  5
11A
 66
         1
 10
0.0
 20
0.0
 30
0.0
  0
VERTEX
  8
0
  6
CONTINUOUS
 62
         7
  5
11B
 10
12.386800056
 20
16.4641329596
 30
0.0
  0
VERTEX
  8
0
  6
CONTINUOUS
 62
         7
  5
11C
 10
12.3399381023
 20
16.4915751725
 30
0.0
  0
VERTEX
  8
0
  6
CONTINUOUS
 62
         7
  5
11D
 10
12.2661088798
 20
16.5036670818
 30
0.0
  0
VERTEX
  8
0
  6
CONTINUOUS
 62
         7
  5
11E
 10
12.1922796573
 20
16.4915751725
 30
0.0
  0
VERTEX
  8
0
  6
CONTINUOUS
 62
         7
  5
11F
 10
12.1454177037
 20
16.4641329596
 30
0.0
  0
SEQEND
  8
0
  6
CONTINUOUS
 62
         7
  5
120
  0
POLYLINE
  8
0
  6
CONTINUOUS
 62
         7
  5
121
 66
         1
 10
0.0
 20
0.0
 30
0.0
  0
VERTEX
  8
0
  6
CONTINUOUS
 62
         7
  5
122
 10
10.5874625199
 20
15.4254660544
 30
0.0
  0
VERTEX
  8
0
  6
CONTINUOUS
 62
         7
  5
123
 10
10.5602247614
 20
15.447146701
 30
0.0
  0
VERTEX
  8
0
  6
CONTINUOUS
 62
         7
  5
124
 10
10.5161088798
 20
15.455429933
 30
0.0
  0
VERTEX
  8
0
  6
CONTINUOUS
 62
         7
  5
125
 10
10.4719929983
 20
15.447146701
 30
0.0
  0
VERTEX
  8
0
  6
CONTINUOUS
 62
         7
  5
126
 10
10.4447552397
 20
15.4254660544
 30
0.0
  0
SEQEND
  8
0
  6
CONTINUOUS
 62
         7
  5
127
  0
POLYLINE
  8
0
  6
CONTINUOUS
 62
         7
  5
128
 66
         1
 10
0.0
 20
0.0
 30
0.0
  0
VERTEX
  8
0
  6
CONTINUOUS
 62
         7
  5
129
 10
10.636800056
 20
15.4537699885
 30
0.0
  0
VERTEX
  8
0
  6
CONTINUOUS
 62
         7
  5
12A
 10
10.5899381023
 20
15.4812122014
 30
0.0
  0
VERTEX
  8
0
  6
CONTINUOUS
 62
         7
  5
12B
 10
10.5161088798
 20
15.4933041107
 30
0.0
  0
VERTEX
  8
0
  6
CONTINUOUS
 62
         7
  5
12C
 10
10.4422796573
 20
15.4812122014
 30
0.0
  0
VERTEX
  8
0
  6
CONTINUOUS
 62
         7
  5
12D
 10
10.3954177037
 20
15.4537699885
 30
0.0
  0
SEQEND
  8
0
  6
CONTINUOUS
 62
         7
  5
12E
  0
POLYLINE
  8
0
  6
CONTINUOUS
 62
         7
  5
12F
 66
         1
 10
0.0
 20
0.0
 30
0.0
 70
         1
  0
VERTEX
  8
0
  6
CONTINUOUS
 62
         7
  5
130
 10
10.3755088798
 20
15.4954113141
 30
0.0
  0
VERTEX
  8
0
  6
CONTINUOUS
 62
         7
  5
131
 10
10.3917319567
 20
15.4575574679
 30
0.0
  0
VERTEX
  8
0
  6
CONTINUOUS
 62
         7
  5
132
 10
10.4458088798
 20
15.4251113141
 30
0.0
  0
VERTEX
  8
0
  6
CONTINUOUS
 62
         7
  5
133
 10
10.5215165721
 20
15.4142959295
 30
0.0
  0
VERTEX
  8
0
  6
CONTINUOUS
 62
         7
  5
134
 10
10.5864088798
 20
15.4251113141
 30
0.0
  0
VERTEX
  8
0
  6
CONTINUOUS
 62
         7
  5
135
 10
10.6350781106
 20
15.4521497756
 30
0.0
  0
VERTEX
  8
0
  6
CONTINUOUS
 62
         7
  5
136
 10
10.6567088798
 20
15.4954113141
 30
0.0
  0
VERTEX
  8
0
  6
CONTINUOUS
 62
         7
  5
137
 10
10.6350781106
 20
15.5386728526
 30
0.0
  0
VERTEX
  8
0
  6
CONTINUOUS
 62
         7
  5
138
 10
10.5864088798
 20
15.5657113141
 30
0.0
  0
VERTEX
  8
0
  6
CONTINUOUS
 62
         7
  5
139
 10
10.5215165721
 20
15.5765266987
 30
0.0
  0
VERTEX
  8
0
  6
CONTINUOUS
 62
         7
  5
13A
 10
10.4458088798
 20
15.5657113141
 30
0.0
  0
VERTEX
  8
0
  6
CONTINUOUS
 62
         7
  5
13B
 10
10.3917319567
 20
15.5332651603
 30
0.0
  0
VERTEX
  8
0
  6
CONTINUOUS
 62
         7
  5
13C
 10
10.3755088798
 20
15.4954113141
 30
0.0
  0
SEQEND
  8
0
  6
CONTINUOUS
 62
         7
  5
13D
  0
POLYLINE
  8
0
  6
CONTINUOUS
 62
         7
  5
13E
 66
         1
 10
0.0
 20
0.0
 30
0.0
 70
         1
  0
VERTEX
  8
0
  6
CONTINUOUS
 62
         7
  5
13F
 10
12.1255088798
 20
16.5057742852
 30
0.0
  0
VERTEX
  8
0
  6
CONTINUOUS
 62
         7
  5
140
 10
12.1417319567
 20
16.467920439
 30
0.0
  0
VERTEX
  8
0
  6
CONTINUOUS
 62
         7
  5
141
 10
12.1958088798
 20
16.4354742852
 30
0.0
  0
VERTEX
  8
0
  6
CONTINUOUS
 62
         7
  5
142
 10
12.2715165721
 20
16.4246589006
 30
0.0
  0
VERTEX
  8
0
  6
CONTINUOUS
 62
         7
  5
143
 10
12.3364088798
 20
16.4354742852
 30
0.0
  0
VERTEX
  8
0
  6
CONTINUOUS
 62
         7
  5
144
 10
12.3850781106
 20
16.4625127467
 30
0.0
  0
VERTEX
  8
0
  6
CONTINUOUS
 62
         7
  5
145
 10
12.4067088798
 20
16.5057742852
 30
0.0
  0
VERTEX
  8
0
  6
CONTINUOUS
 62
         7
  5
146
 10
12.3850781106
 20
16.5490358236
 30
0.0
  0
VERTEX
  8
0
  6
CONTINUOUS
 62
         7
  5
147
 10
12.3364088798
 20
16.5760742852
 30
0.0
  0
VERTEX
  8
0
  6
CONTINUOUS
 62
         7
  5
148
 10
12.2715165721
 20
16.5868896698
 30
0.0
  0
VERTEX
  8
0
  6
CONTINUOUS
 62
         7
  5
149
 10
12.1958088798
 20
16.5760742852
 30
0.0
  0
VERTEX
  8
0
  6
CONTINUOUS
 62
         7
  5
14A
 10
12.1417319567
 20
16.5436281313
 30
0.0
  0
VERTEX
  8
0
  6
CONTINUOUS
 62
         7
  5
14B
 10
12.1255088798
 20
16.5057742852
 30
0.0
  0
SEQEND
  8
0
  6
CONTINUOUS
 62
         7
  5
14C
  0
POLYLINE
  8
0
  6
CONTINUOUS
 62
         7
  5
14D
 66
         1
 10
0.0
 20
0.0
 30
0.0
  0
VERTEX
  8
0
  6
CONTINUOUS
 62
         7
  5
14E
 10
12.3374625199
 20
16.4358290255
 30
0.0
  0
VERTEX
  8
0
  6
CONTINUOUS
 62
         7
  5
14F
 10
12.3102247614
 20
16.4575096721
 30
0.0
  0
VERTEX
  8
0
  6
CONTINUOUS
 62
         7
  5
150
 10
12.2661088798
 20
16.4657929041
 30
0.0
  0
VERTEX
  8
0
  6
CONTINUOUS
 62
         7
  5
151
 10
12.2219929983
 20
16.4575096721
 30
0.0
  0
VERTEX
  8
0
  6
CONTINUOUS
 62
         7
  5
152
 10
12.1947552397
 20
16.4358290255
 30
0.0
  0
SEQEND
  8
0
  6
CONTINUOUS
 62
         7
  5
153
  0
POLYLINE
  8
0
  6
CONTINUOUS
 62
         7
  5
154
 66
         1
 10
0.0
 20
0.0
 30
0.0
  0
VERTEX
  8
0
  6
CONTINUOUS
 62
         7
  5
155
 10
14.0874625199
 20
15.4254660544
 30
0.0
  0
VERTEX
  8
0
  6
CONTINUOUS
 62
         7
  5
156
 10
14.0602247614
 20
15.447146701
 30
0.0
  0
VERTEX
  8
0
  6
CONTINUOUS
 62
         7
  5
157
 10
14.0161088798
 20
15.455429933
 30
0.0
  0
VERTEX
  8
0
  6
CONTINUOUS
 62
         7
  5
158
 10
13.9719929983
 20
15.447146701
 30
0.0
  0
VERTEX
  8
0
  6
CONTINUOUS
 62
         7
  5
159
 10
13.9447552397
 20
15.4254660544
 30
0.0
  0
SEQEND
  8
0
  6
CONTINUOUS
 62
         7
  5
15A
  0
POLYLINE
  8
0
  6
CONTINUOUS
 62
         7
  5
15B
 66
         1
 10
0.0
 20
0.0
 30
0.0
  0
VERTEX
  8
0
  6
CONTINUOUS
 62
         7
  5
15C
 10
14.136800056
 20
15.4537699885
 30
0.0
  0
VERTEX
  8
0
  6
CONTINUOUS
 62
         7
  5
15D
 10
14.0899381023
 20
15.4812122014
 30
0.0
  0
VERTEX
  8
0
  6
CONTINUOUS
 62
         7
  5
15E
 10
14.0161088798
 20
15.4933041107
 30
0.0
  0
VERTEX
  8
0
  6
CONTINUOUS
 62
         7
  5
15F
 10
13.9422796573
 20
15.4812122014
 30
0.0
  0
VERTEX
  8
0
  6
CONTINUOUS
 62
         7
  5
160
 10
13.8954177037
 20
15.4537699885
 30
0.0
  0
SEQEND
  8
0
  6
CONTINUOUS
 62
         7
  5
161
  0
POLYLINE
  8
0
  6
CONTINUOUS
 62
         7
  5
162
 66
         1
 10
0.0
 20
0.0
 30
0.0
 70
         1
  0
VERTEX
  8
0
  6
CONTINUOUS
 62
         7
  5
163
 10
13.8755088798
 20
15.4954113141
 30
0.0
  0
VERTEX
  8
0
  6
CONTINUOUS
 62
         7
  5
164
 10
13.8917319567
 20
15.4575574679
 30
0.0
  0
VERTEX
  8
0
  6
CONTINUOUS
 62
         7
  5
165
 10
13.9458088798
 20
15.4251113141
 30
0.0
  0
VERTEX
  8
0
  6
CONTINUOUS
 62
         7
  5
166
 10
14.0215165721
 20
15.4142959295
 30
0.0
  0
VERTEX
  8
0
  6
CONTINUOUS
 62
         7
  5
167
 10
14.0864088798
 20
15.4251113141
 30
0.0
  0
VERTEX
  8
0
  6
CONTINUOUS
 62
         7
  5
168
 10
14.1350781106
 20
15.4521497756
 30
0.0
  0
VERTEX
  8
0
  6
CONTINUOUS
 62
         7
  5
169
 10
14.1567088798
 20
15.4954113141
 30
0.0
  0
VERTEX
  8
0
  6
CONTINUOUS
 62
         7
  5
16A
 10
14.1350781106
 20
15.5386728526
 30
0.0
  0
VERTEX
  8
0
  6
CONTINUOUS
 62
         7
  5
16B
 10
14.0864088798
 20
15.5657113141
 30
0.0
  0
VERTEX
  8
0
  6
CONTINUOUS
 62
         7
  5
16C
 10
14.0215165721
 20
15.5765266987
 30
0.0
  0
VERTEX
  8
0
  6
CONTINUOUS
 62
         7
  5
16D
 10
13.9458088798
 20
15.5657113141
 30
0.0
  0
VERTEX
  8
0
  6
CONTINUOUS
 62
         7
  5
16E
 10
13.8917319567
 20
15.5332651603
 30
0.0
  0
VERTEX
  8
0
  6
CONTINUOUS
 62
         7
  5
16F
 10
13.8755088798
 20
15.4954113141
 30
0.0
  0
SEQEND
  8
0
  6
CONTINUOUS
 62
         7
  5
170
  0
POLYLINE
  8
0
  6
CONTINUOUS
 62
         7
  5
171
 66
         1
 10
0.0
 20
0.0
 30
0.0
 70
         1
  0
VERTEX
  8
0
  6
CONTINUOUS
 62
         7
  5
172
 10
12.1255088798
 20
14.485048343
 30
0.0
  0
VERTEX
  8
0
  6
CONTINUOUS
 62
         7
  5
173
 10
12.1417319567
 20
14.4471944969
 30
0.0
  0
VERTEX
  8
0
  6
CONTINUOUS
 62
         7
  5
174
 10
12.1958088798
 20
14.414748343
 30
0.0
  0
VERTEX
  8
0
  6
CONTINUOUS
 62
         7
  5
175
 10
12.2715165721
 20
14.4039329584
 30
0.0
  0
VERTEX
  8
0
  6
CONTINUOUS
 62
         7
  5
176
 10
12.3364088798
 20
14.414748343
 30
0.0
  0
VERTEX
  8
0
  6
CONTINUOUS
 62
         7
  5
177
 10
12.3850781106
 20
14.4417868046
 30
0.0
  0
VERTEX
  8
0
  6
CONTINUOUS
 62
         7
  5
178
 10
12.4067088798
 20
14.485048343
 30
0.0
  0
VERTEX
  8
0
  6
CONTINUOUS
 62
         7
  5
179
 10
12.3850781106
 20
14.5283098815
 30
0.0
  0
VERTEX
  8
0
  6
CONTINUOUS
 62
         7
  5
17A
 10
12.3364088798
 20
14.555348343
 30
0.0
  0
VERTEX
  8
0
  6
CONTINUOUS
 62
         7
  5
17B
 10
12.2715165721
 20
14.5661637276
 30
0.0
  0
VERTEX
  8
0
  6
CONTINUOUS
 62
         7
  5
17C
 10
12.1958088798
 20
14.555348343
 30
0.0
  0
VERTEX
  8
0
  6
CONTINUOUS
 62
         7
  5
17D
 10
12.1417319567
 20
14.5229021892
 30
0.0
  0
VERTEX
  8
0
  6
CONTINUOUS
 62
         7
  5
17E
 10
12.1255088798
 20
14.485048343
 30
0.0
  0
SEQEND
  8
0
  6
CONTINUOUS
 62
         7
  5
17F
  0
POLYLINE
  8
0
  6
CONTINUOUS
 62
         7
  5
180
 66
         1
 10
0.0
 20
0.0
 30
0.0
  0
VERTEX
  8
0
  6
CONTINUOUS
 62
         7
  5
181
 10
12.3374625199
 20
14.4151030834
 30
0.0
  0
VERTEX
  8
0
  6
CONTINUOUS
 62
         7
  5
182
 10
12.3102247614
 20
14.43678373
 30
0.0
  0
VERTEX
  8
0
  6
CONTINUOUS
 62
         7
  5
183
 10
12.2661088798
 20
14.4450669619
 30
0.0
  0
VERTEX
  8
0
  6
CONTINUOUS
 62
         7
  5
184
 10
12.2219929983
 20
14.43678373
 30
0.0
  0
VERTEX
  8
0
  6
CONTINUOUS
 62
         7
  5
185
 10
12.1947552397
 20
14.4151030834
 30
0.0
  0
SEQEND
  8
0
  6
CONTINUOUS
 62
         7
  5
186
  0
POLYLINE
  8
0
  6
CONTINUOUS
 62
         7
  5
187
 66
         1
 10
0.0
 20
0.0
 30
0.0
  0
VERTEX
  8
0
  6
CONTINUOUS
 62
         7
  5
188
 10
12.386800056
 20
14.4434070174
 30
0.0
  0
VERTEX
  8
0
  6
CONTINUOUS
 62
         7
  5
189
 10
12.3399381023
 20
14.4708492303
 30
0.0
  0
VERTEX
  8
0
  6
CONTINUOUS
 62
         7
  5
18A
 10
12.2661088798
 20
14.4829411396
 30
0.0
  0
VERTEX
  8
0
  6
CONTINUOUS
 62
         7
  5
18B
 10
12.1922796573
 20
14.4708492303
 30
0.0
  0
VERTEX
  8
0
  6
CONTINUOUS
 62
         7
  5
18C
 10
12.1454177037
 20
14.4434070174
 30
0.0
  0
SEQEND
  8
0
  6
CONTINUOUS
 62
         7
  5
18D
  0
POLYLINE
  8
0
  6
CONTINUOUS
 62
         7
  5
18E
 66
         1
 10
0.0
 20
0.0
 30
0.0
  0
VERTEX
  8
0
  6
CONTINUOUS
 62
         7
  5
18F
 10
8.7661088798
 20
15.1831013719
 30
0.0
  0
VERTEX
  8
0
  6
CONTINUOUS
 62
         7
  5
190
 10
8.7802666997
 20
15.0015301782
 30
0.0
  0
VERTEX
  8
0
  6
CONTINUOUS
 62
         7
  5
191
 10
8.8245400904
 20
14.8154039114
 30
0.0
  0
VERTEX
  8
0
  6
CONTINUOUS
 62
         7
  5
192
 10
8.9012125262
 20
14.627082029
 30
0.0
  0
VERTEX
  8
0
  6
CONTINUOUS
 62
         7
  5
193
 10
9.0118498261
 20
14.4392828431
 30
0.0
  0
VERTEX
  8
0
  6
CONTINUOUS
 62
         7
  5
194
 10
9.1571148559
 20
14.2549928726
 30
0.0
  0
VERTEX
  8
0
  6
CONTINUOUS
 62
         7
  5
195
 10
9.3366245906
 20
14.0773404274
 30
0.0
  0
VERTEX
  8
0
  6
CONTINUOUS
 62
         7
  5
196
 10
9.5488727233
 20
13.9094415966
 30
0.0
  0
VERTEX
  8
0
  6
CONTINUOUS
 62
         7
  5
197
 10
9.7912351457
 20
13.7542323553
 30
0.0
  0
VERTEX
  8
0
  6
CONTINUOUS
 62
         7
  5
198
 10
10.0600654374
 20
13.6143043455
 30
0.0
  0
VERTEX
  8
0
  6
CONTINUOUS
 62
         7
  5
199
 10
10.350874743
 20
13.4917628289
 30
0.0
  0
VERTEX
  8
0
  6
CONTINUOUS
 62
         7
  5
19A
 10
10.6585778041
 20
13.3881228353
 30
0.0
  0
VERTEX
  8
0
  6
CONTINUOUS
 62
         7
  5
19B
 10
10.9777773964
 20
13.3042540312
 30
0.0
  0
VERTEX
  8
0
  6
CONTINUOUS
 62
         7
  5
19C
 10
11.3030551279
 20
13.2403775563
 30
0.0
  0
VERTEX
  8
0
  6
CONTINUOUS
 62
         7
  5
19D
 10
11.6292381964
 20
13.1961107049
 30
0.0
  0
VERTEX
  8
0
  6
CONTINUOUS
 62
         7
  5
19E
 10
11.9516183472
 20
13.1705494508
 30
0.0
  0
VERTEX
  8
0
  6
CONTINUOUS
 62
         7
  5
19F
 10
12.2661088798
 20
13.1623754297
 30
0.0
  0
VERTEX
  8
0
  6
CONTINUOUS
 62
         7
  5
1A0
 10
12.5805994125
 20
13.1705494508
 30
0.0
  0
VERTEX
  8
0
  6
CONTINUOUS
 62
         7
  5
1A1
 10
12.9029795633
 20
13.1961107049
 30
0.0
  0
VERTEX
  8
0
  6
CONTINUOUS
 62
         7
  5
1A2
 10
13.2291626318
 20
13.2403775563
 30
0.0
  0
VERTEX
  8
0
  6
CONTINUOUS
 62
         7
  5
1A3
 10
13.5544403633
 20
13.3042540312
 30
0.0
  0
VERTEX
  8
0
  6
CONTINUOUS
 62
         7
  5
1A4
 10
13.8736399555
 20
13.3881228353
 30
0.0
  0
VERTEX
  8
0
  6
CONTINUOUS
 62
         7
  5
1A5
 10
14.1813430167
 20
13.4917628289
 30
0.0
  0
VERTEX
  8
0
  6
CONTINUOUS
 62
         7
  5
1A6
 10
14.4721523222
 20
13.6143043455
 30
0.0
  0
VERTEX
  8
0
  6
CONTINUOUS
 62
         7
  5
1A7
 10
14.740982614
 20
13.7542323553
 30
0.0
  0
VERTEX
  8
0
  6
CONTINUOUS
 62
         7
  5
1A8
 10
14.9833450363
 20
13.9094415966
 30
0.0
  0
VERTEX
  8
0
  6
CONTINUOUS
 62
         7
  5
1A9
 10
15.1955931691
 20
14.0773404274
 30
0.0
  0
VERTEX
  8
0
  6
CONTINUOUS
 62
         7
  5
1AA
 10
15.3751029037
 20
14.2549928726
 30
0.0
  0
VERTEX
  8
0
  6
CONTINUOUS
 62
         7
  5
1AB
 10
15.5203679335
 20
14.4392828431
 30
0.0
  0
VERTEX
  8
0
  6
CONTINUOUS
 62
         7
  5
1AC
 10
15.6310052335
 20
14.627082029
 30
0.0
  0
VERTEX
  8
0
  6
CONTINUOUS
 62
         7
  5
1AD
 10
15.7076776693
 20
14.8154039114
 30
0.0
  0
VERTEX
  8
0
  6
CONTINUOUS
 62
         7
  5
1AE
 10
15.75195106
 20
15.0015301782
 30
0.0
  0
VERTEX
  8
0
  6
CONTINUOUS
 62
         7
  5
1AF
 10
15.7661088798
 20
15.1831013719
 30
0.0
  0
SEQEND
  8
0
  6
CONTINUOUS
 62
         7
  5
1B0
  0
POLYLINE
  8
0
  6
CONTINUOUS
 62
         7
  5
1B1
 66
         1
 10
0.0
 20
0.0
 30
0.0
 70
         1
  0
VERTEX
  8
0
  6
CONTINUOUS
 62
         7
  5
1B2
 10
10.2301373417
 20
15.4943407695
 30
0.0
  0
VERTEX
  8
0
  6
CONTINUOUS
 62
         7
  5
1B3
 10
10.2428093637
 20
15.363396542
 30
0.0
  0
VERTEX
  8
0
  6
CONTINUOUS
 62
         7
  5
1B4
 10
10.2837155401
 20
15.2264497777
 30
0.0
  0
VERTEX
  8
0
  6
CONTINUOUS
 62
         7
  5
1B5
 10
10.3567991655
 20
15.0862082262
 30
0.0
  0
VERTEX
  8
0
  6
CONTINUOUS
 62
         7
  5
1B6
 10
10.4650571346
 20
14.9461945862
 30
0.0
  0
VERTEX
  8
0
  6
CONTINUOUS
 62
         7
  5
1B7
 10
10.6099827779
 20
14.8106189843
 30
0.0
  0
VERTEX
  8
0
  6
CONTINUOUS
 62
         7
  5
1B8
 10
10.7910682757
 20
14.6841071982
 30
0.0
  0
VERTEX
  8
0
  6
CONTINUOUS
 62
         7
  5
1B9
 10
11.0054943782
 20
14.5712966784
 30
0.0
  0
VERTEX
  8
0
  6
CONTINUOUS
 62
         7
  5
1BA
 10
11.2481231108
 20
14.4763550005
 30
0.0
  0
VERTEX
  8
0
  6
CONTINUOUS
 62
         7
  5
1BB
 10
11.5118499939
 20
14.4025114732
 30
0.0
  0
VERTEX
  8
0
  6
CONTINUOUS
 62
         7
  5
1BC
 10
11.788278825
 20
14.3517036818
 30
0.0
  0
VERTEX
  8
0
  6
CONTINUOUS
 62
         7
  5
1BD
 10
12.068589253
 20
14.324416826
 30
0.0
  0
VERTEX
  8
0
  6
CONTINUOUS
 62
         7
  5
1BE
 10
12.3444154774
 20
14.3197418052
 30
0.0
  0
VERTEX
  8
0
  6
CONTINUOUS
 62
         7
  5
1BF
 10
12.6085649219
 20
14.3356196407
 30
0.0
  0
VERTEX
  8
0
  6
CONTINUOUS
 62
         7
  5
1C0
 10
12.8554690619
 20
14.3691986037
 30
0.0
  0
VERTEX
  8
0
  6
CONTINUOUS
 62
         7
  5
1C1
 10
13.0813422965
 20
14.4172188977
 30
0.0
  0
VERTEX
  8
0
  6
CONTINUOUS
 62
         7
  5
1C2
 10
13.2840946489
 20
14.4763550005
 30
0.0
  0
VERTEX
  8
0
  6
CONTINUOUS
 62
         7
  5
1C3
 10
13.4741749792
 20
14.5481631253
 30
0.0
  0
VERTEX
  8
0
  6
CONTINUOUS
 62
         7
  5
1C4
 10
13.6591420375
 20
14.6370895956
 30
0.0
  0
VERTEX
  8
0
  6
CONTINUOUS
 62
         7
  5
1C5
 10
13.832962552
 20
14.7437521841
 30
0.0
  0
VERTEX
  8
0
  6
CONTINUOUS
 62
         7
  5
1C6
 10
13.9888540275
 20
14.8678879886
 30
0.0
  0
VERTEX
  8
0
  6
CONTINUOUS
 62
         7
  5
1C7
 10
14.1197546086
 20
15.0081386112
 30
0.0
  0
VERTEX
  8
0
  6
CONTINUOUS
 62
         7
  5
1C8
 10
14.2189795388
 20
15.1619372531
 30
0.0
  0
VERTEX
  8
0
  6
CONTINUOUS
 62
         7
  5
1C9
 10
14.2809822673
 20
15.3255555643
 30
0.0
  0
VERTEX
  8
0
  6
CONTINUOUS
 62
         7
  5
1CA
 10
14.3020804179
 20
15.4943407695
 30
0.0
  0
VERTEX
  8
0
  6
CONTINUOUS
 62
         7
  5
1CB
 10
14.2809822673
 20
15.6631259748
 30
0.0
  0
VERTEX
  8
0
  6
CONTINUOUS
 62
         7
  5
1CC
 10
14.2189795388
 20
15.826744286
 30
0.0
  0
VERTEX
  8
0
  6
CONTINUOUS
 62
         7
  5
1CD
 10
14.1197546086
 20
15.9805429279
 30
0.0
  0
VERTEX
  8
0
  6
CONTINUOUS
 62
         7
  5
1CE
 10
13.9888540275
 20
16.1207935505
 30
0.0
  0
VERTEX
  8
0
  6
CONTINUOUS
 62
         7
  5
1CF
 10
13.832962552
 20
16.244929355
 30
0.0
  0
VERTEX
  8
0
  6
CONTINUOUS
 62
         7
  5
1D0
 10
13.6591420375
 20
16.3515919435
 30
0.0
  0
VERTEX
  8
0
  6
CONTINUOUS
 62
         7
  5
1D1
 10
13.4741749792
 20
16.4405184138
 30
0.0
  0
VERTEX
  8
0
  6
CONTINUOUS
 62
         7
  5
1D2
 10
13.2840946489
 20
16.5123265386
 30
0.0
  0
VERTEX
  8
0
  6
CONTINUOUS
 62
         7
  5
1D3
 10
13.0813422965
 20
16.5714626414
 30
0.0
  0
VERTEX
  8
0
  6
CONTINUOUS
 62
         7
  5
1D4
 10
12.8554690619
 20
16.6194829353
 30
0.0
  0
VERTEX
  8
0
  6
CONTINUOUS
 62
         7
  5
1D5
 10
12.6085649219
 20
16.6530618984
 30
0.0
  0
VERTEX
  8
0
  6
CONTINUOUS
 62
         7
  5
1D6
 10
12.3444154774
 20
16.6689397338
 30
0.0
  0
VERTEX
  8
0
  6
CONTINUOUS
 62
         7
  5
1D7
 10
12.068589253
 20
16.6642647131
 30
0.0
  0
VERTEX
  8
0
  6
CONTINUOUS
 62
         7
  5
1D8
 10
11.788278825
 20
16.6369778573
 30
0.0
  0
VERTEX
  8
0
  6
CONTINUOUS
 62
         7
  5
1D9
 10
11.5118499939
 20
16.5861700659
 30
0.0
  0
VERTEX
  8
0
  6
CONTINUOUS
 62
         7
  5
1DA
 10
11.2481231108
 20
16.5123265386
 30
0.0
  0
VERTEX
  8
0
  6
CONTINUOUS
 62
         7
  5
1DB
 10
11.0054943782
 20
16.4173848607
 30
0.0
  0
VERTEX
  8
0
  6
CONTINUOUS
 62
         7
  5
1DC
 10
10.7910682757
 20
16.3045743408
 30
0.0
  0
VERTEX
  8
0
  6
CONTINUOUS
 62
         7
  5
1DD
 10
10.6099827779
 20
16.1780625547
 30
0.0
  0
VERTEX
  8
0
  6
CONTINUOUS
 62
         7
  5
1DE
 10
10.4650571346
 20
16.0424869529
 30
0.0
  0
VERTEX
  8
0
  6
CONTINUOUS
 62
         7
  5
1DF
 10
10.3567991655
 20
15.9024733129
 30
0.0
  0
VERTEX
  8
0
  6
CONTINUOUS
 62
         7
  5
1E0
 10
10.2837155401
 20
15.7622317614
 30
0.0
  0
VERTEX
  8
0
  6
CONTINUOUS
 62
         7
  5
1E1
 10
10.2428093637
 20
15.6252849971
 30
0.0
  0
VERTEX
  8
0
  6
CONTINUOUS
 62
         7
  5
1E2
 10
10.2301373417
 20
15.4943407695
 30
0.0
  0
SEQEND
  8
0
  6
CONTINUOUS
 62
         7
  5
1E3
  0
POLYLINE
  8
0
  6
CONTINUOUS
 62
         7
  5
1E4
 66
         1
 10
0.0
 20
0.0
 30
0.0
 70
         1
  0
VERTEX
  8
0
  6
CONTINUOUS
 62
         7
  5
1E5
 10
8.7661088798
 20
15.2402561326
 30
0.0
  0
VERTEX
  8
0
  6
CONTINUOUS
 62
         7
  5
1E6
 10
8.7878931122
 20
15.0151523981
 30
0.0
  0
VERTEX
  8
0
  6
CONTINUOUS
 62
         7
  5
1E7
 10
8.858214143
 20
14.7797298168
 30
0.0
  0
VERTEX
  8
0
  6
CONTINUOUS
 62
         7
  5
1E8
 10
8.9838508153
 20
14.5386432293
 30
0.0
  0
VERTEX
  8
0
  6
CONTINUOUS
 62
         7
  5
1E9
 10
9.1699550337
 20
14.2979484402
 30
0.0
  0
VERTEX
  8
0
  6
CONTINUOUS
 62
         7
  5
1EA
 10
9.4190939544
 20
14.0648829982
 30
0.0
  0
VERTEX
  8
0
  6
CONTINUOUS
 62
         7
  5
1EB
 10
9.7303945941
 20
13.8473989897
 30
0.0
  0
VERTEX
  8
0
  6
CONTINUOUS
 62
         7
  5
1EC
 10
10.0990104342
 20
13.6534685678
 30
0.0
  0
VERTEX
  8
0
  6
CONTINUOUS
 62
         7
  5
1ED
 10
10.5161088798
 20
13.4902561326
 30
0.0
  0
VERTEX
  8
0
  6
CONTINUOUS
 62
         7
  5
1EE
 10
10.9694767555
 20
13.3633131274
 30
0.0
  0
VERTEX
  8
0
  6
CONTINUOUS
 62
         7
  5
1EF
 10
11.4446803084
 20
13.2759704183
 30
0.0
  0
VERTEX
  8
0
  6
CONTINUOUS
 62
         7
  5
1F0
 10
11.926556641
 20
13.2290621027
 30
0.0
  0
VERTEX
  8
0
  6
CONTINUOUS
 62
         7
  5
1F1
 10
12.4007242644
 20
13.2210253633
 30
0.0
  0
VERTEX
  8
0
  6
CONTINUOUS
 62
         7
  5
1F2
 10
12.8548185572
 20
13.2483206487
 30
0.0
  0
VERTEX
  8
0
  6
CONTINUOUS
 62
         7
  5
1F3
 10
13.2792667746
 20
13.3060456062
 30
0.0
  0
VERTEX
  8
0
  6
CONTINUOUS
 62
         7
  5
1F4
 10
13.667561162
 20
13.3885963815
 30
0.0
  0
VERTEX
  8
0
  6
CONTINUOUS
 62
         7
  5
1F5
 10
14.0161088798
 20
13.4902561326
 30
0.0
  0
VERTEX
  8
0
  6
CONTINUOUS
 62
         7
  5
1F6
 10
14.3428723653
 20
13.613700116
 30
0.0
  0
VERTEX
  8
0
  6
CONTINUOUS
 62
         7
  5
1F7
 10
14.6608457219
 20
13.766571922
 30
0.0
  0
VERTEX
  8
0
  6
CONTINUOUS
 62
         7
  5
1F8
 10
14.9596572669
 20
13.9499335519
 30
0.0
  0
VERTEX
  8
0
  6
CONTINUOUS
 62
         7
  5
1F9
 10
15.2276473414
 20
14.1633330556
 30
0.0
  0
VERTEX
  8
0
  6
CONTINUOUS
 62
         7
  5
1FA
 10
15.452676044
 20
14.404435237
 30
0.0
  0
VERTEX
  8
0
  6
CONTINUOUS
 62
         7
  5
1FB
 10
15.5454279214
 20
14.5340770657
 30
0.0
  0
VERTEX
  8
0
  6
CONTINUOUS
 62
         7
  5
1FC
 10
15.623251737
 20
14.6688275611
 30
0.0
  0
VERTEX
  8
0
  6
CONTINUOUS
 62
         7
  5
1FD
 10
15.6850277987
 20
14.8078237001
 30
0.0
  0
VERTEX
  8
0
  6
CONTINUOUS
 62
         7
  5
1FE
 10
15.7298394498
 20
14.9501006921
 30
0.0
  0
VERTEX
  8
0
  6
CONTINUOUS
 62
         7
  5
1FF
 10
15.757006149
 20
15.0946124394
 30
0.0
  0
VERTEX
  8
0
  6
CONTINUOUS
 62
         7
  5
200
 10
15.7661088798
 20
15.2402561326
 30
0.0
  0
VERTEX
  8
0
  6
CONTINUOUS
 62
         7
  5
201
 10
15.757006149
 20
15.3858998257
 30
0.0
  0
VERTEX
  8
0
  6
CONTINUOUS
 62
         7
  5
202
 10
15.7298394498
 20
15.530411573
 30
0.0
  0
VERTEX
  8
0
  6
CONTINUOUS
 62
         7
  5
203
 10
15.6850277987
 20
15.672688565
 30
0.0
  0
VERTEX
  8
0
  6
CONTINUOUS
 62
         7
  5
204
 10
15.623251737
 20
15.811684704
 30
0.0
  0
VERTEX
  8
0
  6
CONTINUOUS
 62
         7
  5
205
 10
15.5454279214
 20
15.9464351994
 30
0.0
  0
VERTEX
  8
0
  6
CONTINUOUS
 62
         7
  5
206
 10
15.452676044
 20
16.0760770281
 30
0.0
  0
VERTEX
  8
0
  6
CONTINUOUS
 62
         7
  5
207
 10
15.3462802385
 20
16.1998644557
 30
0.0
  0
VERTEX
  8
0
  6
CONTINUOUS
 62
         7
  5
208
 10
15.2276473414
 20
16.3171792095
 30
0.0
  0
VERTEX
  8
0
  6
CONTINUOUS
 62
         7
  5
209
 10
14.9596572669
 20
16.5305787132
 30
0.0
  0
VERTEX
  8
0
  6
CONTINUOUS
 62
         7
  5
20A
 10
14.6608457219
 20
16.7139403431
 30
0.0
  0
VERTEX
  8
0
  6
CONTINUOUS
 62
         7
  5
20B
 10
14.3428723653
 20
16.8668121492
 30
0.0
  0
VERTEX
  8
0
  6
CONTINUOUS
 62
         7
  5
20C
 10
14.0161088798
 20
16.9902561326
 30
0.0
  0
VERTEX
  8
0
  6
CONTINUOUS
 62
         7
  5
20D
 10
13.667561162
 20
17.0919158836
 30
0.0
  0
VERTEX
  8
0
  6
CONTINUOUS
 62
         7
  5
20E
 10
13.2792667746
 20
17.1744666589
 30
0.0
  0
VERTEX
  8
0
  6
CONTINUOUS
 62
         7
  5
20F
 10
12.8548185572
 20
17.2321916164
 30
0.0
  0
VERTEX
  8
0
  6
CONTINUOUS
 62
         7
  5
210
 10
12.4007242644
 20
17.2594869018
 30
0.0
  0
VERTEX
  8
0
  6
CONTINUOUS
 62
         7
  5
211
 10
11.926556641
 20
17.2514501624
 30
0.0
  0
VERTEX
  8
0
  6
CONTINUOUS
 62
         7
  5
212
 10
11.4446803084
 20
17.2045418468
 30
0.0
  0
VERTEX
  8
0
  6
CONTINUOUS
 62
         7
  5
213
 10
10.9694767555
 20
17.1171991377
 30
0.0
  0
VERTEX
  8
0
  6
CONTINUOUS
 62
         7
  5
214
 10
10.5161088798
 20
16.9902561326
 30
0.0
  0
VERTEX
  8
0
  6
CONTINUOUS
 62
         7
  5
215
 10
10.0990104342
 20
16.8270436973
 30
0.0
  0
VERTEX
  8
0
  6
CONTINUOUS
 62
         7
  5
216
 10
9.7303945941
 20
16.6331132754
 30
0.0
  0
VERTEX
  8
0
  6
CONTINUOUS
 62
         7
  5
217
 10
9.4190939544
 20
16.4156292669
 30
0.0
  0
VERTEX
  8
0
  6
CONTINUOUS
 62
         7
  5
218
 10
9.1699550337
 20
16.1825638249
 30
0.0
  0
VERTEX
  8
0
  6
CONTINUOUS
 62
         7
  5
219
 10
8.9838508153
 20
15.9418690358
 30
0.0
  0
VERTEX
  8
0
  6
CONTINUOUS
 62
         7
  5
21A
 10
8.858214143
 20
15.7007824483
 30
0.0
  0
VERTEX
  8
0
  6
CONTINUOUS
 62
         7
  5
21B
 10
8.7878931122
 20
15.465359867
 30
0.0
  0
VERTEX
  8
0
  6
CONTINUOUS
 62
         7
  5
21C
 10
8.7661088798
 20
15.2402561326
 30
0.0
  0
SEQEND
  8
0
  6
CONTINUOUS
 62
         7
  5
21D
  0
POLYLINE
  8
0
  6
CONTINUOUS
 62
         7
  5
21E
 66
         1
 10
0.0
 20
0.0
 30
0.0
  0
VERTEX
  8
0
  6
CONTINUOUS
 62
         7
  5
21F
 10
9.0224439303
 20
14.4240147068
 30
0.0
  0
VERTEX
  8
0
  6
CONTINUOUS
 62
         7
  5
220
 10
9.1142221809
 20
14.2889920602
 30
0.0
  0
VERTEX
  8
0
  6
CONTINUOUS
 62
         7
  5
221
 10
9.2252683755
 20
14.1555312807
 30
0.0
  0
VERTEX
  8
0
  6
CONTINUOUS
 62
         7
  5
222
 10
9.3557123721
 20
14.0249461188
 30
0.0
  0
VERTEX
  8
0
  6
CONTINUOUS
 62
         7
  5
223
 10
9.5053338299
 20
13.8985944629
 30
0.0
  0
VERTEX
  8
0
  6
CONTINUOUS
 62
         7
  5
224
 10
9.673538996
 20
13.7778396922
 30
0.0
  0
VERTEX
  8
0
  6
CONTINUOUS
 62
         7
  5
225
 10
9.859352943
 20
13.6640081175
 30
0.0
  0
VERTEX
  8
0
  6
CONTINUOUS
 62
         7
  5
226
 10
10.0614293128
 20
13.5583449486
 30
0.0
  0
VERTEX
  8
0
  6
CONTINUOUS
 62
         7
  5
227
 10
10.2780782799
 20
13.4619716063
 30
0.0
  0
VERTEX
  8
0
  6
CONTINUOUS
 62
         7
  5
228
 10
10.5073118822
 20
13.3758472895
 30
0.0
  0
VERTEX
  8
0
  6
CONTINUOUS
 62
         7
  5
229
 10
10.7469042971
 20
13.3007374816
 30
0.0
  0
VERTEX
  8
0
  6
CONTINUOUS
 62
         7
  5
22A
 10
10.9944632691
 20
13.2371915389
 30
0.0
  0
VERTEX
  8
0
  6
CONTINUOUS
 62
         7
  5
22B
 10
11.2475079299
 20
13.1855307172
 30
0.0
  0
VERTEX
  8
0
  6
CONTINUOUS
 62
         7
  5
22C
 10
11.7601581065
 20
13.118012719
 30
0.0
  0
VERTEX
  8
0
  6
CONTINUOUS
 62
         7
  5
22D
 10
12.2661088798
 20
13.0963977489
 30
0.0
  0
VERTEX
  8
0
  6
CONTINUOUS
 62
         7
  5
22E
 10
12.7720596532
 20
13.118012719
 30
0.0
  0
VERTEX
  8
0
  6
CONTINUOUS
 62
         7
  5
22F
 10
13.2847098298
 20
13.1855307172
 30
0.0
  0
VERTEX
  8
0
  6
CONTINUOUS
 62
         7
  5
230
 10
13.7853134625
 20
13.3007374816
 30
0.0
  0
VERTEX
  8
0
  6
CONTINUOUS
 62
         7
  5
231
 10
14.0249058775
 20
13.3758472895
 30
0.0
  0
VERTEX
  8
0
  6
CONTINUOUS
 62
         7
  5
232
 10
14.2541394798
 20
13.4619716063
 30
0.0
  0
VERTEX
  8
0
  6
CONTINUOUS
 62
         7
  5
233
 10
14.4707884468
 20
13.5583449486
 30
0.0
  0
VERTEX
  8
0
  6
CONTINUOUS
 62
         7
  5
234
 10
14.6728648166
 20
13.6640081175
 30
0.0
  0
VERTEX
  8
0
  6
CONTINUOUS
 62
         7
  5
235
 10
14.8586787636
 20
13.7778396922
 30
0.0
  0
VERTEX
  8
0
  6
CONTINUOUS
 62
         7
  5
236
 10
15.0268839298
 20
13.8985944629
 30
0.0
  0
VERTEX
  8
0
  6
CONTINUOUS
 62
         7
  5
237
 10
15.1765053876
 20
14.0249461188
 30
0.0
  0
VERTEX
  8
0
  6
CONTINUOUS
 62
         7
  5
238
 10
15.3069493841
 20
14.1555312807
 30
0.0
  0
VERTEX
  8
0
  6
CONTINUOUS
 62
         7
  5
239
 10
15.4179955788
 20
14.2889920602
 30
0.0
  0
VERTEX
  8
0
  6
CONTINUOUS
 62
         7
  5
23A
 10
15.5097738293
 20
14.4240147068
 30
0.0
  0
SEQEND
  8
0
  6
CONTINUOUS
 62
         7
  5
23B
  0
POLYLINE
  8
0
  6
CONTINUOUS
 62
         7
  5
23C
 66
         1
 10
0.0
 20
0.0
 30
0.0
 70
         1
  0
VERTEX
  8
0
  6
CONTINUOUS
 62
         7
  5
23D
 10
12.7971088798
 20
15.4954113141
 30
0.0
  0
VERTEX
  8
0
  6
CONTINUOUS
 62
         7
  5
23E
 10
12.7831351956
 20
15.5652797351
 30
0.0
  0
VERTEX
  8
0
  6
CONTINUOUS
 62
         7
  5
23F
 10
12.7358396491
 20
15.6383728526
 30
0.0
  0
VERTEX
  8
0
  6
CONTINUOUS
 62
         7
  5
240
 10
12.6508129615
 20
15.7067276406
 30
0.0
  0
VERTEX
  8
0
  6
CONTINUOUS
 62
         7
  5
241
 10
12.5316088798
 20
15.7609113141
 30
0.0
  0
VERTEX
  8
0
  6
CONTINUOUS
 62
         7
  5
242
 10
12.3907313288
 20
15.7934215182
 30
0.0
  0
VERTEX
  8
0
  6
CONTINUOUS
 62
         7
  5
243
 10
12.2456858029
 20
15.8017574679
 30
0.0
  0
VERTEX
  8
0
  6
CONTINUOUS
 62
         7
  5
244
 10
12.1123983535
 20
15.7888586825
 30
0.0
  0
VERTEX
  8
0
  6
CONTINUOUS
 62
         7
  5
245
 10
12.0006088798
 20
15.7609113141
 30
0.0
  0
VERTEX
  8
0
  6
CONTINUOUS
 62
         7
  5
246
 10
11.9027930903
 20
15.7189902615
 30
0.0
  0
VERTEX
  8
0
  6
CONTINUOUS
 62
         7
  5
247
 10
11.8168011875
 20
15.6587959295
 30
0.0
  0
VERTEX
  8
0
  6
CONTINUOUS
 62
         7
  5
248
 10
11.7567823492
 20
15.5821051916
 30
0.0
  0
VERTEX
  8
0
  6
CONTINUOUS
 62
         7
  5
249
 10
11.7351088798
 20
15.4954113141
 30
0.0
  0
VERTEX
  8
0
  6
CONTINUOUS
 62
         7
  5
24A
 10
11.7567823492
 20
15.4087174365
 30
0.0
  0
VERTEX
  8
0
  6
CONTINUOUS
 62
         7
  5
24B
 10
11.8168011875
 20
15.3320266987
 30
0.0
  0
VERTEX
  8
0
  6
CONTINUOUS
 62
         7
  5
24C
 10
11.9027930903
 20
15.2718323667
 30
0.0
  0
VERTEX
  8
0
  6
CONTINUOUS
 62
         7
  5
24D
 10
12.0006088798
 20
15.2299113141
 30
0.0
  0
VERTEX
  8
0
  6
CONTINUOUS
 62
         7
  5
24E
 10
12.1123983535
 20
15.2019639457
 30
0.0
  0
VERTEX
  8
0
  6
CONTINUOUS
 62
         7
  5
24F
 10
12.2456858029
 20
15.1890651603
 30
0.0
  0
VERTEX
  8
0
  6
CONTINUOUS
 62
         7
  5
250
 10
12.3907313288
 20
15.19740111
 30
0.0
  0
VERTEX
  8
0
  6
CONTINUOUS
 62
         7
  5
251
 10
12.5316088798
 20
15.2299113141
 30
0.0
  0
VERTEX
  8
0
  6
CONTINUOUS
 62
         7
  5
252
 10
12.6508129615
 20
15.2840949876
 30
0.0
  0
VERTEX
  8
0
  6
CONTINUOUS
 62
         7
  5
253
 10
12.7358396491
 20
15.3524497756
 30
0.0
  0
VERTEX
  8
0
  6
CONTINUOUS
 62
         7
  5
254
 10
12.7831351956
 20
15.425542893
 30
0.0
  0
VERTEX
  8
0
  6
CONTINUOUS
 62
         7
  5
255
 10
12.7971088798
 20
15.4954113141
 30
0.0
  0
SEQEND
  8
0
  6
CONTINUOUS
 62
         7
  5
256
  0
LINE
  8
0
  6
CONTINUOUS
 62
         7
  5
257
 10
12.6962611784
 20
15.4682758514
 30
0.0
 11
12.6962611784
 21
15.5225467767
 31
0.0
  0
POLYLINE
  8
0
  6
CONTINUOUS
 62
         7
  5
258
 66
         1
 10
0.0
 20
0.0
 30
0.0
  0
VERTEX
  8
0
  6
CONTINUOUS
 62
         7
  5
259
 10
11.8359565812
 20
15.5225467767
 30
0.0
  0
VERTEX
  8
0
  6
CONTINUOUS
 62
         7
  5
25A
 10
12.0475910751
 20
15.4841730966
 30
0.0
  0
VERTEX
  8
0
  6
CONTINUOUS
 62
         7
  5
25B
 10
12.2661088798
 20
15.4711074922
 30
0.0
  0
VERTEX
  8
0
  6
CONTINUOUS
 62
         7
  5
25C
 10
12.4846266846
 20
15.4841730966
 30
0.0
  0
VERTEX
  8
0
  6
CONTINUOUS
 62
         7
  5
25D
 10
12.6962611784
 20
15.5225467767
 30
0.0
  0
SEQEND
  8
0
  6
CONTINUOUS
 62
         7
  5
25E
  0
LINE
  8
0
  6
CONTINUOUS
 62
         7
  5
25F
 10
11.8359565812
 20
15.4682758514
 30
0.0
 11
11.8359565812
 21
15.5225467767
 31
0.0
  0
LINE
  8
0
  6
CONTINUOUS
 62
         7
  5
260
 10
12.6962611784
 20
15.4682758514
 30
0.0
 11
11.8359565812
 21
15.4682758514
 31
0.0
  0
LINE
  8
0
  6
CONTINUOUS
 62
         7
  5
261
 10
12.6962611784
 20
15.5225467767
 30
0.0
 11
11.8359565812
 21
15.5225467767
 31
0.0
  0
LINE
  8
0
  6
CONTINUOUS
 62
         7
  5
262
 10
11.890635179
 20
15.2786314719
 30
0.0
 11
11.9306039168
 21
15.2555555103
 31
0.0
  0
LINE
  8
0
  6
CONTINUOUS
 62
         7
  5
263
 10
12.6016138428
 20
15.2555555103
 30
0.0
 11
12.6415825806
 21
15.2786314719
 31
0.0
  0
LINE
  8
0
  6
CONTINUOUS
 62
         7
  5
264
 10
11.040692828
 20
15.8591605409
 30
0.0
 11
11.0762947943
 21
15.8386057361
 31
0.0
  0
LINE
  8
0
  6
CONTINUOUS
 62
         7
  5
265
 10
11.6004747715
 20
15.8386057361
 30
0.0
 11
11.6360767378
 21
15.8591605409
 31
0.0
  0
LINE
  8
0
  6
CONTINUOUS
 62
         7
  5
266
 10
11.3853847829
 20
15.8301236803
 30
0.0
 11
11.2913847829
 21
15.8301236803
 31
0.0
  0
LINE
  8
0
  6
CONTINUOUS
 62
         7
  5
267
 10
11.2913847829
 20
16.231942462
 30
0.0
 11
11.2913847829
 21
15.8301236803
 31
0.0
  0
LINE
  8
0
  6
CONTINUOUS
 62
         7
  5
268
 10
11.3853847829
 20
16.231942462
 30
0.0
 11
11.2913847829
 21
16.231942462
 31
0.0
  0
LINE
  8
0
  6
CONTINUOUS
 62
         7
  5
269
 10
11.3853847829
 20
16.231942462
 30
0.0
 11
11.3853847829
 21
15.8301236803
 31
0.0
  0
POLYLINE
  8
0
  6
CONTINUOUS
 62
         7
  5
26A
 66
         1
 10
0.0
 20
0.0
 30
0.0
 70
         1
  0
VERTEX
  8
0
  6
CONTINUOUS
 62
         7
  5
26B
 10
11.7593847829
 20
16.0310330712
 30
0.0
  0
VERTEX
  8
0
  6
CONTINUOUS
 62
         7
  5
26C
 10
11.7483058355
 20
16.086427808
 30
0.0
  0
VERTEX
  8
0
  6
CONTINUOUS
 62
         7
  5
26D
 10
11.7108078598
 20
16.144379225
 30
0.0
  0
VERTEX
  8
0
  6
CONTINUOUS
 62
         7
  5
26E
 10
11.643394987
 20
16.1985738875
 30
0.0
  0
VERTEX
  8
0
  6
CONTINUOUS
 62
         7
  5
26F
 10
11.5488847829
 20
16.2415330712
 30
0.0
  0
VERTEX
  8
0
  6
CONTINUOUS
 62
         7
  5
270
 10
11.4371909054
 20
16.2673085814
 30
0.0
  0
VERTEX
  8
0
  6
CONTINUOUS
 62
         7
  5
271
 10
11.3221924752
 20
16.2739176866
 30
0.0
  0
VERTEX
  8
0
  6
CONTINUOUS
 62
         7
  5
272
 10
11.2165163619
 20
16.2636909659
 30
0.0
  0
VERTEX
  8
0
  6
CONTINUOUS
 62
         7
  5
273
 10
11.1278847829
 20
16.2415330712
 30
0.0
  0
VERTEX
  8
0
  6
CONTINUOUS
 62
         7
  5
274
 10
11.0503321513
 20
16.2082962291
 30
0.0
  0
VERTEX
  8
0
  6
CONTINUOUS
 62
         7
  5
275
 10
10.9821540137
 20
16.1605715327
 30
0.0
  0
VERTEX
  8
0
  6
CONTINUOUS
 62
         7
  5
276
 10
10.9345684564
 20
16.0997677651
 30
0.0
  0
VERTEX
  8
0
  6
CONTINUOUS
 62
         7
  5
277
 10
10.9173847829
 20
16.0310330712
 30
0.0
  0
VERTEX
  8
0
  6
CONTINUOUS
 62
         7
  5
278
 10
10.9345684564
 20
15.9622983773
 30
0.0
  0
VERTEX
  8
0
  6
CONTINUOUS
 62
         7
  5
279
 10
10.9821540137
 20
15.9014946096
 30
0.0
  0
VERTEX
  8
0
  6
CONTINUOUS
 62
         7
  5
27A
 10
11.0503321513
 20
15.8537699133
 30
0.0
  0
VERTEX
  8
0
  6
CONTINUOUS
 62
         7
  5
27B
 10
11.1278847829
 20
15.8205330712
 30
0.0
  0
VERTEX
  8
0
  6
CONTINUOUS
 62
         7
  5
27C
 10
11.2165163619
 20
15.7983751764
 30
0.0
  0
VERTEX
  8
0
  6
CONTINUOUS
 62
         7
  5
27D
 10
11.3221924752
 20
15.7881484558
 30
0.0
  0
VERTEX
  8
0
  6
CONTINUOUS
 62
         7
  5
27E
 10
11.4371909054
 20
15.794757561
 30
0.0
  0
VERTEX
  8
0
  6
CONTINUOUS
 62
         7
  5
27F
 10
11.5488847829
 20
15.8205330712
 30
0.0
  0
VERTEX
  8
0
  6
CONTINUOUS
 62
         7
  5
280
 10
11.643394987
 20
15.8634922549
 30
0.0
  0
VERTEX
  8
0
  6
CONTINUOUS
 62
         7
  5
281
 10
11.7108078598
 20
15.9176869173
 30
0.0
  0
VERTEX
  8
0
  6
CONTINUOUS
 62
         7
  5
282
 10
11.7483058355
 20
15.9756383343
 30
0.0
  0
VERTEX
  8
0
  6
CONTINUOUS
 62
         7
  5
283
 10
11.7593847829
 20
16.0310330712
 30
0.0
  0
SEQEND
  8
0
  6
CONTINUOUS
 62
         7
  5
284
  0
LINE
  8
0
  6
CONTINUOUS
 62
         7
  5
285
 10
13.4559229654
 20
14.7673622219
 30
0.0
 11
13.4915249316
 21
14.7879170267
 31
0.0
  0
LINE
  8
0
  6
CONTINUOUS
 62
         7
  5
286
 10
13.2408329767
 20
14.7588801662
 30
0.0
 11
13.1468329767
 21
14.7588801662
 31
0.0
  0
LINE
  8
0
  6
CONTINUOUS
 62
         7
  5
287
 10
13.1468329767
 20
15.1606989479
 30
0.0
 11
13.1468329767
 21
14.7588801662
 31
0.0
  0
LINE
  8
0
  6
CONTINUOUS
 62
         7
  5
288
 10
13.2408329767
 20
15.1606989479
 30
0.0
 11
13.2408329767
 21
14.7588801662
 31
0.0
  0
LINE
  8
0
  6
CONTINUOUS
 62
         7
  5
289
 10
13.2408329767
 20
15.1606989479
 30
0.0
 11
13.1468329767
 21
15.1606989479
 31
0.0
  0
POLYLINE
  8
0
  6
CONTINUOUS
 62
         7
  5
28A
 66
         1
 10
0.0
 20
0.0
 30
0.0
 70
         1
  0
VERTEX
  8
0
  6
CONTINUOUS
 62
         7
  5
28B
 10
13.6148329767
 20
14.959789557
 30
0.0
  0
VERTEX
  8
0
  6
CONTINUOUS
 62
         7
  5
28C
 10
13.6037540294
 20
15.0151842939
 30
0.0
  0
VERTEX
  8
0
  6
CONTINUOUS
 62
         7
  5
28D
 10
13.5662560537
 20
15.0731357109
 30
0.0
  0
VERTEX
  8
0
  6
CONTINUOUS
 62
         7
  5
28E
 10
13.4988431808
 20
15.1273303733
 30
0.0
  0
VERTEX
  8
0
  6
CONTINUOUS
 62
         7
  5
28F
 10
13.4043329767
 20
15.170289557
 30
0.0
  0
VERTEX
  8
0
  6
CONTINUOUS
 62
         7
  5
290
 10
13.2926390992
 20
15.1960650672
 30
0.0
  0
VERTEX
  8
0
  6
CONTINUOUS
 62
         7
  5
291
 10
13.177640669
 20
15.2026741724
 30
0.0
  0
VERTEX
  8
0
  6
CONTINUOUS
 62
         7
  5
292
 10
13.0719645557
 20
15.1924474517
 30
0.0
  0
VERTEX
  8
0
  6
CONTINUOUS
 62
         7
  5
293
 10
12.9833329767
 20
15.170289557
 30
0.0
  0
VERTEX
  8
0
  6
CONTINUOUS
 62
         7
  5
294
 10
12.9057803452
 20
15.1370527149
 30
0.0
  0
VERTEX
  8
0
  6
CONTINUOUS
 62
         7
  5
295
 10
12.8376022075
 20
15.0893280185
 30
0.0
  0
VERTEX
  8
0
  6
CONTINUOUS
 62
         7
  5
296
 10
12.7900166502
 20
15.0285242509
 30
0.0
  0
VERTEX
  8
0
  6
CONTINUOUS
 62
         7
  5
297
 10
12.7728329767
 20
14.959789557
 30
0.0
  0
VERTEX
  8
0
  6
CONTINUOUS
 62
         7
  5
298
 10
12.7900166502
 20
14.8910548631
 30
0.0
  0
VERTEX
  8
0
  6
CONTINUOUS
 62
         7
  5
299
 10
12.8376022075
 20
14.8302510955
 30
0.0
  0
VERTEX
  8
0
  6
CONTINUOUS
 62
         7
  5
29A
 10
12.9057803452
 20
14.7825263991
 30
0.0
  0
VERTEX
  8
0
  6
CONTINUOUS
 62
         7
  5
29B
 10
12.9833329767
 20
14.749289557
 30
0.0
  0
VERTEX
  8
0
  6
CONTINUOUS
 62
         7
  5
29C
 10
13.0719645557
 20
14.7271316623
 30
0.0
  0
VERTEX
  8
0
  6
CONTINUOUS
 62
         7
  5
29D
 10
13.177640669
 20
14.7169049416
 30
0.0
  0
VERTEX
  8
0
  6
CONTINUOUS
 62
         7
  5
29E
 10
13.2926390992
 20
14.7235140468
 30
0.0
  0
VERTEX
  8
0
  6
CONTINUOUS
 62
         7
  5
29F
 10
13.4043329767
 20
14.749289557
 30
0.0
  0
VERTEX
  8
0
  6
CONTINUOUS
 62
         7
  5
2A0
 10
13.4988431808
 20
14.7922487407
 30
0.0
  0
VERTEX
  8
0
  6
CONTINUOUS
 62
         7
  5
2A1
 10
13.5662560537
 20
14.8464434032
 30
0.0
  0
VERTEX
  8
0
  6
CONTINUOUS
 62
         7
  5
2A2
 10
13.6037540294
 20
14.9043948202
 30
0.0
  0
VERTEX
  8
0
  6
CONTINUOUS
 62
         7
  5
2A3
 10
13.6148329767
 20
14.959789557
 30
0.0
  0
SEQEND
  8
0
  6
CONTINUOUS
 62
         7
  5
2A4
  0
LINE
  8
0
  6
CONTINUOUS
 62
         7
  5
2A5
 10
12.8961410219
 20
14.7879170267
 30
0.0
 11
12.9317429881
 21
14.7673622219
 31
0.0
  0
ENDBLK
  8
0
  6
CONTINUOUS
 62
         7
  5
2A6
  0
ENDSEC
  0
SECTION
  2
ENTITIES
  0
TEXT
  8
DEFAULT
  6
CONTINUOUS
 62
         7
  5
38
 10
7.0829816101
 20
2.3927508951
 30
0.0
 40
0.25
  1
SYSTEM: POKE THRU
  7
ARIAL_TTF
 11
7.0829816101
 21
2.6427508951
 31
0.0
 73
         3
  0
TEXT
  8
DEFAULT
  6
CONTINUOUS
 62
         7
  5
39
 10
6.2623294362
 20
2.0014465473
 30
0.0
 40
0.25
  1
CATALOG NUMBER: RC7CFFTC
  7
ARIAL_TTF
 11
6.2623294362
 21
2.2514465473
 31
0.0
 73
         3
  0
LINE
  8
HIDE
  6
CONTINUOUS
 62
         7
  5
3A
 10
12.465606558
 20
6.2502578953
 30
0.0
 11
12.465606558
 21
6.4293970091
 31
0.0
  0
INSERT
  8
DEFAULT
 62
         0
 48
0.0
  5
3E
  2
*X0
 10
0.0
 20
0.0
 30
0.0
  0
INSERT
  8
0
 62
         0
 48
0.0
  5
41
  2
*X1
 10
0.0
 20
0.0
 30
0.0
  0
INSERT
  8
0
 62
         0
 48
0.0
  5
44
  2
*X3
 10
0.0
 20
0.0
 30
0.0
  0
INSERT
  8
0
 62
         0
 48
0.0
  5
47
  2
*X5
 10
0.0
 20
0.0
 30
0.0
  0
ENDSEC
  0
EOF
