  0
SECTION
  2
HEADER
  9
$ACADVER
  1
AC1009
  9
$INSBASE
 10
0.0
 20
0.0
 30
0.0
  9
$EXTMIN
 10
-0.0773993165
 20
0.0
 30
0.0
  9
$EXTMAX
 10
34.0
 20
22.0
 30
0.0
  9
$LIMMIN
 10
0.0
 20
0.0
  9
$LIMMAX
 10
12.0
 20
9.0
  9
$ORTHOMODE
 70
         0
  9
$REGENMODE
 70
         1
  9
$FILLMODE
 70
         1
  9
$QTEXTMODE
 70
         0
  9
$MIRRTEXT
 70
         1
  9
$DRAGMODE
 70
         2
  9
$LTSCALE
 40
1.0
  9
$OSMODE
 70
         0
  9
$ATTMODE
 70
         1
  9
$TEXTSIZE
 40
0.2
  9
$TRACEWID
 40
0.05
  9
$TEXTSTYLE
  7
STANDARD
  9
$CLAYER
  8
0
  9
$CELTYPE
  6
CONTINUOUS
  9
$CECOLOR
 62
       256
  9
$DIMSCALE
 40
1.0
  9
$DIMASZ
 40
0.18
  9
$DIMEXO
 40
0.0625
  9
$DIMDLI
 40
0.38
  9
$DIMRND
 40
0.0
  9
$DIMDLE
 40
0.0
  9
$DIMEXE
 40
0.18
  9
$DIMTP
 40
0.0
  9
$DIMTM
 40
0.0
  9
$DIMTXT
 40
0.18
  9
$DIMCEN
 40
0.09
  9
$DIMTSZ
 40
0.0
  9
$DIMTOL
 70
         0
  9
$DIMLIM
 70
         0
  9
$DIMTIH
 70
         1
  9
$DIMTOH
 70
         1
  9
$DIMSE1
 70
         0
  9
$DIMSE2
 70
         0
  9
$DIMTAD
 70
         0
  9
$DIMZIN
 70
         0
  9
$DIMBLK
  1

  9
$DIMASO
 70
         1
  9
$DIMSHO
 70
         1
  9
$DIMPOST
  1

  9
$DIMAPOST
  1

  9
$DIMALT
 70
         0
  9
$DIMALTD
 70
         2
  9
$DIMALTF
 40
25.4
  9
$DIMLFAC
 40
1.0
  9
$DIMTOFL
 70
         0
  9
$DIMTVP
 40
0.0
  9
$DIMTIX
 70
         0
  9
$DIMSOXD
 70
         0
  9
$DIMSAH
 70
         0
  9
$DIMBLK1
  1

  9
$DIMBLK2
  1

  9
$DIMSTYLE
  2
STANDARD
  9
$DIMCLRD
 70
         0
  9
$DIMCLRE
 70
         0
  9
$DIMCLRT
 70
         0
  9
$DIMTFAC
 40
1.0
  9
$DIMGAP
 40
0.09
  9
$LUNITS
 70
         2
  9
$LUPREC
 70
         4
  9
$AXISMODE
 70
         0
  9
$AXISUNIT
 10
0.0
 20
0.0
  9
$SKETCHINC
 40
0.1
  9
$FILLETRAD
 40
0.0
  9
$AUNITS
 70
         0
  9
$AUPREC
 70
         0
  9
$MENU
  1
acad
  9
$ELEVATION
 40
0.0
  9
$PELEVATION
 40
0.0
  9
$THICKNESS
 40
0.0
  9
$LIMCHECK
 70
         0
  9
$BLIPMODE
 70
         1
  9
$CHAMFERA
 40
0.0
  9
$CHAMFERB
 40
0.0
  9
$SKPOLY
 70
         0
  9
$TDCREATE
 40
0.000000000
  9
$TDUPDATE
 40
0.000000000
  9
$TDINDWG
 40
0.0000000000
  9
$TDUSRTIMER
 40
0.0000000000
  9
$USRTIMER
 70
         1
  9
$ANGBASE
 50
0.0
  9
$ANGDIR
 70
         0
  9
$PDMODE
 70
         0
  9
$PDSIZE
 40
0.0
  9
$PLINEWID
 40
0.0
  9
$COORDS
 70
         0
  9
$SPLFRAME
 70
         0
  9
$SPLINETYPE
 70
         6
  9
$SPLINESEGS
 70
         8
  9
$ATTDIA
 70
         0
  9
$ATTREQ
 70
         1
  9
$HANDLING
 70
         1
  9
$HANDSEED
  5
38B
  9
$SURFTAB1
 70
         6
  9
$SURFTAB2
 70
         6
  9
$SURFTYPE
 70
         6
  9
$SURFU
 70
         6
  9
$SURFV
 70
         6
  9
$UCSNAME
  2

  9
$UCSORG
 10
0.0
 20
0.0
 30
0.0
  9
$UCSXDIR
 10
1.0
 20
0.0
 30
0.0
  9
$UCSYDIR
 10
0.0
 20
1.0
 30
0.0
  9
$PUCSNAME
  2

  9
$PUCSORG
 10
0.0
 20
0.0
 30
0.0
  9
$PUCSXDIR
 10
1.0
 20
0.0
 30
0.0
  9
$PUCSYDIR
 10
0.0
 20
1.0
 30
0.0
  9
$USERI1
 70
         0
  9
$USERI2
 70
         0
  9
$USERI3
 70
         0
  9
$USERI4
 70
         0
  9
$USERI5
 70
         0
  9
$USERR1
 40
0.0
  9
$USERR2
 40
0.0
  9
$USERR3
 40
0.0
  9
$USERR4
 40
0.0
  9
$USERR5
 40
0.0
  9
$WORLDVIEW
 70
         1
  9
$SHADEDGE
 70
         3
  9
$SHADEDIF
 70
        70
  9
$TILEMODE
 70
         1
  9
$MAXACTVP
 70
        16
  9
$PINSBASE
 10
0.0
 20
0.0
 30
0.0
  9
$PLIMCHECK
 70
         0
  9
$PEXTMIN
 10
1.0000000000E+20
 20
1.0000000000E+20
 30
1.0000000000E+20
  9
$PEXTMAX
 10
-1.0000000000E+20
 20
-1.0000000000E+20
 30
-1.0000000000E+20
  9
$PLIMMIN
 10
0.0
 20
0.0
  9
$PLIMMAX
 10
12.0
 20
9.0
  9
$UNITMODE
 70
         0
  9
$VISRETAIN
 70
         0
  9
$PLINEGEN
 70
         1
  9
$PSLTSCALE
 70
         0
  9
$TREEDEPTH
 70
      3020
  9
$DWGCODEPAGE
  3
ansi_1252
  0
ENDSEC
  0
SECTION
  2
TABLES
  0
TABLE
  2
VPORT
 70
         1
  0
VPORT
  2
*ACTIVE
 70
         0
 10
0.0
 20
0.0
 11
1.0
 21
1.0
 12
16.9613003418
 22
11.0
 13
0.0
 23
0.0
 14
1.0
 24
1.0
 15
0.0
 25
0.0
 16
0.0
 26
0.0
 36
1.0
 17
0.0
 27
0.0
 37
0.0
 40
22.0
 41
1.604229
 42
50.0
 43
0.0
 44
0.0
 50
0.0
 51
0.0
 71
         0
 72
       100
 73
         1
 74
         1
 75
         0
 76
         0
 77
         0
 78
         0
  0
ENDTAB
  0
TABLE
  2
LTYPE
 70
         5
  0
LTYPE
  2
CONTINUOUS
 70
         0
  3
Solid line
 72
        65
 73
         0
 40
0.0
  0
LTYPE
  2
HIDDEN2
 70
        64
  3
_ _ _ _ _ _ _ _ _ _ _ _ _ _ _ _ _ _ _ _ _ _ _ _
 72
        65
 73
         2
 40
0.1875
 49
0.125
 49
-0.0625
  0
LTYPE
  2
CENTER2
 70
        64
  3
___ _ ___ _ ___ _ ___ _ ___ _ ___ _ ___ _ ___ _
 72
        65
 73
         4
 40
1.125
 49
0.75
 49
-0.125
 49
0.125
 49
-0.125
  0
LTYPE
  2
PHANTOM2
 70
        64
  3
___ _ _ ___ _ _ ___ _ _ ___ _ _ ___ _ _ ___ _ _
 72
        65
 73
         6
 40
1.25
 49
0.625
 49
-0.125
 49
0.125
 49
-0.125
 49
0.125
 49
-0.125
  0
LTYPE
  2
DOT2
 70
        64
  3
...............................................
 72
        65
 73
         2
 40
0.125
 49
0.0
 49
-0.125
  0
ENDTAB
  0
TABLE
  2
LAYER
 70
         2
  0
LAYER
  2
0
 70
         0
 62
         7
  6
CONTINUOUS
  0
LAYER
  2
DEFAULT
 70
         0
 62
         7
  6
CONTINUOUS
  0
ENDTAB
  0
TABLE
  2
STYLE
 70
         2
  0
STYLE
  2
STANDARD
 70
         0
 40
0.0
 41
1.0
 50
0.0
 71
         0
 42
0.2
  3
txt
  4

  0
STYLE
  2
ARIAL_TTF
 70
         0
 40
0.0
 41
1.0
 50
0.0
 71
         0
 42
0.2
  3
arial.ttf
  4

  0
ENDTAB
  0
TABLE
  2
VIEW
 70
         0
  0
ENDTAB
  0
TABLE
  2
UCS
 70
         0
  0
ENDTAB
  0
TABLE
  2
APPID
 70
         1
  0
APPID
  2
ACAD
 70
         0
  0
ENDTAB
  0
TABLE
  2
DIMSTYLE
 70
         1
  0
DIMSTYLE
  2
STANDARD
 70
         0
  3

  4

  5

  6

  7

 40
1.0
 41
0.18
 42
0.0625
 43
0.38
 44
0.18
 45
0.0
 46
0.0
 47
0.0
 48
0.0
 71
         0
 72
         0
 73
         1
 74
         1
 75
         0
 76
         0
 77
         0
 78
         0
140
0.18
141
0.09
142
0.0
143
25.4
144
1.0
145
0.0
146
1.0
147
0.09
170
         0
171
         2
172
         0
173
         0
174
         0
175
         0
176
         0
177
         0
178
         0
  0
ENDTAB
  0
ENDSEC
  0
SECTION
  2
BLOCKS
  0
BLOCK
  8
0
 62
         1
 48
0.0
  5
3C
  2
*X0
 70
         1
 10
0.0
 20
0.0
 30
0.0
  3
*X0
  0
LINE
  8
0
  6
CONTINUOUS
 62
         7
  5
3D
 10
2.2197793421
 20
2.9768839634
 30
0.0
 11
2.2722793421
 21
2.9768839634
 31
0.0
  0
LINE
  8
0
  6
CONTINUOUS
 62
         7
  5
3E
 10
2.8972793421
 20
2.9768839634
 30
0.0
 11
2.9497793421
 21
2.9768839634
 31
0.0
  0
LINE
  8
0
  6
CONTINUOUS
 62
         7
  5
3F
 10
2.2197793421
 20
2.9768839634
 30
0.0
 11
2.2197793421
 21
3.0218839634
 31
0.0
  0
LINE
  8
0
  6
CONTINUOUS
 62
         7
  5
40
 10
2.9497793421
 20
2.9768839634
 30
0.0
 11
2.9497793421
 21
3.0218839634
 31
0.0
  0
POLYLINE
  8
0
  6
CONTINUOUS
 62
         7
  5
41
 66
         1
 10
0.0
 20
0.0
 30
0.0
  0
VERTEX
  8
0
  6
CONTINUOUS
 62
         7
  5
42
 10
3.1926508667
 20
2.9427494334
 30
0.0
  0
VERTEX
  8
0
  6
CONTINUOUS
 62
         7
  5
43
 10
3.2017793421
 20
2.9468795233
 30
0.0
  0
SEQEND
  8
0
  6
CONTINUOUS
 62
         7
  5
44
  0
POLYLINE
  8
0
  6
CONTINUOUS
 62
         7
  5
45
 66
         1
 10
0.0
 20
0.0
 30
0.0
  0
VERTEX
  8
0
  6
CONTINUOUS
 62
         7
  5
46
 10
3.2667793421
 20
2.9018839634
 30
0.0
  0
VERTEX
  8
0
  6
CONTINUOUS
 62
         7
  5
47
 10
3.2576508667
 20
2.9018915691
 30
0.0
  0
SEQEND
  8
0
  6
CONTINUOUS
 62
         7
  5
48
  0
ARC
  8
0
  6
CONTINUOUS
 62
         7
  5
49
 10
3.2348436869
 20
2.9175845272
 30
0.0
 40
0.0253982447
 50
329.6318646507
 51
352.8042611156
  0
POLYLINE
  8
0
  6
CONTINUOUS
 62
         7
  5
4A
 66
         1
 10
0.0
 20
0.0
 30
0.0
  0
VERTEX
  8
0
  6
CONTINUOUS
 62
         7
  5
4B
 10
3.2281534571
 20
2.9072468431
 30
0.0
  0
VERTEX
  8
0
  6
CONTINUOUS
 62
         7
  5
4C
 10
3.2317952885
 20
2.9168680171
 30
0.0
  0
SEQEND
  8
0
  6
CONTINUOUS
 62
         7
  5
4D
  0
LINE
  8
0
  6
CONTINUOUS
 62
         7
  5
4E
 10
3.2667793421
 20
2.9018839634
 30
0.0
 11
3.2667793421
 21
2.8768839634
 31
0.0
  0
ARC
  8
0
  6
CONTINUOUS
 62
         7
  5
4F
 10
3.2517793421
 20
2.9018839634
 30
0.0
 40
0.015
 50
0.0
 51
56.5755536539
  0
LINE
  8
0
  6
CONTINUOUS
 62
         7
  5
50
 10
3.2600276337
 20
2.9144125581
 30
0.0
 11
3.2600418955
 21
2.9144031571
 31
0.0
  0
LINE
  8
0
  6
CONTINUOUS
 62
         7
  5
51
 10
1.9027793421
 20
2.8768839634
 30
0.0
 11
1.9027793421
 21
2.9018839634
 31
0.0
  0
ARC
  8
0
  6
CONTINUOUS
 62
         7
  5
52
 10
1.9177793421
 20
2.9018839634
 30
0.0
 40
0.015
 50
123.4244463461
 51
180.0
  0
LINE
  8
0
  6
CONTINUOUS
 62
         7
  5
53
 10
1.9095167887
 20
2.9144031571
 30
0.0
 11
1.9095310505
 21
2.9144125581
 31
0.0
  0
POLYLINE
  8
0
  6
CONTINUOUS
 62
         7
  5
54
 66
         1
 10
0.0
 20
0.0
 30
0.0
  0
VERTEX
  8
0
  6
CONTINUOUS
 62
         7
  5
55
 10
1.9119078175
 20
2.9018915691
 30
0.0
  0
VERTEX
  8
0
  6
CONTINUOUS
 62
         7
  5
56
 10
1.9027793421
 20
2.9018839634
 30
0.0
  0
SEQEND
  8
0
  6
CONTINUOUS
 62
         7
  5
57
  0
ARC
  8
0
  6
CONTINUOUS
 62
         7
  5
58
 10
1.9347149973
 20
2.9175845272
 30
0.0
 40
0.0253982447
 50
187.1957388845
 51
210.3681353492
  0
POLYLINE
  8
0
  6
CONTINUOUS
 62
         7
  5
59
 66
         1
 10
0.0
 20
0.0
 30
0.0
  0
VERTEX
  8
0
  6
CONTINUOUS
 62
         7
  5
5A
 10
1.9377633958
 20
2.9168680171
 30
0.0
  0
VERTEX
  8
0
  6
CONTINUOUS
 62
         7
  5
5B
 10
1.9414052271
 20
2.9072468431
 30
0.0
  0
SEQEND
  8
0
  6
CONTINUOUS
 62
         7
  5
5C
  0
POLYLINE
  8
0
  6
CONTINUOUS
 62
         7
  5
5D
 66
         1
 10
0.0
 20
0.0
 30
0.0
  0
VERTEX
  8
0
  6
CONTINUOUS
 62
         7
  5
5E
 10
1.9677793421
 20
2.9468795233
 30
0.0
  0
VERTEX
  8
0
  6
CONTINUOUS
 62
         7
  5
5F
 10
1.9769078175
 20
2.9427494334
 30
0.0
  0
SEQEND
  8
0
  6
CONTINUOUS
 62
         7
  5
60
  0
LINE
  8
0
  6
CONTINUOUS
 62
         7
  5
61
 10
2.2197793421
 20
3.2268839634
 30
0.0
 11
2.2197793421
 21
3.1018839634
 31
0.0
  0
LINE
  8
0
  6
CONTINUOUS
 62
         7
  5
62
 10
2.9497793421
 20
3.2268839634
 30
0.0
 11
2.9497793421
 21
3.1018839634
 31
0.0
  0
LINE
  8
0
  6
CONTINUOUS
 62
         7
  5
63
 10
2.9497793421
 20
3.1018839634
 30
0.0
 11
3.2517793421
 21
3.1018839634
 31
0.0
  0
LINE
  8
0
  6
CONTINUOUS
 62
         7
  5
64
 10
1.9177793421
 20
3.1018839634
 30
0.0
 11
2.2197793421
 21
3.1018839634
 31
0.0
  0
LINE
  8
0
  6
CONTINUOUS
 62
         7
  5
65
 10
3.2517793421
 20
3.1018839634
 30
0.0
 11
3.2517793421
 21
3.0218839634
 31
0.0
  0
LINE
  8
0
  6
CONTINUOUS
 62
         7
  5
66
 10
1.9177793421
 20
3.1018839634
 30
0.0
 11
1.9177793421
 21
3.0218839634
 31
0.0
  0
LINE
  8
0
  6
CONTINUOUS
 62
         7
  5
67
 10
2.263539629
 20
2.5118839634
 30
0.0
 11
2.9060190553
 21
2.5118839634
 31
0.0
  0
LINE
  8
0
  6
CONTINUOUS
 62
         7
  5
68
 10
2.90196106
 20
2.9768839634
 30
0.0
 11
2.9060190553
 21
2.5118839634
 31
0.0
  0
LINE
  8
0
  6
CONTINUOUS
 62
         7
  5
69
 10
2.2675976243
 20
2.9768839634
 30
0.0
 11
2.263539629
 21
2.5118839634
 31
0.0
  0
POLYLINE
  8
0
  6
CONTINUOUS
 62
         7
  5
6A
 66
         1
 10
0.0
 20
0.0
 30
0.0
  0
VERTEX
  8
0
  6
CONTINUOUS
 62
         7
  5
6B
 10
3.2667793421
 20
2.8768839634
 30
0.0
  0
VERTEX
  8
0
  6
CONTINUOUS
 62
         7
  5
6C
 10
3.2576508667
 20
2.8768915691
 30
0.0
  0
SEQEND
  8
0
  6
CONTINUOUS
 62
         7
  5
6D
  0
POLYLINE
  8
0
  6
CONTINUOUS
 62
         7
  5
6E
 66
         1
 10
0.0
 20
0.0
 30
0.0
  0
VERTEX
  8
0
  6
CONTINUOUS
 62
         7
  5
6F
 10
3.2631134542
 20
2.8691458096
 30
0.0
  0
VERTEX
  8
0
  6
CONTINUOUS
 62
         7
  5
70
 10
3.2576508667
 20
2.8768915691
 30
0.0
  0
SEQEND
  8
0
  6
CONTINUOUS
 62
         7
  5
71
  0
LINE
  8
0
  6
CONTINUOUS
 62
         7
  5
72
 10
3.2576508667
 20
2.8768915691
 30
0.0
 11
3.2576508667
 21
2.9018915691
 31
0.0
  0
ARC
  8
0
  6
CONTINUOUS
 62
         7
  5
73
 10
3.2526508667
 20
2.9018915691
 30
0.0
 40
0.005
 50
0.0
 51
34.788920622
  0
ARC
  8
0
  6
CONTINUOUS
 62
         7
  5
74
 10
3.2567793421
 20
2.8768839634
 30
0.0
 40
0.01
 50
309.3022463408
 51
360.0
  0
ARC
  8
0
  6
CONTINUOUS
 62
         7
  5
75
 10
3.4214662571
 20
2.6756919654
 30
0.0
 40
0.25
 50
129.3022463408
 51
161.4517864166
  0
LINE
  8
0
  6
CONTINUOUS
 62
         7
  5
76
 10
2.2197793421
 20
3.2268839634
 30
0.0
 11
2.9497793421
 21
3.2268839634
 31
0.0
  0
LINE
  8
0
  6
CONTINUOUS
 62
         7
  5
77
 10
1.9177793421
 20
3.0218839634
 30
0.0
 11
2.2197793421
 21
3.0218839634
 31
0.0
  0
LINE
  8
0
  6
CONTINUOUS
 62
         7
  5
78
 10
2.9497793421
 20
3.0218839634
 30
0.0
 11
3.2517793421
 21
3.0218839634
 31
0.0
  0
LINE
  8
0
  6
CONTINUOUS
 62
         7
  5
79
 10
2.9060190553
 20
2.5118839634
 30
0.0
 11
3.1567793421
 21
2.5118839634
 31
0.0
  0
LINE
  8
0
  6
CONTINUOUS
 62
         7
  5
7A
 10
2.0127793421
 20
2.5118839634
 30
0.0
 11
2.263539629
 21
2.5118839634
 31
0.0
  0
LINE
  8
0
  6
CONTINUOUS
 62
         7
  5
7B
 10
3.2017793421
 20
2.9468839634
 30
0.0
 11
3.2317952885
 21
2.9168680171
 31
0.0
  0
LINE
  8
0
  6
CONTINUOUS
 62
         7
  5
7C
 10
3.2317793421
 20
2.9168839634
 30
0.0
 11
3.2600276337
 21
2.9144125581
 31
0.0
  0
LINE
  8
0
  6
CONTINUOUS
 62
         7
  5
7D
 10
3.2017793421
 20
3.0218839634
 30
0.0
 11
3.2017793421
 21
2.9468795233
 31
0.0
  0
LINE
  8
0
  6
CONTINUOUS
 62
         7
  5
7E
 10
3.1926508667
 20
2.9427494334
 30
0.0
 11
3.1926508667
 21
3.0218839634
 31
0.0
  0
ARC
  8
0
  6
CONTINUOUS
 62
         7
  5
7F
 10
3.4223377817
 20
2.6756995711
 30
0.0
 40
0.26
 50
129.3022463408
 51
156.0746322373
  0
LINE
  8
0
  6
CONTINUOUS
 62
         7
  5
80
 10
3.2567571645
 20
2.9047443429
 30
0.0
 11
3.2281534571
 21
2.9072468431
 31
0.0
  0
LINE
  8
0
  6
CONTINUOUS
 62
         7
  5
81
 10
3.2281534571
 20
2.9072468431
 30
0.0
 11
3.1926508667
 21
2.9427494334
 31
0.0
  0
ARC
  8
0
  6
CONTINUOUS
 62
         7
  5
82
 10
1.7480924272
 20
2.6756919654
 30
0.0
 40
0.25
 50
18.5482135834
 51
50.6977536592
  0
LINE
  8
0
  6
CONTINUOUS
 62
         7
  5
83
 10
3.1823286377
 20
2.5118839634
 30
0.0
 11
3.1567793421
 21
2.5118839634
 31
0.0
  0
LINE
  8
0
  6
CONTINUOUS
 62
         7
  5
84
 10
2.0127793421
 20
2.5118839634
 30
0.0
 11
1.9872300466
 21
2.5118839634
 31
0.0
  0
LINE
  8
0
  6
CONTINUOUS
 62
         7
  5
85
 10
1.9872300466
 20
2.5118839634
 30
0.0
 11
1.9827793421
 21
3.0218839634
 31
0.0
  0
LINE
  8
0
  6
CONTINUOUS
 62
         7
  5
86
 10
3.1567793421
 20
2.5118839634
 30
0.0
 11
3.1567793421
 21
3.0218839634
 31
0.0
  0
LINE
  8
0
  6
CONTINUOUS
 62
         7
  5
87
 10
2.0127793421
 20
3.0218839634
 30
0.0
 11
2.0127793421
 21
2.5118839634
 31
0.0
  0
LINE
  8
0
  6
CONTINUOUS
 62
         7
  5
88
 10
3.1867793421
 20
3.0218839634
 30
0.0
 11
3.1823286377
 21
2.5118839634
 31
0.0
  0
LINE
  8
0
  6
CONTINUOUS
 62
         7
  5
89
 10
1.9677793421
 20
2.9468795233
 30
0.0
 11
1.9677793421
 21
3.0218839634
 31
0.0
  0
POLYLINE
  8
0
  6
CONTINUOUS
 62
         7
  5
8A
 66
         1
 10
0.0
 20
0.0
 30
0.0
  0
VERTEX
  8
0
  6
CONTINUOUS
 62
         7
  5
8B
 10
1.9119078175
 20
2.8768915691
 30
0.0
  0
VERTEX
  8
0
  6
CONTINUOUS
 62
         7
  5
8C
 10
1.9027793421
 20
2.8768839634
 30
0.0
  0
SEQEND
  8
0
  6
CONTINUOUS
 62
         7
  5
8D
  0
POLYLINE
  8
0
  6
CONTINUOUS
 62
         7
  5
8E
 66
         1
 10
0.0
 20
0.0
 30
0.0
  0
VERTEX
  8
0
  6
CONTINUOUS
 62
         7
  5
8F
 10
1.9119078175
 20
2.8768915691
 30
0.0
  0
VERTEX
  8
0
  6
CONTINUOUS
 62
         7
  5
90
 10
1.90644523
 20
2.8691458096
 30
0.0
  0
SEQEND
  8
0
  6
CONTINUOUS
 62
         7
  5
91
  0
LINE
  8
0
  6
CONTINUOUS
 62
         7
  5
92
 10
1.9769078175
 20
3.0218839634
 30
0.0
 11
1.9769078175
 21
2.9427494334
 31
0.0
  0
LINE
  8
0
  6
CONTINUOUS
 62
         7
  5
93
 10
1.9769078175
 20
2.9427494334
 30
0.0
 11
1.9414052271
 21
2.9072468431
 31
0.0
  0
LINE
  8
0
  6
CONTINUOUS
 62
         7
  5
94
 10
1.9414052271
 20
2.9072468431
 30
0.0
 11
1.9128015198
 21
2.9047443429
 31
0.0
  0
ARC
  8
0
  6
CONTINUOUS
 62
         7
  5
95
 10
1.9169078175
 20
2.9018915691
 30
0.0
 40
0.005
 50
145.211079378
 51
180.0
  0
LINE
  8
0
  6
CONTINUOUS
 62
         7
  5
96
 10
1.9119078175
 20
2.9018915691
 30
0.0
 11
1.9119078175
 21
2.8768915691
 31
0.0
  0
ARC
  8
0
  6
CONTINUOUS
 62
         7
  5
97
 10
1.9127793421
 20
2.8768839634
 30
0.0
 40
0.01
 50
180.0
 51
230.6977536592
  0
LINE
  8
0
  6
CONTINUOUS
 62
         7
  5
98
 10
1.9095310505
 20
2.9144125581
 30
0.0
 11
1.9377793421
 21
2.9168839634
 31
0.0
  0
ARC
  8
0
  6
CONTINUOUS
 62
         7
  5
99
 10
1.7472209026
 20
2.6756995711
 30
0.0
 40
0.26
 50
23.9253677627
 51
50.6977536592
  0
LINE
  8
0
  6
CONTINUOUS
 62
         7
  5
9A
 10
1.9377633958
 20
2.9168680171
 30
0.0
 11
1.9677793421
 21
2.9468839634
 31
0.0
  0
LINE
  8
0
  6
CONTINUOUS
 62
         7
  5
9B
 10
2.8972793421
 20
3.0468839634
 30
0.0
 11
2.8872793421
 21
3.0468839634
 31
0.0
  0
LINE
  8
0
  6
CONTINUOUS
 62
         7
  5
9C
 10
2.8872793421
 20
3.0468839634
 30
0.0
 11
2.2822793421
 21
3.0468839634
 31
0.0
  0
LINE
  8
0
  6
CONTINUOUS
 62
         7
  5
9D
 10
2.2822793421
 20
3.0468839634
 30
0.0
 11
2.2722793421
 21
3.0468839634
 31
0.0
  0
LINE
  8
0
  6
CONTINUOUS
 62
         7
  5
9E
 10
2.8972793421
 20
2.5468839634
 30
0.0
 11
2.8872793421
 21
2.5468839634
 31
0.0
  0
LINE
  8
0
  6
CONTINUOUS
 62
         7
  5
9F
 10
2.8872793421
 20
2.5468839634
 30
0.0
 11
2.2822793421
 21
2.5468839634
 31
0.0
  0
LINE
  8
0
  6
CONTINUOUS
 62
         7
  5
A0
 10
2.2822793421
 20
2.5468839634
 30
0.0
 11
2.2722793421
 21
2.5468839634
 31
0.0
  0
LINE
  8
0
  6
CONTINUOUS
 62
         7
  5
A1
 10
2.8972793421
 20
2.5468839634
 30
0.0
 11
2.8972793421
 21
3.0468839634
 31
0.0
  0
LINE
  8
0
  6
CONTINUOUS
 62
         7
  5
A2
 10
2.8872793421
 20
2.5468839634
 30
0.0
 11
2.8872793421
 21
3.0468839634
 31
0.0
  0
LINE
  8
0
  6
CONTINUOUS
 62
         7
  5
A3
 10
2.2722793421
 20
2.5468839634
 30
0.0
 11
2.2722793421
 21
3.0468839634
 31
0.0
  0
LINE
  8
0
  6
CONTINUOUS
 62
         7
  5
A4
 10
2.2822793421
 20
2.5468839634
 30
0.0
 11
2.2822793421
 21
3.0468839634
 31
0.0
  0
ENDBLK
  8
0
  6
CONTINUOUS
 62
         7
  5
A5
  0
BLOCK
  8
0
 62
         1
 48
0.0
  5
A6
  2
*X1
 70
         1
 10
0.0
 20
0.0
 30
0.0
  3
*X1
  0
INSERT
  8
0
 62
         0
 48
0.0
  5
A7
  2
*X0
 10
0.0
 20
0.0
 30
0.0
  0
ENDBLK
  8
0
 62
         0
 48
0.0
  5
A8
  0
BLOCK
  8
0
 62
         1
 48
0.0
  5
A9
  2
*X2
 70
         1
 10
0.0
 20
0.0
 30
0.0
  3
*X2
  0
LINE
  8
0
  6
CONTINUOUS
 62
         7
  5
AA
 10
1.9769077847
 20
5.0387354356
 30
0.0
 11
1.9677793421
 21
5.0387354356
 31
0.0
  0
LINE
  8
0
  6
CONTINUOUS
 62
         7
  5
AB
 10
1.9769077847
 20
5.1450277845
 30
0.0
 11
1.9677793421
 21
5.1450277845
 31
0.0
  0
POLYLINE
  8
0
  6
CONTINUOUS
 62
         7
  5
AC
 66
         1
 10
0.0
 20
0.0
 30
0.0
  0
VERTEX
  8
0
  6
CONTINUOUS
 62
         7
  5
AD
 10
1.9769077847
 20
5.0387354356
 30
0.0
  0
VERTEX
  8
0
  6
CONTINUOUS
 62
         7
  5
AE
 10
1.9769078175
 20
5.0287734887
 30
0.0
  0
SEQEND
  8
0
  6
CONTINUOUS
 62
         7
  5
AF
  0
POLYLINE
  8
0
  6
CONTINUOUS
 62
         7
  5
B0
 66
         1
 10
0.0
 20
0.0
 30
0.0
  0
VERTEX
  8
0
  6
CONTINUOUS
 62
         7
  5
B1
 10
1.9769078175
 20
5.1549897314
 30
0.0
  0
VERTEX
  8
0
  6
CONTINUOUS
 62
         7
  5
B2
 10
1.9769077847
 20
5.1450277845
 30
0.0
  0
SEQEND
  8
0
  6
CONTINUOUS
 62
         7
  5
B3
  0
ARC
  8
0
  6
CONTINUOUS
 62
         7
  5
B4
 10
3.1917758942
 20
5.0386742399
 30
0.0
 40
0.0100034451
 50
275.017909181
 51
360.0
  0
LINE
  8
0
  6
CONTINUOUS
 62
         7
  5
B5
 10
3.1926508996
 20
5.0387354356
 30
0.0
 11
3.2017793421
 21
5.0387354356
 31
0.0
  0
LINE
  8
0
  6
CONTINUOUS
 62
         7
  5
B6
 10
3.1926508996
 20
5.1450277845
 30
0.0
 11
3.2017793421
 21
5.1450277845
 31
0.0
  0
POLYLINE
  8
0
  6
CONTINUOUS
 62
         7
  5
B7
 66
         1
 10
0.0
 20
0.0
 30
0.0
  0
VERTEX
  8
0
  6
CONTINUOUS
 62
         7
  5
B8
 10
3.1926508667
 20
5.0287734887
 30
0.0
  0
VERTEX
  8
0
  6
CONTINUOUS
 62
         7
  5
B9
 10
3.1926508996
 20
5.0387354356
 30
0.0
  0
SEQEND
  8
0
  6
CONTINUOUS
 62
         7
  5
BA
  0
POLYLINE
  8
0
  6
CONTINUOUS
 62
         7
  5
BB
 66
         1
 10
0.0
 20
0.0
 30
0.0
  0
VERTEX
  8
0
  6
CONTINUOUS
 62
         7
  5
BC
 10
3.1926508996
 20
5.1450277845
 30
0.0
  0
VERTEX
  8
0
  6
CONTINUOUS
 62
         7
  5
BD
 10
3.1926508667
 20
5.1549897314
 30
0.0
  0
SEQEND
  8
0
  6
CONTINUOUS
 62
         7
  5
BE
  0
ARC
  8
0
  6
CONTINUOUS
 62
         7
  5
BF
 10
3.2567793426
 20
5.044326436
 30
0.0
 40
0.0099999971
 50
274.9998098234
 51
360.0
  0
POLYLINE
  8
0
  6
CONTINUOUS
 62
         7
  5
C1
 66
         1
 10
0.0
 20
0.0
 30
0.0
  0
VERTEX
  8
0
  6
CONTINUOUS
 62
         7
  5
C2
 10
3.2281534571
 20
5.0317879859
 30
0.0
  0
VERTEX
  8
0
  6
CONTINUOUS
 62
         7
  5
C3
 10
3.2317952885
 20
5.0415281232
 30
0.0
  0
SEQEND
  8
0
  6
CONTINUOUS
 62
         7
  5
C4
  0
LINE
  8
0
  6
CONTINUOUS
 62
         7
  5
C5
 10
3.2667793421
 20
5.044326436
 30
0.0
 11
3.2667793421
 21
5.0443073492
 31
0.0
  0
POLYLINE
  8
0
  6
CONTINUOUS
 62
         7
  5
C6
 66
         1
 10
0.0
 20
0.0
 30
0.0
  0
VERTEX
  8
0
  6
CONTINUOUS
 62
         7
  5
C7
 10
3.2667793421
 20
5.044326436
 30
0.0
  0
VERTEX
  8
0
  6
CONTINUOUS
 62
         7
  5
C8
 10
3.2600418955
 20
5.044133146
 30
0.0
  0
SEQEND
  8
0
  6
CONTINUOUS
 62
         7
  5
C9
  0
LINE
  8
0
  6
CONTINUOUS
 62
         7
  5
CA
 10
3.2600276337
 20
5.0445363251
 30
0.0
 11
3.2600418955
 21
5.044133146
 31
0.0
  0
LINE
  8
0
  6
CONTINUOUS
 62
         7
  5
CB
 10
3.2600418955
 20
5.1396300741
 30
0.0
 11
3.2600276337
 21
5.139226895
 31
0.0
  0
LINE
  8
0
  6
CONTINUOUS
 62
         7
  5
CC
 10
3.2667793421
 20
5.1394558709
 30
0.0
 11
3.2667793421
 21
5.1394367841
 31
0.0
  0
POLYLINE
  8
0
  6
CONTINUOUS
 62
         7
  5
CD
 66
         1
 10
0.0
 20
0.0
 30
0.0
  0
VERTEX
  8
0
  6
CONTINUOUS
 62
         7
  5
CE
 10
3.2600418955
 20
5.1396300741
 30
0.0
  0
VERTEX
  8
0
  6
CONTINUOUS
 62
         7
  5
CF
 10
3.2667793421
 20
5.1394367841
 30
0.0
  0
SEQEND
  8
0
  6
CONTINUOUS
 62
         7
  5
D0
  0
ARC
  8
0
  6
CONTINUOUS
 62
         7
  5
D2
 10
3.2567793426
 20
5.1394367841
 30
0.0
 40
0.0099999971
 50
0.0
 51
85.0001901766
  0
POLYLINE
  8
0
  6
CONTINUOUS
 62
         7
  5
D4
 66
         1
 10
0.0
 20
0.0
 30
0.0
  0
VERTEX
  8
0
  6
CONTINUOUS
 62
         7
  5
D5
 10
1.9414052271
 20
5.1519752342
 30
0.0
  0
VERTEX
  8
0
  6
CONTINUOUS
 62
         7
  5
D6
 10
1.9377633958
 20
5.1422350969
 30
0.0
  0
SEQEND
  8
0
  6
CONTINUOUS
 62
         7
  5
D7
  0
POLYLINE
  8
0
  6
CONTINUOUS
 62
         7
  5
D8
 66
         1
 10
0.0
 20
0.0
 30
0.0
  0
VERTEX
  8
0
  6
CONTINUOUS
 62
         7
  5
D9
 10
3.2317952885
 20
5.1422350969
 30
0.0
  0
VERTEX
  8
0
  6
CONTINUOUS
 62
         7
  5
DA
 10
3.2281534571
 20
5.1519752342
 30
0.0
  0
SEQEND
  8
0
  6
CONTINUOUS
 62
         7
  5
DB
  0
ARC
  8
0
  6
CONTINUOUS
 62
         7
  5
DC
 10
1.9777827901
 20
5.1450889802
 30
0.0
 40
0.0100034451
 50
95.017909181
 51
180.0
  0
ARC
  8
0
  6
CONTINUOUS
 62
         7
  5
DD
 10
3.1917758942
 20
5.1450889802
 30
0.0
 40
0.0100034451
 50
0.0
 51
84.982090819
  0
ARC
  8
0
  6
CONTINUOUS
 62
         7
  5
DE
 10
1.9127793416
 20
5.1394367841
 30
0.0
 40
0.0099999971
 50
94.9998098234
 51
180.0
  0
LINE
  8
0
  6
CONTINUOUS
 62
         7
  5
DF
 10
1.9027793421
 20
5.1394367841
 30
0.0
 11
1.9027793421
 21
5.1394558709
 31
0.0
  0
POLYLINE
  8
0
  6
CONTINUOUS
 62
         7
  5
E0
 66
         1
 10
0.0
 20
0.0
 30
0.0
  0
VERTEX
  8
0
  6
CONTINUOUS
 62
         7
  5
E1
 10
1.9027793421
 20
5.1394367841
 30
0.0
  0
VERTEX
  8
0
  6
CONTINUOUS
 62
         7
  5
E2
 10
1.9095167887
 20
5.1396300741
 30
0.0
  0
SEQEND
  8
0
  6
CONTINUOUS
 62
         7
  5
E3
  0
LINE
  8
0
  6
CONTINUOUS
 62
         7
  5
E4
 10
1.9095310505
 20
5.139226895
 30
0.0
 11
1.9095167887
 21
5.1396300741
 31
0.0
  0
LINE
  8
0
  6
CONTINUOUS
 62
         7
  5
E5
 10
1.9027793421
 20
5.0443073492
 30
0.0
 11
1.9027793421
 21
5.044326436
 31
0.0
  0
POLYLINE
  8
0
  6
CONTINUOUS
 62
         7
  5
E6
 66
         1
 10
0.0
 20
0.0
 30
0.0
  0
VERTEX
  8
0
  6
CONTINUOUS
 62
         7
  5
E7
 10
1.9095167887
 20
5.044133146
 30
0.0
  0
VERTEX
  8
0
  6
CONTINUOUS
 62
         7
  5
E8
 10
1.9027793421
 20
5.044326436
 30
0.0
  0
SEQEND
  8
0
  6
CONTINUOUS
 62
         7
  5
E9
  0
LINE
  8
0
  6
CONTINUOUS
 62
         7
  5
EA
 10
1.9095167887
 20
5.044133146
 30
0.0
 11
1.9095310505
 21
5.0445363251
 31
0.0
  0
ARC
  8
0
  6
CONTINUOUS
 62
         7
  5
EB
 10
1.9127793416
 20
5.044326436
 30
0.0
 40
0.0099999971
 50
180.0
 51
265.0001901766
  0
POLYLINE
  8
0
  6
CONTINUOUS
 62
         7
  5
ED
 66
         1
 10
0.0
 20
0.0
 30
0.0
  0
VERTEX
  8
0
  6
CONTINUOUS
 62
         7
  5
EE
 10
1.9377633958
 20
5.0415281232
 30
0.0
  0
VERTEX
  8
0
  6
CONTINUOUS
 62
         7
  5
EF
 10
1.9414052271
 20
5.0317879859
 30
0.0
  0
SEQEND
  8
0
  6
CONTINUOUS
 62
         7
  5
F0
  0
ARC
  8
0
  6
CONTINUOUS
 62
         7
  5
F1
 10
1.9777827901
 20
5.0386742399
 30
0.0
 40
0.0100034451
 50
180.0
 51
264.982090819
  0
LINE
  8
0
  6
CONTINUOUS
 62
         7
  5
F2
 10
2.9347793421
 20
5.60638161
 30
0.0
 11
2.2347793421
 21
5.60638161
 31
0.0
  0
LINE
  8
0
  6
CONTINUOUS
 62
         7
  5
F3
 10
2.9497793421
 20
4.85038161
 30
0.0
 11
3.2517793421
 21
4.85038161
 31
0.0
  0
LINE
  8
0
  6
CONTINUOUS
 62
         7
  5
F4
 10
1.9177793421
 20
4.85038161
 30
0.0
 11
2.2197793421
 21
4.85038161
 31
0.0
  0
LINE
  8
0
  6
CONTINUOUS
 62
         7
  5
F5
 10
3.2517793421
 20
4.85038161
 30
0.0
 11
3.2517793421
 21
5.00438161
 31
0.0
  0
LINE
  8
0
  6
CONTINUOUS
 62
         7
  5
F6
 10
3.2517793421
 20
5.17938161
 30
0.0
 11
3.2517793421
 21
5.87538161
 31
0.0
  0
ARC
  8
0
  6
CONTINUOUS
 62
         7
  5
F7
 10
2.5847793421
 20
4.1540951725
 30
0.0
 40
1.846
 50
68.8186069303
 51
111.1813930697
  0
LINE
  8
0
  6
CONTINUOUS
 62
         7
  5
F8
 10
1.9177793421
 20
5.87538161
 30
0.0
 11
1.9177793421
 21
5.17938161
 31
0.0
  0
LINE
  8
0
  6
CONTINUOUS
 62
         7
  5
F9
 10
1.9177793421
 20
5.00438161
 30
0.0
 11
1.9177793421
 21
4.85038161
 31
0.0
  0
LINE
  8
0
  6
CONTINUOUS
 62
         7
  5
FA
 10
2.8997793421
 20
4.89538161
 30
0.0
 11
2.2697793421
 21
4.89538161
 31
0.0
  0
LINE
  8
0
  6
CONTINUOUS
 62
         7
  5
FB
 10
3.2667793421
 20
5.1394367841
 30
0.0
 11
3.2667793421
 21
5.044326436
 31
0.0
  0
LINE
  8
0
  6
CONTINUOUS
 62
         7
  5
FC
 10
3.2600276337
 20
5.139226895
 30
0.0
 11
3.2600276337
 21
5.0445363251
 31
0.0
  0
LINE
  8
0
  6
CONTINUOUS
 62
         7
  5
FD
 10
3.2317793421
 20
5.1416963204
 30
0.0
 11
3.2317793421
 21
5.0420668997
 31
0.0
  0
POLYLINE
  8
0
  6
CONTINUOUS
 62
         7
  5
FE
 66
         1
 10
0.0
 20
0.0
 30
0.0
  0
VERTEX
  8
0
  6
CONTINUOUS
 62
         7
  5
FF
 10
3.2317952885
 20
5.1422350969
 30
0.0
  0
VERTEX
  8
0
  6
CONTINUOUS
 62
         7
  5
100
 10
3.2317793421
 20
5.1416963204
 30
0.0
  0
SEQEND
  8
0
  6
CONTINUOUS
 62
         7
  5
101
  0
LINE
  8
0
  6
CONTINUOUS
 62
         7
  5
102
 10
3.2017793421
 20
5.1450889802
 30
0.0
 11
3.2017793421
 21
5.1450277845
 31
0.0
  0
ARC
  8
0
  6
CONTINUOUS
 62
         7
  5
103
 10
3.2567793426
 20
5.0443073492
 30
0.0
 40
0.0099999971
 50
274.9998098234
 51
360.0
  0
ARC
  8
0
  6
CONTINUOUS
 62
         7
  5
104
 10
3.2567793426
 20
5.1394558709
 30
0.0
 40
0.0099999971
 50
0.0
 51
85.0001901766
  0
LINE
  8
0
  6
CONTINUOUS
 62
         7
  5
105
 10
3.2576508667
 20
5.0343454022
 30
0.0
 11
3.2576508667
 21
5.0343644891
 31
0.0
  0
POLYLINE
  8
0
  6
CONTINUOUS
 62
         7
  5
106
 66
         1
 10
0.0
 20
0.0
 30
0.0
  0
VERTEX
  8
0
  6
CONTINUOUS
 62
         7
  5
107
 10
3.2576508667
 20
5.0343644891
 30
0.0
  0
VERTEX
  8
0
  6
CONTINUOUS
 62
         7
  5
108
 10
3.2567571645
 20
5.0342884812
 30
0.0
  0
SEQEND
  8
0
  6
CONTINUOUS
 62
         7
  5
109
  0
POLYLINE
  8
0
  6
CONTINUOUS
 62
         7
  5
10A
 66
         1
 10
0.0
 20
0.0
 30
0.0
  0
VERTEX
  8
0
  6
CONTINUOUS
 62
         7
  5
10B
 10
3.2317793421
 20
5.0420668997
 30
0.0
  0
VERTEX
  8
0
  6
CONTINUOUS
 62
         7
  5
10C
 10
3.2317952885
 20
5.0415281232
 30
0.0
  0
SEQEND
  8
0
  6
CONTINUOUS
 62
         7
  5
10D
  0
LINE
  8
0
  6
CONTINUOUS
 62
         7
  5
10E
 10
3.1926508996
 20
5.0387354356
 30
0.0
 11
3.1926508996
 21
5.1450277845
 31
0.0
  0
LINE
  8
0
  6
CONTINUOUS
 62
         7
  5
10F
 10
3.1867793421
 20
5.0382221525
 30
0.0
 11
3.1926508996
 21
5.0387354356
 31
0.0
  0
LINE
  8
0
  6
CONTINUOUS
 62
         7
  5
110
 10
3.1926508996
 20
5.1450277845
 30
0.0
 11
3.1867793421
 21
5.1455410676
 31
0.0
  0
ARC
  8
0
  6
CONTINUOUS
 62
         7
  5
111
 10
3.1917793426
 20
5.0387354356
 30
0.0
 40
0.0099999995
 50
274.9998098234
 51
360.0
  0
ARC
  8
0
  6
CONTINUOUS
 62
         7
  5
112
 10
3.1917793426
 20
5.1450277845
 30
0.0
 40
0.0099999971
 50
0.0
 51
85.0001901766
  0
LINE
  8
0
  6
CONTINUOUS
 62
         7
  5
113
 10
3.2017793421
 20
5.1450277845
 30
0.0
 11
3.2017793421
 21
5.0387354356
 31
0.0
  0
LINE
  8
0
  6
CONTINUOUS
 62
         7
  5
114
 10
3.1926508667
 20
5.0287734887
 30
0.0
 11
3.1867793421
 21
5.0282602084
 31
0.0
  0
LINE
  8
0
  6
CONTINUOUS
 62
         7
  5
115
 10
3.1867793421
 20
5.1555030117
 30
0.0
 11
3.1926508667
 21
5.1549897314
 31
0.0
  0
LINE
  8
0
  6
CONTINUOUS
 62
         7
  5
116
 10
1.9769077847
 20
5.1450277845
 30
0.0
 11
1.9769077847
 21
5.0387354356
 31
0.0
  0
LINE
  8
0
  6
CONTINUOUS
 62
         7
  5
117
 10
1.9769077847
 20
5.0387354356
 30
0.0
 11
1.9827793421
 21
5.0382221525
 31
0.0
  0
LINE
  8
0
  6
CONTINUOUS
 62
         7
  5
118
 10
1.9827793421
 20
5.1455410676
 30
0.0
 11
1.9769077847
 21
5.1450277845
 31
0.0
  0
ARC
  8
0
  6
CONTINUOUS
 62
         7
  5
119
 10
1.9777793416
 20
5.0387354356
 30
0.0
 40
0.0099999971
 50
180.0
 51
265.0001901766
  0
LINE
  8
0
  6
CONTINUOUS
 62
         7
  5
11A
 10
1.9677793421
 20
5.0387354356
 30
0.0
 11
1.9677793421
 21
5.1450277845
 31
0.0
  0
ARC
  8
0
  6
CONTINUOUS
 62
         7
  5
11B
 10
1.9777793416
 20
5.1450277845
 30
0.0
 40
0.0099999995
 50
94.9998098234
 51
180.0
  0
LINE
  8
0
  6
CONTINUOUS
 62
         7
  5
11C
 10
1.9827793421
 20
5.0282602084
 30
0.0
 11
1.9769078175
 21
5.0287734887
 31
0.0
  0
LINE
  8
0
  6
CONTINUOUS
 62
         7
  5
11D
 10
1.9769078175
 20
5.1549897314
 30
0.0
 11
1.9827793421
 21
5.1555030117
 31
0.0
  0
ARC
  8
0
  6
CONTINUOUS
 62
         7
  5
11E
 10
2.9347793421
 20
5.59138161
 30
0.0
 40
0.015
 50
0.0
 51
90.0
  0
LINE
  8
0
  6
CONTINUOUS
 62
         7
  5
11F
 10
2.2197793421
 20
4.85038161
 30
0.0
 11
2.9497793421
 21
4.85038161
 31
0.0
  0
LINE
  8
0
  6
CONTINUOUS
 62
         7
  5
120
 10
2.2197793421
 20
5.59138161
 30
0.0
 11
2.2197793421
 21
4.85038161
 31
0.0
  0
LINE
  8
0
  6
CONTINUOUS
 62
         7
  5
121
 10
2.9497793421
 20
4.85038161
 30
0.0
 11
2.9497793421
 21
5.59138161
 31
0.0
  0
LINE
  8
0
  6
CONTINUOUS
 62
         7
  5
122
 10
2.8997793421
 20
5.49638161
 30
0.0
 11
2.8997793421
 21
4.89538161
 31
0.0
  0
LINE
  8
0
  6
CONTINUOUS
 62
         7
  5
123
 10
2.2697793421
 20
4.89538161
 30
0.0
 11
2.2697793421
 21
5.49638161
 31
0.0
  0
LINE
  8
0
  6
CONTINUOUS
 62
         7
  5
124
 10
3.1867793421
 20
5.17938161
 30
0.0
 11
3.1867793421
 21
5.00438161
 31
0.0
  0
LINE
  8
0
  6
CONTINUOUS
 62
         7
  5
125
 10
3.2517793421
 20
5.17938161
 30
0.0
 11
3.1867793421
 21
5.17938161
 31
0.0
  0
LINE
  8
0
  6
CONTINUOUS
 62
         7
  5
126
 10
3.1867793421
 20
5.00438161
 30
0.0
 11
3.2517793421
 21
5.00438161
 31
0.0
  0
LINE
  8
0
  6
CONTINUOUS
 62
         7
  5
127
 10
1.9177793421
 20
5.00438161
 30
0.0
 11
1.9827793421
 21
5.00438161
 31
0.0
  0
LINE
  8
0
  6
CONTINUOUS
 62
         7
  5
128
 10
1.9827793421
 20
5.17938161
 30
0.0
 11
1.9177793421
 21
5.17938161
 31
0.0
  0
LINE
  8
0
  6
CONTINUOUS
 62
         7
  5
129
 10
1.9827793421
 20
5.00438161
 30
0.0
 11
1.9827793421
 21
5.17938161
 31
0.0
  0
ARC
  8
0
  6
CONTINUOUS
 62
         7
  5
12A
 10
2.2347793421
 20
5.59138161
 30
0.0
 40
0.015
 50
90.0
 51
180.0
  0
LINE
  8
0
  6
CONTINUOUS
 62
         7
  5
12B
 10
2.2697793421
 20
5.49638161
 30
0.0
 11
2.8997793421
 21
5.49638161
 31
0.0
  0
LINE
  8
0
  6
CONTINUOUS
 62
         7
  5
12C
 10
3.2017793421
 20
5.0389250834
 30
0.0
 11
3.2317952885
 21
5.0415281232
 31
0.0
  0
LINE
  8
0
  6
CONTINUOUS
 62
         7
  5
12D
 10
3.2317793421
 20
5.0420668997
 30
0.0
 11
3.2600276337
 21
5.0445363251
 31
0.0
  0
LINE
  8
0
  6
CONTINUOUS
 62
         7
  5
12E
 10
3.2017793421
 20
5.0387354356
 30
0.0
 11
3.2017793421
 21
5.0386742399
 31
0.0
  0
LINE
  8
0
  6
CONTINUOUS
 62
         7
  5
12F
 10
3.1926508667
 20
5.0287091339
 30
0.0
 11
3.1926508667
 21
5.0287734887
 31
0.0
  0
POLYLINE
  8
0
  6
CONTINUOUS
 62
         7
  5
130
 66
         1
 10
0.0
 20
0.0
 30
0.0
  0
VERTEX
  8
0
  6
CONTINUOUS
 62
         7
  5
131
 10
3.2576508667
 20
5.0343454022
 30
0.0
  0
VERTEX
  8
0
  6
CONTINUOUS
 62
         7
  5
132
 10
3.2170926855
 20
5.0307654058
 30
0.0
  0
VERTEX
  8
0
  6
CONTINUOUS
 62
         7
  5
133
 10
3.1867793421
 20
5.0280756004
 30
0.0
  0
SEQEND
  8
0
  6
CONTINUOUS
 62
         7
  5
134
  0
LINE
  8
0
  6
CONTINUOUS
 62
         7
  5
135
 10
3.2567571645
 20
5.0342884812
 30
0.0
 11
3.2281534571
 21
5.0317879859
 31
0.0
  0
LINE
  8
0
  6
CONTINUOUS
 62
         7
  5
136
 10
3.2281534571
 20
5.0317879859
 30
0.0
 11
3.1926508667
 21
5.0287091339
 31
0.0
  0
LINE
  8
0
  6
CONTINUOUS
 62
         7
  5
137
 10
3.2317952885
 20
5.1422350969
 30
0.0
 11
3.2017793421
 21
5.1448381367
 31
0.0
  0
LINE
  8
0
  6
CONTINUOUS
 62
         7
  5
138
 10
3.2281534571
 20
5.1519752342
 30
0.0
 11
3.2567571645
 21
5.1494747389
 31
0.0
  0
LINE
  8
0
  6
CONTINUOUS
 62
         7
  5
139
 10
3.2600276337
 20
5.139226895
 30
0.0
 11
3.2317793421
 21
5.1416963204
 31
0.0
  0
LINE
  8
0
  6
CONTINUOUS
 62
         7
  5
13A
 10
3.1926508667
 20
5.1550540862
 30
0.0
 11
3.2281534571
 21
5.1519752342
 31
0.0
  0
POLYLINE
  8
0
  6
CONTINUOUS
 62
         7
  5
13B
 66
         1
 10
0.0
 20
0.0
 30
0.0
  0
VERTEX
  8
0
  6
CONTINUOUS
 62
         7
  5
13C
 10
3.2567571645
 20
5.1494747389
 30
0.0
  0
VERTEX
  8
0
  6
CONTINUOUS
 62
         7
  5
13D
 10
3.2576508667
 20
5.149398731
 30
0.0
  0
SEQEND
  8
0
  6
CONTINUOUS
 62
         7
  5
13E
  0
LINE
  8
0
  6
CONTINUOUS
 62
         7
  5
13F
 10
3.2576508667
 20
5.149398731
 30
0.0
 11
3.2576508667
 21
5.1494178179
 31
0.0
  0
POLYLINE
  8
0
  6
CONTINUOUS
 62
         7
  5
140
 66
         1
 10
0.0
 20
0.0
 30
0.0
  0
VERTEX
  8
0
  6
CONTINUOUS
 62
         7
  5
141
 10
3.1867793421
 20
5.1556876197
 30
0.0
  0
VERTEX
  8
0
  6
CONTINUOUS
 62
         7
  5
142
 10
3.2170926855
 20
5.1529978143
 30
0.0
  0
VERTEX
  8
0
  6
CONTINUOUS
 62
         7
  5
143
 10
3.2576508667
 20
5.1494178179
 30
0.0
  0
SEQEND
  8
0
  6
CONTINUOUS
 62
         7
  5
144
  0
LINE
  8
0
  6
CONTINUOUS
 62
         7
  5
145
 10
1.9027793421
 20
5.1394367841
 30
0.0
 11
1.9027793421
 21
5.044326436
 31
0.0
  0
LINE
  8
0
  6
CONTINUOUS
 62
         7
  5
146
 10
1.9095310505
 20
5.139226895
 30
0.0
 11
1.9095310505
 21
5.0445363251
 31
0.0
  0
LINE
  8
0
  6
CONTINUOUS
 62
         7
  5
147
 10
1.9377793421
 20
5.1416963204
 30
0.0
 11
1.9377793421
 21
5.0420668997
 31
0.0
  0
POLYLINE
  8
0
  6
CONTINUOUS
 62
         7
  5
148
 66
         1
 10
0.0
 20
0.0
 30
0.0
  0
VERTEX
  8
0
  6
CONTINUOUS
 62
         7
  5
149
 10
1.9377633958
 20
5.0415281232
 30
0.0
  0
VERTEX
  8
0
  6
CONTINUOUS
 62
         7
  5
14A
 10
1.9377793421
 20
5.0420668997
 30
0.0
  0
SEQEND
  8
0
  6
CONTINUOUS
 62
         7
  5
14B
  0
LINE
  8
0
  6
CONTINUOUS
 62
         7
  5
14C
 10
1.9677793421
 20
5.0386742399
 30
0.0
 11
1.9677793421
 21
5.0387354356
 31
0.0
  0
ARC
  8
0
  6
CONTINUOUS
 62
         7
  5
14D
 10
1.9127793416
 20
5.0443073492
 30
0.0
 40
0.0099999971
 50
180.0
 51
265.0001901766
  0
ARC
  8
0
  6
CONTINUOUS
 62
         7
  5
14E
 10
1.9127793416
 20
5.1394558709
 30
0.0
 40
0.0099999971
 50
94.9998098234
 51
180.0
  0
LINE
  8
0
  6
CONTINUOUS
 62
         7
  5
14F
 10
1.9119078175
 20
5.1494178179
 30
0.0
 11
1.9119078175
 21
5.149398731
 31
0.0
  0
POLYLINE
  8
0
  6
CONTINUOUS
 62
         7
  5
150
 66
         1
 10
0.0
 20
0.0
 30
0.0
  0
VERTEX
  8
0
  6
CONTINUOUS
 62
         7
  5
151
 10
1.9119078175
 20
5.149398731
 30
0.0
  0
VERTEX
  8
0
  6
CONTINUOUS
 62
         7
  5
152
 10
1.9128015198
 20
5.1494747389
 30
0.0
  0
SEQEND
  8
0
  6
CONTINUOUS
 62
         7
  5
153
  0
POLYLINE
  8
0
  6
CONTINUOUS
 62
         7
  5
154
 66
         1
 10
0.0
 20
0.0
 30
0.0
  0
VERTEX
  8
0
  6
CONTINUOUS
 62
         7
  5
155
 10
1.9377793421
 20
5.1416963204
 30
0.0
  0
VERTEX
  8
0
  6
CONTINUOUS
 62
         7
  5
156
 10
1.9377633958
 20
5.1422350969
 30
0.0
  0
SEQEND
  8
0
  6
CONTINUOUS
 62
         7
  5
157
  0
LINE
  8
0
  6
CONTINUOUS
 62
         7
  5
158
 10
3.1926508667
 20
5.1549897314
 30
0.0
 11
3.1926508667
 21
5.1550540862
 31
0.0
  0
LINE
  8
0
  6
CONTINUOUS
 62
         7
  5
159
 10
1.9769078175
 20
5.0287734887
 30
0.0
 11
1.9769078175
 21
5.0287091339
 31
0.0
  0
LINE
  8
0
  6
CONTINUOUS
 62
         7
  5
15A
 10
1.9769078175
 20
5.0287091339
 30
0.0
 11
1.9414052271
 21
5.0317879859
 31
0.0
  0
LINE
  8
0
  6
CONTINUOUS
 62
         7
  5
15B
 10
1.9414052271
 20
5.0317879859
 30
0.0
 11
1.9128015198
 21
5.0342884812
 31
0.0
  0
POLYLINE
  8
0
  6
CONTINUOUS
 62
         7
  5
15C
 66
         1
 10
0.0
 20
0.0
 30
0.0
  0
VERTEX
  8
0
  6
CONTINUOUS
 62
         7
  5
15D
 10
1.9128015198
 20
5.0342884812
 30
0.0
  0
VERTEX
  8
0
  6
CONTINUOUS
 62
         7
  5
15E
 10
1.9119078175
 20
5.0343644891
 30
0.0
  0
SEQEND
  8
0
  6
CONTINUOUS
 62
         7
  5
15F
  0
LINE
  8
0
  6
CONTINUOUS
 62
         7
  5
160
 10
1.9119078175
 20
5.0343644891
 30
0.0
 11
1.9119078175
 21
5.0343454022
 31
0.0
  0
LINE
  8
0
  6
CONTINUOUS
 62
         7
  5
161
 10
1.9095310505
 20
5.0445363251
 30
0.0
 11
1.9377793421
 21
5.0420668997
 31
0.0
  0
POLYLINE
  8
0
  6
CONTINUOUS
 62
         7
  5
162
 66
         1
 10
0.0
 20
0.0
 30
0.0
  0
VERTEX
  8
0
  6
CONTINUOUS
 62
         7
  5
163
 10
1.9827793421
 20
5.0280756004
 30
0.0
  0
VERTEX
  8
0
  6
CONTINUOUS
 62
         7
  5
164
 10
1.9524659988
 20
5.0307654058
 30
0.0
  0
VERTEX
  8
0
  6
CONTINUOUS
 62
         7
  5
165
 10
1.9119078175
 20
5.0343454022
 30
0.0
  0
SEQEND
  8
0
  6
CONTINUOUS
 62
         7
  5
166
  0
LINE
  8
0
  6
CONTINUOUS
 62
         7
  5
167
 10
1.9377793421
 20
5.1416963204
 30
0.0
 11
1.9095310505
 21
5.139226895
 31
0.0
  0
LINE
  8
0
  6
CONTINUOUS
 62
         7
  5
168
 10
1.9128015198
 20
5.1494747389
 30
0.0
 11
1.9414052271
 21
5.1519752342
 31
0.0
  0
LINE
  8
0
  6
CONTINUOUS
 62
         7
  5
169
 10
1.9677793421
 20
5.1448381367
 30
0.0
 11
1.9377633958
 21
5.1422350969
 31
0.0
  0
LINE
  8
0
  6
CONTINUOUS
 62
         7
  5
16A
 10
1.9769078175
 20
5.1550540862
 30
0.0
 11
1.9769078175
 21
5.1549897314
 31
0.0
  0
LINE
  8
0
  6
CONTINUOUS
 62
         7
  5
16B
 10
1.9414052271
 20
5.1519752342
 30
0.0
 11
1.9769078175
 21
5.1550540862
 31
0.0
  0
LINE
  8
0
  6
CONTINUOUS
 62
         7
  5
16C
 10
1.9677793421
 20
5.1450277845
 30
0.0
 11
1.9677793421
 21
5.1450889802
 31
0.0
  0
POLYLINE
  8
0
  6
CONTINUOUS
 62
         7
  5
16D
 66
         1
 10
0.0
 20
0.0
 30
0.0
  0
VERTEX
  8
0
  6
CONTINUOUS
 62
         7
  5
16E
 10
1.9119078175
 20
5.1494178179
 30
0.0
  0
VERTEX
  8
0
  6
CONTINUOUS
 62
         7
  5
16F
 10
1.9524659988
 20
5.1529978143
 30
0.0
  0
VERTEX
  8
0
  6
CONTINUOUS
 62
         7
  5
170
 10
1.9827793421
 20
5.1556876197
 30
0.0
  0
SEQEND
  8
0
  6
CONTINUOUS
 62
         7
  5
171
  0
LINE
  8
0
  6
CONTINUOUS
 62
         7
  5
172
 10
1.9377633958
 20
5.0415281232
 30
0.0
 11
1.9677793421
 21
5.0389250834
 31
0.0
  0
ARC
  8
0
  6
CONTINUOUS
 62
         7
  5
173
 10
2.2822793421
 20
4.83538161
 30
0.0
 40
0.01
 50
180.0
 51
270.0
  0
LINE
  8
0
  6
CONTINUOUS
 62
         7
  5
174
 10
2.8872793421
 20
4.82538161
 30
0.0
 11
2.2822793421
 21
4.82538161
 31
0.0
  0
ARC
  8
0
  6
CONTINUOUS
 62
         7
  5
175
 10
2.8872793421
 20
4.83538161
 30
0.0
 40
0.01
 50
270.0
 51
360.0
  0
LINE
  8
0
  6
CONTINUOUS
 62
         7
  5
176
 10
2.8972793421
 20
5.49638161
 30
0.0
 11
2.8972793421
 21
4.89538161
 31
0.0
  0
LINE
  8
0
  6
CONTINUOUS
 62
         7
  5
177
 10
2.8972793421
 20
4.85038161
 30
0.0
 11
2.8972793421
 21
4.83538161
 31
0.0
  0
LINE
  8
0
  6
CONTINUOUS
 62
         7
  5
178
 10
2.2722793421
 20
4.83538161
 30
0.0
 11
2.2722793421
 21
4.85038161
 31
0.0
  0
LINE
  8
0
  6
CONTINUOUS
 62
         7
  5
179
 10
2.2722793421
 20
4.89538161
 30
0.0
 11
2.2722793421
 21
5.49638161
 31
0.0
  0
ENDBLK
  8
0
  6
CONTINUOUS
 62
         7
  5
17A
  0
BLOCK
  8
0
 62
         1
 48
0.0
  5
17B
  2
*X3
 70
         1
 10
0.0
 20
0.0
 30
0.0
  3
*X3
  0
INSERT
  8
0
 62
         0
 48
0.0
  5
17C
  2
*X2
 10
0.0
 20
0.0
 30
0.0
  0
ENDBLK
  8
0
 62
         0
 48
0.0
  5
17D
  0
BLOCK
  8
0
 62
         1
 48
0.0
  5
17E
  2
*X4
 70
         1
 10
0.0
 20
0.0
 30
0.0
  3
*X4
  0
LINE
  8
0
  6
CONTINUOUS
 62
         7
  5
17F
 10
4.8822573573
 20
2.9768839634
 30
0.0
 11
4.9366500665
 21
2.9768839634
 31
0.0
  0
LINE
  8
0
  6
CONTINUOUS
 62
         7
  5
180
 10
4.8822573573
 20
2.9768839634
 30
0.0
 11
4.8822573573
 21
3.0218839634
 31
0.0
  0
POLYLINE
  8
0
  6
CONTINUOUS
 62
         7
  5
181
 66
         1
 10
0.0
 20
0.0
 30
0.0
  0
VERTEX
  8
0
  6
CONTINUOUS
 62
         7
  5
182
 10
5.1868654786
 20
3.0270414942
 30
0.0
  0
VERTEX
  8
0
  6
CONTINUOUS
 62
         7
  5
183
 10
5.1839184532
 20
3.0340541658
 30
0.0
  0
VERTEX
  8
0
  6
CONTINUOUS
 62
         7
  5
184
 10
5.1769035317
 20
3.0369958355
 30
0.0
  0
SEQEND
  8
0
  6
CONTINUOUS
 62
         7
  5
185
  0
POLYLINE
  8
0
  6
CONTINUOUS
 62
         7
  5
186
 66
         1
 10
0.0
 20
0.0
 30
0.0
  0
VERTEX
  8
0
  6
CONTINUOUS
 62
         7
  5
187
 10
5.0706111828
 20
3.0369958355
 30
0.0
  0
VERTEX
  8
0
  6
CONTINUOUS
 62
         7
  5
188
 10
5.0635962613
 20
3.0340541658
 30
0.0
  0
VERTEX
  8
0
  6
CONTINUOUS
 62
         7
  5
189
 10
5.0606492359
 20
3.0270414942
 30
0.0
  0
SEQEND
  8
0
  6
CONTINUOUS
 62
         7
  5
18A
  0
LINE
  8
0
  6
CONTINUOUS
 62
         7
  5
18B
 10
5.0706111828
 20
3.0369958355
 30
0.0
 11
5.0706111828
 21
3.0270338885
 31
0.0
  0
LINE
  8
0
  6
CONTINUOUS
 62
         7
  5
18C
 10
5.1769035317
 20
3.0369958355
 30
0.0
 11
5.1769035317
 21
3.0270338885
 31
0.0
  0
POLYLINE
  8
0
  6
CONTINUOUS
 62
         7
  5
18D
 66
         1
 10
0.0
 20
0.0
 30
0.0
  0
VERTEX
  8
0
  6
CONTINUOUS
 62
         7
  5
18E
 10
5.0705499871
 20
2.9468795233
 30
0.0
  0
VERTEX
  8
0
  6
CONTINUOUS
 62
         7
  5
18F
 10
5.0605848811
 20
2.9427494334
 30
0.0
  0
SEQEND
  8
0
  6
CONTINUOUS
 62
         7
  5
190
  0
POLYLINE
  8
0
  6
CONTINUOUS
 62
         7
  5
191
 66
         1
 10
0.0
 20
0.0
 30
0.0
  0
VERTEX
  8
0
  6
CONTINUOUS
 62
         7
  5
192
 10
5.0734038704
 20
2.9168680171
 30
0.0
  0
VERTEX
  8
0
  6
CONTINUOUS
 62
         7
  5
193
 10
5.0666385755
 20
2.913850789
 30
0.0
  0
VERTEX
  8
0
  6
CONTINUOUS
 62
         7
  5
194
 10
5.0636637331
 20
2.9072468431
 30
0.0
  0
SEQEND
  8
0
  6
CONTINUOUS
 62
         7
  5
195
  0
ARC
  8
0
  6
CONTINUOUS
 62
         7
  5
196
 10
5.0764459886
 20
2.9041111985
 30
0.0
 40
0.0103012361
 50
92.4318673853
 51
176.4762109811
  0
LINE
  8
0
  6
CONTINUOUS
 62
         7
  5
197
 10
5.0662402363
 20
2.9018915691
 30
0.0
 11
5.0762021832
 21
2.9018839634
 31
0.0
  0
LINE
  8
0
  6
CONTINUOUS
 62
         7
  5
198
 10
5.0764120723
 20
2.9144125581
 30
0.0
 11
5.0760088932
 21
2.9144031571
 31
0.0
  0
POLYLINE
  8
0
  6
CONTINUOUS
 62
         7
  5
199
 66
         1
 10
0.0
 20
0.0
 30
0.0
  0
VERTEX
  8
0
  6
CONTINUOUS
 62
         7
  5
19A
 10
5.0762021832
 20
2.9018839634
 30
0.0
  0
VERTEX
  8
0
  6
CONTINUOUS
 62
         7
  5
19B
 10
5.0761517541
 20
2.9089924688
 30
0.0
  0
VERTEX
  8
0
  6
CONTINUOUS
 62
         7
  5
19C
 10
5.0760088932
 20
2.9144031571
 30
0.0
  0
SEQEND
  8
0
  6
CONTINUOUS
 62
         7
  5
19D
  0
LINE
  8
0
  6
CONTINUOUS
 62
         7
  5
19E
 10
5.0762021832
 20
2.9018839634
 30
0.0
 11
5.0761830964
 21
2.8768839634
 31
0.0
  0
LINE
  8
0
  6
CONTINUOUS
 62
         7
  5
19F
 10
5.1715058213
 20
2.9144031571
 30
0.0
 11
5.1711026423
 21
2.9144125581
 31
0.0
  0
ARC
  8
0
  6
CONTINUOUS
 62
         7
  5
1A0
 10
5.1710687259
 20
2.9041111985
 30
0.0
 40
0.0103012361
 50
3.523789019
 51
87.5681326146
  0
POLYLINE
  8
0
  6
CONTINUOUS
 62
         7
  5
1A1
 66
         1
 10
0.0
 20
0.0
 30
0.0
  0
VERTEX
  8
0
  6
CONTINUOUS
 62
         7
  5
1A2
 10
5.1715058213
 20
2.9144031571
 30
0.0
  0
VERTEX
  8
0
  6
CONTINUOUS
 62
         7
  5
1A3
 10
5.1713629604
 20
2.9089924688
 30
0.0
  0
VERTEX
  8
0
  6
CONTINUOUS
 62
         7
  5
1A4
 10
5.1713125313
 20
2.9018839634
 30
0.0
  0
SEQEND
  8
0
  6
CONTINUOUS
 62
         7
  5
1A5
  0
LINE
  8
0
  6
CONTINUOUS
 62
         7
  5
1A6
 10
5.1713316181
 20
2.8768839634
 30
0.0
 11
5.1713125313
 21
2.9018839634
 31
0.0
  0
POLYLINE
  8
0
  6
CONTINUOUS
 62
         7
  5
1A7
 66
         1
 10
0.0
 20
0.0
 30
0.0
  0
VERTEX
  8
0
  6
CONTINUOUS
 62
         7
  5
1A8
 10
5.1869298334
 20
2.9427494334
 30
0.0
  0
VERTEX
  8
0
  6
CONTINUOUS
 62
         7
  5
1A9
 10
5.1769647274
 20
2.9468795233
 30
0.0
  0
SEQEND
  8
0
  6
CONTINUOUS
 62
         7
  5
1AA
  0
POLYLINE
  8
0
  6
CONTINUOUS
 62
         7
  5
1AB
 66
         1
 10
0.0
 20
0.0
 30
0.0
  0
VERTEX
  8
0
  6
CONTINUOUS
 62
         7
  5
1AC
 10
5.1838509814
 20
2.9072468431
 30
0.0
  0
VERTEX
  8
0
  6
CONTINUOUS
 62
         7
  5
1AD
 10
5.180876139
 20
2.913850789
 30
0.0
  0
VERTEX
  8
0
  6
CONTINUOUS
 62
         7
  5
1AE
 10
5.1741108441
 20
2.9168680171
 30
0.0
  0
SEQEND
  8
0
  6
CONTINUOUS
 62
         7
  5
1AF
  0
LINE
  8
0
  6
CONTINUOUS
 62
         7
  5
1B0
 10
5.1812744782
 20
2.9018915691
 30
0.0
 11
5.1713125313
 21
2.9018839634
 31
0.0
  0
LINE
  8
0
  6
CONTINUOUS
 62
         7
  5
1B1
 10
4.9662573573
 20
2.5118839634
 30
0.0
 11
5.5404050597
 21
2.5118839634
 31
0.0
  0
LINE
  8
0
  6
CONTINUOUS
 62
         7
  5
1B2
 10
4.8822573573
 20
3.2268839634
 30
0.0
 11
4.8822573573
 21
3.1018839634
 31
0.0
  0
LINE
  8
0
  6
CONTINUOUS
 62
         7
  5
1B3
 10
4.8822573573
 20
3.1018839634
 30
0.0
 11
5.0362573573
 21
3.1018839634
 31
0.0
  0
LINE
  8
0
  6
CONTINUOUS
 62
         7
  5
1B4
 10
5.2112573573
 20
3.1018839634
 30
0.0
 11
5.9072573573
 21
3.1018839634
 31
0.0
  0
LINE
  8
0
  6
CONTINUOUS
 62
         7
  5
1B5
 10
4.8822573573
 20
3.1018839634
 30
0.0
 11
4.8822573573
 21
3.0218839634
 31
0.0
  0
LINE
  8
0
  6
CONTINUOUS
 62
         7
  5
1B6
 10
5.9072573573
 20
3.1018839634
 30
0.0
 11
6.0319709197
 21
3.1018839634
 31
0.0
  0
LINE
  8
0
  6
CONTINUOUS
 62
         7
  5
1B7
 10
5.9072573573
 20
3.1018839634
 30
0.0
 11
5.9072573573
 21
3.0218839634
 31
0.0
  0
LINE
  8
0
  6
CONTINUOUS
 62
         7
  5
1B8
 10
5.1785790577
 20
2.7552176016
 30
0.0
 11
5.0689356568
 21
2.7552176016
 31
0.0
  0
LINE
  8
0
  6
CONTINUOUS
 62
         7
  5
1B9
 10
5.1818030131
 20
3.0418992451
 30
0.0
 11
5.0657117015
 21
3.0418992451
 31
0.0
  0
LINE
  8
0
  6
CONTINUOUS
 62
         7
  5
1BA
 10
5.1735720676
 20
2.9168839634
 30
0.0
 11
5.0739426469
 21
2.9168839634
 31
0.0
  0
LINE
  8
0
  6
CONTINUOUS
 62
         7
  5
1BB
 10
5.1711026423
 20
2.9144125581
 30
0.0
 11
5.0764120723
 21
2.9144125581
 31
0.0
  0
LINE
  8
0
  6
CONTINUOUS
 62
         7
  5
1BC
 10
5.1713125313
 20
2.9018839634
 30
0.0
 11
5.0762021832
 21
2.9018839634
 31
0.0
  0
LINE
  8
0
  6
CONTINUOUS
 62
         7
  5
1BD
 10
5.1713316181
 20
2.8768839634
 30
0.0
 11
5.0761830964
 21
2.8768839634
 31
0.0
  0
LINE
  8
0
  6
CONTINUOUS
 62
         7
  5
1BE
 10
5.1713316181
 20
2.8691458096
 30
0.0
 11
5.0761830964
 21
2.8691458096
 31
0.0
  0
ARC
  8
0
  6
CONTINUOUS
 62
         7
  5
1BF
 10
5.0357573573
 20
2.6538839634
 30
0.0
 40
0.02
 50
180.0
 51
360.0
  0
LINE
  8
0
  6
CONTINUOUS
 62
         7
  5
1C0
 10
5.2317573573
 20
3.0070148615
 30
0.0
 11
5.2317573573
 21
2.6538839634
 31
0.0
  0
ARC
  8
0
  6
CONTINUOUS
 62
         7
  5
1C1
 10
5.0357573573
 20
2.6543036927
 30
0.0
 40
0.0238129653
 50
180.0948217111
 51
359.9051782889
  0
LINE
  8
0
  6
CONTINUOUS
 62
         7
  5
1C2
 10
5.1767138839
 20
2.9468839634
 30
0.0
 11
5.0708008306
 21
2.9468839634
 31
0.0
  0
LINE
  8
0
  6
CONTINUOUS
 62
         7
  5
1C3
 10
5.0557573573
 20
3.031937295
 30
0.0
 11
5.0557573573
 21
2.6538839634
 31
0.0
  0
LINE
  8
0
  6
CONTINUOUS
 62
         7
  5
1C4
 10
5.0595702899
 20
2.6542642834
 30
0.0
 11
5.0597640249
 21
2.7811416179
 31
0.0
  0
LINE
  8
0
  6
CONTINUOUS
 62
         7
  5
1C5
 10
5.1917573573
 20
2.6538839634
 30
0.0
 11
5.1917573573
 21
3.031937295
 31
0.0
  0
LINE
  8
0
  6
CONTINUOUS
 62
         7
  5
1C6
 10
5.1877506896
 20
2.7811416179
 30
0.0
 11
5.1879444246
 21
2.6542642834
 31
0.0
  0
LINE
  8
0
  6
CONTINUOUS
 62
         7
  5
1C7
 10
5.0113830888
 20
3.0218839634
 30
0.0
 11
5.0119444246
 21
2.6542642834
 31
0.0
  0
ARC
  8
0
  6
CONTINUOUS
 62
         7
  5
1C8
 10
5.2117573573
 20
2.6543036927
 30
0.0
 40
0.0238129653
 50
180.0948217111
 51
359.9051782889
  0
LINE
  8
0
  6
CONTINUOUS
 62
         7
  5
1C9
 10
5.1769647274
 20
2.9468795233
 30
0.0
 11
5.1769035317
 21
3.0270338885
 31
0.0
  0
POLYLINE
  8
0
  6
CONTINUOUS
 62
         7
  5
1CA
 66
         1
 10
0.0
 20
0.0
 30
0.0
  0
VERTEX
  8
0
  6
CONTINUOUS
 62
         7
  5
1CB
 10
5.1741108441
 20
2.9168680171
 30
0.0
  0
VERTEX
  8
0
  6
CONTINUOUS
 62
         7
  5
1CC
 10
5.1735720676
 20
2.9168839634
 30
0.0
  0
SEQEND
  8
0
  6
CONTINUOUS
 62
         7
  5
1CD
  0
POLYLINE
  8
0
  6
CONTINUOUS
 62
         7
  5
1CF
 66
         1
 10
0.0
 20
0.0
 30
0.0
  0
VERTEX
  8
0
  6
CONTINUOUS
 62
         7
  5
1D0
 10
5.0662211494
 20
2.8768915691
 30
0.0
  0
VERTEX
  8
0
  6
CONTINUOUS
 62
         7
  5
1D1
 10
5.0761830964
 20
2.8691458096
 30
0.0
  0
SEQEND
  8
0
  6
CONTINUOUS
 62
         7
  5
1D2
  0
LINE
  8
0
  6
CONTINUOUS
 62
         7
  5
1D3
 10
5.0662211494
 20
2.8768915691
 30
0.0
 11
5.0761830964
 21
2.8768839634
 31
0.0
  0
POLYLINE
  8
0
  6
CONTINUOUS
 62
         7
  5
1D4
 66
         1
 10
0.0
 20
0.0
 30
0.0
  0
VERTEX
  8
0
  6
CONTINUOUS
 62
         7
  5
1D5
 10
5.1713316181
 20
2.8691458096
 30
0.0
  0
VERTEX
  8
0
  6
CONTINUOUS
 62
         7
  5
1D6
 10
5.1812935651
 20
2.8768915691
 30
0.0
  0
SEQEND
  8
0
  6
CONTINUOUS
 62
         7
  5
1D7
  0
LINE
  8
0
  6
CONTINUOUS
 62
         7
  5
1D8
 10
5.1812935651
 20
2.8768915691
 30
0.0
 11
5.1713316181
 21
2.8768839634
 31
0.0
  0
POLYLINE
  8
0
  6
CONTINUOUS
 62
         7
  5
1D9
 66
         1
 10
0.0
 20
0.0
 30
0.0
  0
VERTEX
  8
0
  6
CONTINUOUS
 62
         7
  5
1DA
 10
5.0662402363
 20
2.9018915691
 30
0.0
  0
VERTEX
  8
0
  6
CONTINUOUS
 62
         7
  5
1DB
 10
5.0662213736
 20
2.9033863117
 30
0.0
  0
VERTEX
  8
0
  6
CONTINUOUS
 62
         7
  5
1DC
 10
5.0661642284
 20
2.9047443429
 30
0.0
  0
SEQEND
  8
0
  6
CONTINUOUS
 62
         7
  5
1DD
  0
LINE
  8
0
  6
CONTINUOUS
 62
         7
  5
1DE
 10
5.0662211494
 20
2.8768915691
 30
0.0
 11
5.0662402363
 21
2.9018915691
 31
0.0
  0
ARC
  8
0
  6
CONTINUOUS
 62
         7
  5
1DF
 10
5.0708008306
 20
2.9398004128
 30
0.0
 40
0.0070835533
 50
90.0
 51
92.0293884382
  0
POLYLINE
  8
0
  6
CONTINUOUS
 62
         7
  5
1E0
 66
         1
 10
0.0
 20
0.0
 30
0.0
  0
VERTEX
  8
0
  6
CONTINUOUS
 62
         7
  5
1E1
 10
5.0739426469
 20
2.9168839634
 30
0.0
  0
VERTEX
  8
0
  6
CONTINUOUS
 62
         7
  5
1E2
 10
5.0734038704
 20
2.9168680171
 30
0.0
  0
SEQEND
  8
0
  6
CONTINUOUS
 62
         7
  5
1E3
  0
POLYLINE
  8
0
  6
CONTINUOUS
 62
         7
  5
1E5
 66
         1
 10
0.0
 20
0.0
 30
0.0
  0
VERTEX
  8
0
  6
CONTINUOUS
 62
         7
  5
1E6
 10
5.0761830964
 20
2.8691458096
 30
0.0
  0
VERTEX
  8
0
  6
CONTINUOUS
 62
         7
  5
1E7
 10
5.071831933
 20
2.8177354385
 30
0.0
  0
VERTEX
  8
0
  6
CONTINUOUS
 62
         7
  5
1E8
 10
5.0689356568
 20
2.7552176016
 30
0.0
  0
SEQEND
  8
0
  6
CONTINUOUS
 62
         7
  5
1E9
  0
LINE
  8
0
  6
CONTINUOUS
 62
         7
  5
1EA
 10
5.0761830964
 20
2.8768839634
 30
0.0
 11
5.0761830964
 21
2.8691458096
 31
0.0
  0
LINE
  8
0
  6
CONTINUOUS
 62
         7
  5
1EB
 10
5.2112573573
 20
3.0618839634
 30
0.0
 11
5.0362573573
 21
3.0618839634
 31
0.0
  0
LINE
  8
0
  6
CONTINUOUS
 62
         7
  5
1EC
 10
5.0362573573
 20
3.0768839634
 30
0.0
 11
5.2112573573
 21
3.0768839634
 31
0.0
  0
LINE
  8
0
  6
CONTINUOUS
 62
         7
  5
1ED
 10
5.2112573573
 20
3.0418839634
 30
0.0
 11
5.182356341
 21
3.0418839634
 31
0.0
  0
LINE
  8
0
  6
CONTINUOUS
 62
         7
  5
1EE
 10
5.0651583735
 20
3.0418839634
 30
0.0
 11
5.0362573573
 21
3.0418839634
 31
0.0
  0
POLYLINE
  8
0
  6
CONTINUOUS
 62
         7
  5
1EF
 66
         1
 10
0.0
 20
0.0
 30
0.0
  0
VERTEX
  8
0
  6
CONTINUOUS
 62
         7
  5
1F0
 10
5.0657117015
 20
3.0418992451
 30
0.0
  0
VERTEX
  8
0
  6
CONTINUOUS
 62
         7
  5
1F1
 10
5.0557573573
 20
3.031937295
 30
0.0
  0
SEQEND
  8
0
  6
CONTINUOUS
 62
         7
  5
1F2
  0
LINE
  8
0
  6
CONTINUOUS
 62
         7
  5
1F3
 10
5.0657117015
 20
3.0418992451
 30
0.0
 11
5.0706111828
 21
3.0369958355
 31
0.0
  0
POLYLINE
  8
0
  6
CONTINUOUS
 62
         7
  5
1F4
 66
         1
 10
0.0
 20
0.0
 30
0.0
  0
VERTEX
  8
0
  6
CONTINUOUS
 62
         7
  5
1F5
 10
5.1917573573
 20
3.031937295
 30
0.0
  0
VERTEX
  8
0
  6
CONTINUOUS
 62
         7
  5
1F6
 10
5.1818030131
 20
3.0418992451
 30
0.0
  0
SEQEND
  8
0
  6
CONTINUOUS
 62
         7
  5
1F7
  0
LINE
  8
0
  6
CONTINUOUS
 62
         7
  5
1F8
 10
5.1769035317
 20
3.0369958355
 30
0.0
 11
5.1818030131
 21
3.0418992451
 31
0.0
  0
LINE
  8
0
  6
CONTINUOUS
 62
         7
  5
1F9
 10
5.0706111828
 20
3.0369958355
 30
0.0
 11
5.1769035317
 21
3.0369958355
 31
0.0
  0
LINE
  8
0
  6
CONTINUOUS
 62
         7
  5
1FA
 10
5.0706111828
 20
3.0270338885
 30
0.0
 11
5.0606492359
 21
3.0270414942
 31
0.0
  0
LINE
  8
0
  6
CONTINUOUS
 62
         7
  5
1FB
 10
5.1868654786
 20
3.0270414942
 30
0.0
 11
5.1769035317
 21
3.0270338885
 31
0.0
  0
LINE
  8
0
  6
CONTINUOUS
 62
         7
  5
1FC
 10
5.1769035317
 20
3.0270338885
 30
0.0
 11
5.0706111828
 21
3.0270338885
 31
0.0
  0
LINE
  8
0
  6
CONTINUOUS
 62
         7
  5
1FD
 10
5.0606492359
 20
3.0270414942
 30
0.0
 11
5.0557573573
 21
3.031937295
 31
0.0
  0
LINE
  8
0
  6
CONTINUOUS
 62
         7
  5
1FE
 10
5.1917573573
 20
3.031937295
 30
0.0
 11
5.1868654786
 21
3.0270414942
 31
0.0
  0
LINE
  8
0
  6
CONTINUOUS
 62
         7
  5
1FF
 10
5.6232573573
 20
3.2268839634
 30
0.0
 11
5.6382573573
 21
3.2268839634
 31
0.0
  0
LINE
  8
0
  6
CONTINUOUS
 62
         7
  5
200
 10
5.6382573573
 20
3.2268839634
 30
0.0
 11
5.6382573573
 21
3.1018839634
 31
0.0
  0
LINE
  8
0
  6
CONTINUOUS
 62
         7
  5
201
 10
5.6232573573
 20
3.1018839634
 30
0.0
 11
5.6232573573
 21
3.2268839634
 31
0.0
  0
LINE
  8
0
  6
CONTINUOUS
 62
         7
  5
202
 10
4.8822573573
 20
3.2268839634
 30
0.0
 11
5.6232573573
 21
3.2268839634
 31
0.0
  0
LINE
  8
0
  6
CONTINUOUS
 62
         7
  5
203
 10
5.2112573573
 20
3.0218839634
 30
0.0
 11
5.1917573573
 21
3.0218839634
 31
0.0
  0
LINE
  8
0
  6
CONTINUOUS
 62
         7
  5
204
 10
5.0557573573
 20
3.0218839634
 30
0.0
 11
5.0362573573
 21
3.0218839634
 31
0.0
  0
ARC
  8
0
  6
CONTINUOUS
 62
         7
  5
205
 10
5.2117573573
 20
2.6538839634
 30
0.0
 40
0.02
 50
180.0
 51
360.0
  0
LINE
  8
0
  6
CONTINUOUS
 62
         7
  5
206
 10
5.2112573573
 20
3.1018839634
 30
0.0
 11
5.0362573573
 21
3.1018839634
 31
0.0
  0
LINE
  8
0
  6
CONTINUOUS
 62
         7
  5
207
 10
5.0362573573
 20
3.0218839634
 30
0.0
 11
5.0362573573
 21
3.1018839634
 31
0.0
  0
LINE
  8
0
  6
CONTINUOUS
 62
         7
  5
208
 10
5.2112573573
 20
3.0218839634
 30
0.0
 11
5.2112573573
 21
3.1018839634
 31
0.0
  0
LINE
  8
0
  6
CONTINUOUS
 62
         7
  5
209
 10
4.8822573573
 20
3.0218839634
 30
0.0
 11
5.0362573573
 21
3.0218839634
 31
0.0
  0
LINE
  8
0
  6
CONTINUOUS
 62
         7
  5
20A
 10
5.2112573573
 20
3.0218839634
 30
0.0
 11
5.9072573573
 21
3.0218839634
 31
0.0
  0
LINE
  8
0
  6
CONTINUOUS
 62
         7
  5
20B
 10
5.9072573573
 20
3.0218839634
 30
0.0
 11
6.0319709197
 21
3.0218839634
 31
0.0
  0
LINE
  8
0
  6
CONTINUOUS
 62
         7
  5
20C
 10
5.0708008306
 20
2.9468839634
 30
0.0
 11
5.0734038704
 21
2.9168680171
 31
0.0
  0
LINE
  8
0
  6
CONTINUOUS
 62
         7
  5
20D
 10
5.0706111828
 20
3.0270338885
 30
0.0
 11
5.0705499871
 21
2.9468795233
 31
0.0
  0
LINE
  8
0
  6
CONTINUOUS
 62
         7
  5
20E
 10
5.0605848811
 20
2.9427494334
 30
0.0
 11
5.0606492359
 21
3.0270414942
 31
0.0
  0
LINE
  8
0
  6
CONTINUOUS
 62
         7
  5
20F
 10
5.0636637331
 20
2.9072468431
 30
0.0
 11
5.0605848811
 21
2.9427494334
 31
0.0
  0
LINE
  8
0
  6
CONTINUOUS
 62
         7
  5
210
 10
5.0739426469
 20
2.9168839634
 30
0.0
 11
5.0764120723
 21
2.9144125581
 31
0.0
  0
LINE
  8
0
  6
CONTINUOUS
 62
         7
  5
211
 10
5.0661642284
 20
2.9047443429
 30
0.0
 11
5.0636637331
 21
2.9072468431
 31
0.0
  0
POLYLINE
  8
0
  6
CONTINUOUS
 62
         7
  5
212
 66
         1
 10
0.0
 20
0.0
 30
0.0
  0
VERTEX
  8
0
  6
CONTINUOUS
 62
         7
  5
213
 10
5.0662211494
 20
2.8768915691
 30
0.0
  0
VERTEX
  8
0
  6
CONTINUOUS
 62
         7
  5
214
 10
5.0625043485
 20
2.8332982832
 30
0.0
  0
VERTEX
  8
0
  6
CONTINUOUS
 62
         7
  5
215
 10
5.0597640249
 20
2.7811416179
 30
0.0
  0
SEQEND
  8
0
  6
CONTINUOUS
 62
         7
  5
216
  0
LINE
  8
0
  6
CONTINUOUS
 62
         7
  5
217
 10
5.1741108441
 20
2.9168680171
 30
0.0
 11
5.1767138839
 21
2.9468839634
 31
0.0
  0
ARC
  8
0
  6
CONTINUOUS
 62
         7
  5
218
 10
5.1767138839
 20
2.9398004128
 30
0.0
 40
0.0070835506
 50
87.9706115618
 51
90.0
  0
LINE
  8
0
  6
CONTINUOUS
 62
         7
  5
219
 10
5.1838509814
 20
2.9072468431
 30
0.0
 11
5.1813504861
 21
2.9047443429
 31
0.0
  0
LINE
  8
0
  6
CONTINUOUS
 62
         7
  5
21A
 10
5.1869298334
 20
2.9427494334
 30
0.0
 11
5.1838509814
 21
2.9072468431
 31
0.0
  0
LINE
  8
0
  6
CONTINUOUS
 62
         7
  5
21B
 10
5.1711026423
 20
2.9144125581
 30
0.0
 11
5.1735720676
 21
2.9168839634
 31
0.0
  0
POLYLINE
  8
0
  6
CONTINUOUS
 62
         7
  5
21C
 66
         1
 10
0.0
 20
0.0
 30
0.0
  0
VERTEX
  8
0
  6
CONTINUOUS
 62
         7
  5
21D
 10
5.1813504861
 20
2.9047443429
 30
0.0
  0
VERTEX
  8
0
  6
CONTINUOUS
 62
         7
  5
21E
 10
5.1812933409
 20
2.9033863117
 30
0.0
  0
VERTEX
  8
0
  6
CONTINUOUS
 62
         7
  5
21F
 10
5.1812744782
 20
2.9018915691
 30
0.0
  0
SEQEND
  8
0
  6
CONTINUOUS
 62
         7
  5
220
  0
LINE
  8
0
  6
CONTINUOUS
 62
         7
  5
221
 10
5.1812744782
 20
2.9018915691
 30
0.0
 11
5.1812935651
 21
2.8768915691
 31
0.0
  0
POLYLINE
  8
0
  6
CONTINUOUS
 62
         7
  5
222
 66
         1
 10
0.0
 20
0.0
 30
0.0
  0
VERTEX
  8
0
  6
CONTINUOUS
 62
         7
  5
223
 10
5.1877506896
 20
2.7811416179
 30
0.0
  0
VERTEX
  8
0
  6
CONTINUOUS
 62
         7
  5
224
 10
5.185010366
 20
2.8332982832
 30
0.0
  0
VERTEX
  8
0
  6
CONTINUOUS
 62
         7
  5
225
 10
5.1812935651
 20
2.8768915691
 30
0.0
  0
SEQEND
  8
0
  6
CONTINUOUS
 62
         7
  5
226
  0
POLYLINE
  8
0
  6
CONTINUOUS
 62
         7
  5
227
 66
         1
 10
0.0
 20
0.0
 30
0.0
  0
VERTEX
  8
0
  6
CONTINUOUS
 62
         7
  5
228
 10
5.1785790577
 20
2.7552176016
 30
0.0
  0
VERTEX
  8
0
  6
CONTINUOUS
 62
         7
  5
229
 10
5.1756827815
 20
2.8177354385
 30
0.0
  0
VERTEX
  8
0
  6
CONTINUOUS
 62
         7
  5
22A
 10
5.1713316181
 20
2.8691458096
 30
0.0
  0
SEQEND
  8
0
  6
CONTINUOUS
 62
         7
  5
22B
  0
LINE
  8
0
  6
CONTINUOUS
 62
         7
  5
22C
 10
5.1713316181
 20
2.8691458096
 30
0.0
 11
5.1713316181
 21
2.8768839634
 31
0.0
  0
LINE
  8
0
  6
CONTINUOUS
 62
         7
  5
22D
 10
5.0557573573
 20
2.6538839634
 30
0.0
 11
5.0595702899
 21
2.6542642834
 31
0.0
  0
LINE
  8
0
  6
CONTINUOUS
 62
         7
  5
22E
 10
5.0157573573
 20
2.6538839634
 30
0.0
 11
5.0119444246
 21
2.6542642834
 31
0.0
  0
LINE
  8
0
  6
CONTINUOUS
 62
         7
  5
22F
 10
5.2355702899
 20
2.6542642834
 30
0.0
 11
5.2361316257
 21
3.0218839634
 31
0.0
  0
LINE
  8
0
  6
CONTINUOUS
 62
         7
  5
230
 10
5.0157573573
 20
2.6538839634
 30
0.0
 11
5.0157573573
 21
3.0070148615
 31
0.0
  0
POLYLINE
  8
0
  6
CONTINUOUS
 62
         7
  5
231
 66
         1
 10
0.0
 20
0.0
 30
0.0
  0
VERTEX
  8
0
  6
CONTINUOUS
 62
         7
  5
232
 10
5.0170582357
 20
3.0218839634
 30
0.0
  0
VERTEX
  8
0
  6
CONTINUOUS
 62
         7
  5
233
 10
5.0157573573
 20
3.0070148615
 30
0.0
  0
SEQEND
  8
0
  6
CONTINUOUS
 62
         7
  5
234
  0
POLYLINE
  8
0
  6
CONTINUOUS
 62
         7
  5
235
 66
         1
 10
0.0
 20
0.0
 30
0.0
  0
VERTEX
  8
0
  6
CONTINUOUS
 62
         7
  5
236
 10
5.2317573573
 20
3.0070148615
 30
0.0
  0
VERTEX
  8
0
  6
CONTINUOUS
 62
         7
  5
237
 10
5.2304564788
 20
3.0218839634
 30
0.0
  0
SEQEND
  8
0
  6
CONTINUOUS
 62
         7
  5
238
  0
LINE
  8
0
  6
CONTINUOUS
 62
         7
  5
239
 10
5.2317573573
 20
2.6538839634
 30
0.0
 11
5.2355702899
 21
2.6542642834
 31
0.0
  0
LINE
  8
0
  6
CONTINUOUS
 62
         7
  5
23A
 10
5.5639407875
 20
2.5118839634
 30
0.0
 11
5.5404050597
 21
2.5118839634
 31
0.0
  0
LINE
  8
0
  6
CONTINUOUS
 62
         7
  5
23B
 10
4.9662573573
 20
2.5118839634
 30
0.0
 11
4.9407080617
 21
2.5118839634
 31
0.0
  0
LINE
  8
0
  6
CONTINUOUS
 62
         7
  5
23C
 10
5.6528094361
 20
3.0218839634
 30
0.0
 11
5.6483587316
 21
2.5118839634
 31
0.0
  0
LINE
  8
0
  6
CONTINUOUS
 62
         7
  5
23D
 10
5.6477773909
 20
2.5118839634
 30
0.0
 11
5.6521268255
 21
3.0218839634
 31
0.0
  0
LINE
  8
0
  6
CONTINUOUS
 62
         7
  5
23E
 10
5.5404050597
 20
2.5118839634
 30
0.0
 11
5.5404050597
 21
3.0218839634
 31
0.0
  0
LINE
  8
0
  6
CONTINUOUS
 62
         7
  5
23F
 10
5.6483587316
 20
2.5118839634
 30
0.0
 11
5.6477773909
 21
2.5118839634
 31
0.0
  0
LINE
  8
0
  6
CONTINUOUS
 62
         7
  5
240
 10
5.5680407271
 20
3.0218839634
 30
0.0
 11
5.5639407875
 21
2.5118839634
 31
0.0
  0
LINE
  8
0
  6
CONTINUOUS
 62
         7
  5
241
 10
4.9407080617
 20
2.5118839634
 30
0.0
 11
4.9362573573
 21
3.0218839634
 31
0.0
  0
LINE
  8
0
  6
CONTINUOUS
 62
         7
  5
242
 10
5.5639407875
 20
2.5118839634
 30
0.0
 11
5.6477773909
 21
2.5118839634
 31
0.0
  0
LINE
  8
0
  6
CONTINUOUS
 62
         7
  5
243
 10
4.9662573573
 20
3.0218839634
 30
0.0
 11
4.9662573573
 21
2.5118839634
 31
0.0
  0
LINE
  8
0
  6
CONTINUOUS
 62
         7
  5
244
 10
5.2317573573
 20
3.0070148615
 30
0.0
 11
5.1917573573
 21
3.0070148615
 31
0.0
  0
LINE
  8
0
  6
CONTINUOUS
 62
         7
  5
245
 10
5.0557573573
 20
3.0070148615
 30
0.0
 11
5.0157573573
 21
3.0070148615
 31
0.0
  0
LINE
  8
0
  6
CONTINUOUS
 62
         7
  5
246
 10
5.1917573573
 20
2.6538839634
 30
0.0
 11
5.1879444246
 21
2.6542642834
 31
0.0
  0
LINE
  8
0
  6
CONTINUOUS
 62
         7
  5
247
 10
5.1868654786
 20
3.0270414942
 30
0.0
 11
5.1869298334
 21
2.9427494334
 31
0.0
  0
LINE
  8
0
  6
CONTINUOUS
 62
         7
  5
248
 10
6.0319709197
 20
3.0218839634
 30
0.0
 11
6.0319709197
 21
3.1018839634
 31
0.0
  0
LINE
  8
0
  6
CONTINUOUS
 62
         7
  5
249
 10
4.8672573573
 20
3.0468839634
 30
0.0
 11
4.8572573573
 21
3.0468839634
 31
0.0
  0
LINE
  8
0
  6
CONTINUOUS
 62
         7
  5
24A
 10
4.8822573573
 20
3.0468839634
 30
0.0
 11
4.8672573573
 21
3.0468839634
 31
0.0
  0
LINE
  8
0
  6
CONTINUOUS
 62
         7
  5
24B
 10
4.8672573573
 20
2.5468839634
 30
0.0
 11
4.8572573573
 21
2.5468839634
 31
0.0
  0
LINE
  8
0
  6
CONTINUOUS
 62
         7
  5
24C
 10
4.9404026212
 20
2.5468839634
 30
0.0
 11
4.8672573573
 21
2.5468839634
 31
0.0
  0
LINE
  8
0
  6
CONTINUOUS
 62
         7
  5
24D
 10
4.8572573573
 20
2.5468839634
 30
0.0
 11
4.8572573573
 21
3.0468839634
 31
0.0
  0
LINE
  8
0
  6
CONTINUOUS
 62
         7
  5
24E
 10
4.8672573573
 20
2.5468839634
 30
0.0
 11
4.8672573573
 21
3.0468839634
 31
0.0
  0
ENDBLK
  8
0
  6
CONTINUOUS
 62
         7
  5
24F
  0
BLOCK
  8
0
 62
         1
 48
0.0
  5
250
  2
*X5
 70
         1
 10
0.0
 20
0.0
 30
0.0
  3
*X5
  0
INSERT
  8
0
 62
         0
 48
0.0
  5
251
  2
*X4
 10
0.0
 20
0.0
 30
0.0
  0
ENDBLK
  8
0
 62
         0
 48
0.0
  5
252
  0
BLOCK
  8
0
 62
         1
 48
0.0
  5
253
  2
*X6
 70
         1
 10
0.0
 20
0.0
 30
0.0
  3
*X6
  0
LINE
  8
0
  6
CONTINUOUS
 62
         7
  5
254
 10
5.3406977785
 20
5.6292736411
 30
0.0
 11
5.3445981991
 21
5.2643525517
 31
0.0
  0
LINE
  8
0
  6
CONTINUOUS
 62
         7
  5
255
 10
6.3325170796
 20
5.0908206967
 30
0.0
 11
6.3997972445
 21
5.129664918
 31
0.0
  0
ARC
  8
0
  6
CONTINUOUS
 62
         7
  5
256
 10
6.3275170796
 20
5.0994809507
 30
0.0
 40
0.01
 50
291.0468368298
 51
300.0
  0
LINE
  8
0
  6
CONTINUOUS
 62
         7
  5
257
 10
6.3056492797
 20
5.6641186533
 30
0.0
 11
6.3056492797
 21
5.6660036095
 31
0.0
  0
LINE
  8
0
  6
CONTINUOUS
 62
         7
  5
258
 10
6.3056492797
 20
5.6926960336
 30
0.0
 11
6.3056492797
 21
5.7139249447
 31
0.0
  0
LINE
  8
0
  6
CONTINUOUS
 62
         7
  5
259
 10
6.3268624831
 20
5.6804485849
 30
0.0
 11
6.3268624831
 21
5.701677496
 31
0.0
  0
LINE
  8
0
  6
CONTINUOUS
 62
         7
  5
25A
 10
6.3412228252
 20
5.6933865487
 30
0.0
 11
6.3412228252
 21
5.6846570493
 31
0.0
  0
LINE
  8
0
  6
CONTINUOUS
 62
         7
  5
25B
 10
6.0963456725
 20
5.8347664387
 30
0.0
 11
6.0963456725
 21
5.8135375276
 31
0.0
  0
LINE
  8
0
  6
CONTINUOUS
 62
         7
  5
25C
 10
6.075132469
 20
5.8470138874
 30
0.0
 11
6.075132469
 21
5.8257849763
 31
0.0
  0
LINE
  8
0
  6
CONTINUOUS
 62
         7
  5
25D
 10
6.1107060145
 20
5.8052465803
 30
0.0
 11
6.1107060145
 21
5.8264754914
 31
0.0
  0
LINE
  8
0
  6
CONTINUOUS
 62
         7
  5
25E
 10
5.9733090925
 20
5.2272929825
 30
0.0
 11
6.0051288977
 21
5.2456641556
 31
0.0
  0
LINE
  8
0
  6
CONTINUOUS
 62
         7
  5
25F
 10
5.4571211423
 20
5.5253142345
 30
0.0
 11
5.9733090925
 21
5.2272929825
 31
0.0
  0
LINE
  8
0
  6
CONTINUOUS
 62
         7
  5
260
 10
5.4571211423
 20
5.5253142345
 30
0.0
 11
5.4571211423
 21
5.5620565807
 31
0.0
  0
LINE
  8
0
  6
CONTINUOUS
 62
         7
  5
261
 10
5.9733090925
 20
5.2272929825
 30
0.0
 11
5.9733090925
 21
5.2640353286
 31
0.0
  0
POLYLINE
  8
0
  6
CONTINUOUS
 62
         7
  5
262
 66
         1
 10
0.0
 20
0.0
 30
0.0
  0
VERTEX
  8
0
  6
CONTINUOUS
 62
         7
  5
263
 10
6.3590158177
 20
5.2975467189
 30
0.0
  0
VERTEX
  8
0
  6
CONTINUOUS
 62
         7
  5
264
 10
6.3533915257
 20
5.2975110194
 30
0.0
  0
SEQEND
  8
0
  6
CONTINUOUS
 62
         7
  5
265
  0
POLYLINE
  8
0
  6
CONTINUOUS
 62
         7
  5
266
 66
         1
 10
0.0
 20
0.0
 30
0.0
  0
VERTEX
  8
0
  6
CONTINUOUS
 62
         7
  5
267
 10
6.3598463094
 20
5.2856504527
 30
0.0
  0
VERTEX
  8
0
  6
CONTINUOUS
 62
         7
  5
268
 10
6.3579885796
 20
5.2922391844
 30
0.0
  0
VERTEX
  8
0
  6
CONTINUOUS
 62
         7
  5
269
 10
6.3533915257
 20
5.2975110194
 30
0.0
  0
SEQEND
  8
0
  6
CONTINUOUS
 62
         7
  5
26A
  0
POLYLINE
  8
0
  6
CONTINUOUS
 62
         7
  5
26B
 66
         1
 10
0.0
 20
0.0
 30
0.0
  0
VERTEX
  8
0
  6
CONTINUOUS
 62
         7
  5
26C
 10
6.271141796
 20
5.1730722775
 30
0.0
  0
VERTEX
  8
0
  6
CONTINUOUS
 62
         7
  5
26D
 10
6.2780073889
 20
5.1740170381
 30
0.0
  0
VERTEX
  8
0
  6
CONTINUOUS
 62
         7
  5
26E
 10
6.2846429968
 20
5.1767860347
 30
0.0
  0
SEQEND
  8
0
  6
CONTINUOUS
 62
         7
  5
26F
  0
POLYLINE
  8
0
  6
CONTINUOUS
 62
         7
  5
270
 66
         1
 10
0.0
 20
0.0
 30
0.0
  0
VERTEX
  8
0
  6
CONTINUOUS
 62
         7
  5
271
 10
6.3211026767
 20
5.1154846212
 30
0.0
  0
VERTEX
  8
0
  6
CONTINUOUS
 62
         7
  5
272
 10
6.3279667548
 20
5.1141373616
 30
0.0
  0
VERTEX
  8
0
  6
CONTINUOUS
 62
         7
  5
273
 10
6.3346016438
 20
5.1158186745
 30
0.0
  0
SEQEND
  8
0
  6
CONTINUOUS
 62
         7
  5
274
  0
ARC
  8
0
  6
CONTINUOUS
 62
         7
  5
275
 10
6.3606332848
 20
5.092167795
 30
0.0
 40
0.0478780451
 50
130.2457020376
 51
147.1373379579
  0
LINE
  8
0
  6
CONTINUOUS
 62
         7
  5
276
 10
6.3346016438
 20
5.1158186745
 30
0.0
 11
6.3345881474
 21
5.0953984678
 31
0.0
  0
LINE
  8
0
  6
CONTINUOUS
 62
         7
  5
277
 10
6.329975879
 20
5.1288902895
 30
0.0
 11
6.329700873
 21
5.1287121941
 31
0.0
  0
POLYLINE
  8
0
  6
CONTINUOUS
 62
         7
  5
278
 66
         1
 10
0.0
 20
0.0
 30
0.0
  0
VERTEX
  8
0
  6
CONTINUOUS
 62
         7
  5
279
 10
6.3346016438
 20
5.1158186745
 30
0.0
  0
VERTEX
  8
0
  6
CONTINUOUS
 62
         7
  5
27A
 10
6.3332993284
 20
5.1223334618
 30
0.0
  0
VERTEX
  8
0
  6
CONTINUOUS
 62
         7
  5
27B
 10
6.329700873
 20
5.1287121941
 30
0.0
  0
SEQEND
  8
0
  6
CONTINUOUS
 62
         7
  5
27C
  0
LINE
  8
0
  6
CONTINUOUS
 62
         7
  5
27D
 10
6.3972273984
 20
5.1676986517
 30
0.0
 11
6.3969322231
 21
5.1675475528
 31
0.0
  0
LINE
  8
0
  6
CONTINUOUS
 62
         7
  5
27F
 10
6.4018683123
 20
5.1342426891
 30
0.0
 11
6.4018548159
 21
5.1546473115
 31
0.0
  0
POLYLINE
  8
0
  6
CONTINUOUS
 62
         7
  5
280
 66
         1
 10
0.0
 20
0.0
 30
0.0
  0
VERTEX
  8
0
  6
CONTINUOUS
 62
         7
  5
281
 10
6.4018548159
 20
5.1546473115
 30
0.0
  0
VERTEX
  8
0
  6
CONTINUOUS
 62
         7
  5
282
 10
6.4047837466
 20
5.1587348247
 30
0.0
  0
SEQEND
  8
0
  6
CONTINUOUS
 62
         7
  5
283
  0
POLYLINE
  8
0
  6
CONTINUOUS
 62
         7
  5
284
 66
         1
 10
0.0
 20
0.0
 30
0.0
  0
VERTEX
  8
0
  6
CONTINUOUS
 62
         7
  5
285
 10
6.3598895813
 20
5.2202296706
 30
0.0
  0
VERTEX
  8
0
  6
CONTINUOUS
 62
         7
  5
286
 10
6.3628193044
 20
5.2231197248
 30
0.0
  0
SEQEND
  8
0
  6
CONTINUOUS
 62
         7
  5
287
  0
LINE
  8
0
  6
CONTINUOUS
 62
         7
  5
288
 10
6.197143246
 20
4.7869770764
 30
0.0
 11
6.6031269798
 21
5.0213718944
 31
0.0
  0
LINE
  8
0
  6
CONTINUOUS
 62
         7
  5
289
 10
6.3528600325
 20
5.3024631141
 30
0.0
 11
6.3528286241
 21
5.3095455845
 31
0.0
  0
LINE
  8
0
  6
CONTINUOUS
 62
         7
  5
28A
 10
5.991483091
 20
5.8481169396
 30
0.0
 11
5.9918397532
 21
5.8951029593
 31
0.0
  0
LINE
  8
0
  6
CONTINUOUS
 62
         7
  5
28B
 10
6.4972752174
 20
5.7461765597
 30
0.0
 11
6.0023004706
 21
6.031950363
 31
0.0
  0
LINE
  8
0
  6
CONTINUOUS
 62
         7
  5
28C
 10
5.9733090925
 20
5.3293550551
 30
0.0
 11
6.4972752174
 21
5.6318670383
 31
0.0
  0
LINE
  8
0
  6
CONTINUOUS
 62
         7
  5
28D
 10
5.9733090925
 20
5.4314171277
 30
0.0
 11
5.9733090925
 21
5.3293550551
 31
0.0
  0
LINE
  8
0
  6
CONTINUOUS
 62
         7
  5
28E
 10
5.4571211423
 20
5.7294383798
 30
0.0
 11
5.4571211423
 21
5.6273763071
 31
0.0
  0
LINE
  8
0
  6
CONTINUOUS
 62
         7
  5
28F
 10
6.1868553405
 20
5.2060640714
 30
0.0
 11
6.2957497848
 21
5.2689343081
 31
0.0
  0
LINE
  8
0
  6
CONTINUOUS
 62
         7
  5
290
 10
6.4194934715
 20
5.3403777589
 30
0.0
 11
6.9116397912
 21
5.6245185691
 31
0.0
  0
LINE
  8
0
  6
CONTINUOUS
 62
         7
  5
291
 10
5.9733090925
 20
5.3293550551
 30
0.0
 11
6.1868553405
 21
5.2060640714
 31
0.0
  0
LINE
  8
0
  6
CONTINUOUS
 62
         7
  5
292
 10
5.2435748944
 20
5.7506672909
 30
0.0
 11
5.4571211423
 21
5.6273763071
 31
0.0
  0
LINE
  8
0
  6
CONTINUOUS
 62
         7
  5
293
 10
6.9116397912
 20
5.6245185691
 30
0.0
 11
6.9116397912
 21
5.5591988426
 31
0.0
  0
POLYLINE
  8
0
  6
CONTINUOUS
 62
         7
  5
294
 66
         1
 10
0.0
 20
0.0
 30
0.0
  0
VERTEX
  8
0
  6
CONTINUOUS
 62
         7
  5
295
 10
6.9116397912
 20
5.6245185691
 30
0.0
  0
VERTEX
  8
0
  6
CONTINUOUS
 62
         7
  5
296
 10
6.8086823992
 20
5.739666717
 30
0.0
  0
VERTEX
  8
0
  6
CONTINUOUS
 62
         7
  5
297
 10
6.6801636802
 20
5.8483250779
 30
0.0
  0
VERTEX
  8
0
  6
CONTINUOUS
 62
         7
  5
298
 10
6.5281853739
 20
5.9477342775
 30
0.0
  0
VERTEX
  8
0
  6
CONTINUOUS
 62
         7
  5
299
 10
6.3560035894
 20
6.0354789936
 30
0.0
  0
VERTEX
  8
0
  6
CONTINUOUS
 62
         7
  5
29A
 10
6.1678017876
 20
6.1096793106
 30
0.0
  0
VERTEX
  8
0
  6
CONTINUOUS
 62
         7
  5
29B
 10
5.9683593451
 20
6.1691217886
 30
0.0
  0
SEQEND
  8
0
  6
CONTINUOUS
 62
         7
  5
29C
  0
LINE
  8
0
  6
CONTINUOUS
 62
         7
  5
29D
 10
5.9683593451
 20
6.1691217886
 30
0.0
 11
5.4762130254
 21
5.8849809784
 31
0.0
  0
LINE
  8
0
  6
CONTINUOUS
 62
         7
  5
29E
 10
5.3524693387
 20
5.8135375276
 30
0.0
 11
5.2435748944
 21
5.7506672909
 31
0.0
  0
LINE
  8
0
  6
CONTINUOUS
 62
         7
  5
29F
 10
6.1868553405
 20
5.2060640714
 30
0.0
 11
6.1868553405
 21
5.1407443449
 31
0.0
  0
LINE
  8
0
  6
CONTINUOUS
 62
         7
  5
2A0
 10
5.2435748944
 20
5.7506672909
 30
0.0
 11
5.2435748944
 21
5.6853475644
 31
0.0
  0
LINE
  8
0
  6
CONTINUOUS
 62
         7
  5
2A1
 10
5.9785429659
 20
5.2303147606
 30
0.0
 11
5.9836967865
 21
4.8893495348
 31
0.0
  0
LINE
  8
0
  6
CONTINUOUS
 62
         7
  5
2A2
 10
5.9697735586
 20
5.4702007153
 30
0.0
 11
5.5242962865
 21
5.7273971383
 31
0.0
  0
LINE
  8
0
  6
CONTINUOUS
 62
         7
  5
2A3
 10
6.3487789307
 20
5.0714711992
 30
0.0
 11
6.2712493384
 21
5.0267094682
 31
0.0
  0
LINE
  8
0
  6
CONTINUOUS
 62
         7
  5
2A4
 10
6.4018683123
 20
5.1342426891
 30
0.0
 11
6.3345881474
 21
5.0953984678
 31
0.0
  0
LINE
  8
0
  6
CONTINUOUS
 62
         7
  5
2A5
 10
6.3969322231
 20
5.1675475528
 30
0.0
 11
6.329975879
 21
5.1288902895
 31
0.0
  0
LINE
  8
0
  6
CONTINUOUS
 62
         7
  5
2A6
 10
6.4018548159
 20
5.1546473115
 30
0.0
 11
6.3346016438
 21
5.1158186745
 31
0.0
  0
LINE
  8
0
  6
CONTINUOUS
 62
         7
  5
2A7
 10
6.378703812
 20
5.1821059022
 30
0.0
 11
6.308255173
 21
5.1414323615
 31
0.0
  0
LINE
  8
0
  6
CONTINUOUS
 62
         7
  5
2A8
 10
6.3527983827
 20
5.3135644599
 30
0.0
 11
6.3528820511
 21
5.3024455286
 31
0.0
  0
LINE
  8
0
  6
CONTINUOUS
 62
         7
  5
2A9
 10
6.3597122081
 20
5.2201308895
 30
0.0
 11
6.28482037
 21
5.1768920665
 31
0.0
  0
LINE
  8
0
  6
CONTINUOUS
 62
         7
  5
2AA
 10
6.3553529543
 20
5.0849182095
 30
0.0
 11
6.3547782794
 21
4.9932262245
 31
0.0
  0
LINE
  8
0
  6
CONTINUOUS
 62
         7
  5
2AB
 10
6.2640040582
 20
4.9408177035
 30
0.0
 11
6.264923988
 21
5.0440396755
 31
0.0
  0
LINE
  8
0
  6
CONTINUOUS
 62
         7
  5
2AD
 10
6.2318652442
 20
5.166730825
 30
0.0
 11
6.2303274859
 21
4.9213745254
 31
0.0
  0
LINE
  8
0
  6
CONTINUOUS
 62
         7
  5
2AE
 10
6.3598895813
 20
5.2202296706
 30
0.0
 11
6.3598463094
 21
5.2856504527
 31
0.0
  0
POLYLINE
  8
0
  6
CONTINUOUS
 62
         7
  5
2B1
 66
         1
 10
0.0
 20
0.0
 30
0.0
  0
VERTEX
  8
0
  6
CONTINUOUS
 62
         7
  5
2B2
 10
6.4018683123
 20
5.1342426891
 30
0.0
  0
VERTEX
  8
0
  6
CONTINUOUS
 62
         7
  5
2B3
 10
6.4047972423
 20
5.1383317864
 30
0.0
  0
SEQEND
  8
0
  6
CONTINUOUS
 62
         7
  5
2B4
  0
POLYLINE
  8
0
  6
CONTINUOUS
 62
         7
  5
2B5
 66
         1
 10
0.0
 20
0.0
 30
0.0
  0
VERTEX
  8
0
  6
CONTINUOUS
 62
         7
  5
2B6
 10
6.3210891803
 20
5.0950644145
 30
0.0
  0
VERTEX
  8
0
  6
CONTINUOUS
 62
         7
  5
2B7
 10
6.3311203596
 20
5.0901527
 30
0.0
  0
SEQEND
  8
0
  6
CONTINUOUS
 62
         7
  5
2B8
  0
POLYLINE
  8
0
  6
CONTINUOUS
 62
         7
  5
2B9
 66
         1
 10
0.0
 20
0.0
 30
0.0
  0
VERTEX
  8
0
  6
CONTINUOUS
 62
         7
  5
2BA
 10
6.3210891803
 20
5.0950644145
 30
0.0
  0
VERTEX
  8
0
  6
CONTINUOUS
 62
         7
  5
2BB
 10
6.3279532584
 20
5.0937171549
 30
0.0
  0
VERTEX
  8
0
  6
CONTINUOUS
 62
         7
  5
2BC
 10
6.3345881474
 20
5.0953984678
 30
0.0
  0
SEQEND
  8
0
  6
CONTINUOUS
 62
         7
  5
2BD
  0
LINE
  8
0
  6
CONTINUOUS
 62
         7
  5
2BE
 10
6.3210891803
 20
5.0950644145
 30
0.0
 11
6.3211026767
 21
5.1154846212
 31
0.0
  0
POLYLINE
  8
0
  6
CONTINUOUS
 62
         7
  5
2BF
 66
         1
 10
0.0
 20
0.0
 30
0.0
  0
VERTEX
  8
0
  6
CONTINUOUS
 62
         7
  5
2C0
 10
6.3325170796
 20
5.0908206967
 30
0.0
  0
VERTEX
  8
0
  6
CONTINUOUS
 62
         7
  5
2C1
 10
6.3345881474
 20
5.0953984678
 30
0.0
  0
SEQEND
  8
0
  6
CONTINUOUS
 62
         7
  5
2C2
  0
POLYLINE
  8
0
  6
CONTINUOUS
 62
         7
  5
2C3
 66
         1
 10
0.0
 20
0.0
 30
0.0
  0
VERTEX
  8
0
  6
CONTINUOUS
 62
         7
  5
2C4
 10
6.3177736317
 20
5.0837918216
 30
0.0
  0
VERTEX
  8
0
  6
CONTINUOUS
 62
         7
  5
2C5
 10
6.3175047115
 20
5.0836359989
 30
0.0
  0
VERTEX
  8
0
  6
CONTINUOUS
 62
         7
  5
2C6
 10
6.3172363224
 20
5.0834793598
 30
0.0
  0
SEQEND
  8
0
  6
CONTINUOUS
 62
         7
  5
2C7
  0
POLYLINE
  8
0
  6
CONTINUOUS
 62
         7
  5
2C8
 66
         1
 10
0.0
 20
0.0
 30
0.0
  0
VERTEX
  8
0
  6
CONTINUOUS
 62
         7
  5
2C9
 10
6.3172363224
 20
5.0834793598
 30
0.0
  0
VERTEX
  8
0
  6
CONTINUOUS
 62
         7
  5
2CA
 10
6.2899643619
 20
5.0599483797
 30
0.0
  0
VERTEX
  8
0
  6
CONTINUOUS
 62
         7
  5
2CB
 10
6.2712493384
 20
5.0267094682
 30
0.0
  0
SEQEND
  8
0
  6
CONTINUOUS
 62
         7
  5
2CC
  0
ARC
  8
0
  6
CONTINUOUS
 62
         7
  5
2CD
 10
6.3104042105
 20
5.1377101193
 30
0.0
 40
0.0042980951
 50
120.0
 51
125.8744979962
  0
LINE
  8
0
  6
CONTINUOUS
 62
         7
  5
2CF
 10
6.2674655135
 20
5.2852642397
 30
0.0
 11
6.3735315307
 21
5.3465014833
 31
0.0
  0
LINE
  8
0
  6
CONTINUOUS
 62
         7
  5
2D0
 10
6.2957497848
 20
5.2642315447
 30
0.0
 11
6.3533915257
 21
5.2975110194
 31
0.0
  0
LINE
  8
0
  6
CONTINUOUS
 62
         7
  5
2D1
 10
6.3533915257
 20
5.2975110194
 30
0.0
 11
6.3262387072
 21
5.3191969589
 31
0.0
  0
POLYLINE
  8
0
  6
CONTINUOUS
 62
         7
  5
2D2
 66
         1
 10
0.0
 20
0.0
 30
0.0
  0
VERTEX
  8
0
  6
CONTINUOUS
 62
         7
  5
2D3
 10
6.3598463094
 20
5.2856504527
 30
0.0
  0
VERTEX
  8
0
  6
CONTINUOUS
 62
         7
  5
2D4
 10
6.3627752394
 20
5.28973955
 30
0.0
  0
SEQEND
  8
0
  6
CONTINUOUS
 62
         7
  5
2D5
  0
LINE
  8
0
  6
CONTINUOUS
 62
         7
  5
2D6
 10
6.3598463094
 20
5.2856504527
 30
0.0
 11
6.2957497848
 21
5.2486443069
 31
0.0
  0
POLYLINE
  8
0
  6
CONTINUOUS
 62
         7
  5
2D7
 66
         1
 10
0.0
 20
0.0
 30
0.0
  0
VERTEX
  8
0
  6
CONTINUOUS
 62
         7
  5
2D8
 10
6.4972752174
 20
5.7339291109
 30
0.0
  0
VERTEX
  8
0
  6
CONTINUOUS
 62
         7
  5
2D9
 10
6.4972752174
 20
5.7461765597
 30
0.0
  0
SEQEND
  8
0
  6
CONTINUOUS
 62
         7
  5
2DA
  0
LINE
  8
0
  6
CONTINUOUS
 62
         7
  5
2DB
 10
5.9810872671
 20
6.031950363
 30
0.0
 11
5.4571211423
 21
5.7294383798
 31
0.0
  0
LINE
  8
0
  6
CONTINUOUS
 62
         7
  5
2DC
 10
6.3947447341
 20
5.7155579379
 30
0.0
 11
5.9697735586
 21
5.4702007153
 31
0.0
  0
LINE
  8
0
  6
CONTINUOUS
 62
         7
  5
2DD
 10
5.5242962865
 20
5.7273971383
 30
0.0
 11
5.949267462
 21
5.9727543609
 31
0.0
  0
LINE
  8
0
  6
CONTINUOUS
 62
         7
  5
2DE
 10
5.9733090925
 20
5.4314171277
 30
0.0
 11
6.4972752174
 21
5.7339291109
 31
0.0
  0
LINE
  8
0
  6
CONTINUOUS
 62
         7
  5
2DF
 10
5.4571211423
 20
5.7294383798
 30
0.0
 11
5.9733090925
 21
5.4314171277
 31
0.0
  0
LINE
  8
0
  6
CONTINUOUS
 62
         7
  5
2E0
 10
6.3346406577
 20
5.3240478273
 30
0.0
 11
6.4194934715
 21
5.2750580325
 31
0.0
  0
LINE
  8
0
  6
CONTINUOUS
 62
         7
  5
2E1
 10
6.3735315307
 20
5.3669138978
 30
0.0
 11
6.249787844
 21
5.295470447
 31
0.0
  0
LINE
  8
0
  6
CONTINUOUS
 62
         7
  5
2E2
 10
6.4194934715
 20
5.3403777589
 30
0.0
 11
6.3735315307
 21
5.3669138978
 31
0.0
  0
LINE
  8
0
  6
CONTINUOUS
 62
         7
  5
2E3
 10
6.4194934715
 20
5.2750580325
 30
0.0
 11
6.4194934715
 21
5.3403777589
 31
0.0
  0
LINE
  8
0
  6
CONTINUOUS
 62
         7
  5
2E4
 10
6.3735315307
 20
5.3465014833
 30
0.0
 11
6.3735315307
 21
5.3669138978
 31
0.0
  0
LINE
  8
0
  6
CONTINUOUS
 62
         7
  5
2E5
 10
6.2957497848
 20
5.2036145816
 30
0.0
 11
6.2957497848
 21
5.2689343081
 31
0.0
  0
LINE
  8
0
  6
CONTINUOUS
 62
         7
  5
2E6
 10
6.249787844
 20
5.295470447
 30
0.0
 11
6.2957497848
 21
5.2689343081
 31
0.0
  0
LINE
  8
0
  6
CONTINUOUS
 62
         7
  5
2E7
 10
5.3524693387
 20
5.8135375276
 30
0.0
 11
5.3984312794
 21
5.7870013887
 31
0.0
  0
LINE
  8
0
  6
CONTINUOUS
 62
         7
  5
2E8
 10
5.4762130254
 20
5.8319087007
 30
0.0
 11
5.4762130254
 21
5.8849809784
 31
0.0
  0
LINE
  8
0
  6
CONTINUOUS
 62
         7
  5
2E9
 10
5.5221749662
 20
5.8584448395
 30
0.0
 11
5.4762130254
 21
5.8849809784
 31
0.0
  0
LINE
  8
0
  6
CONTINUOUS
 62
         7
  5
2EA
 10
5.3984312794
 20
5.7870013887
 30
0.0
 11
5.5221749662
 21
5.8584448395
 31
0.0
  0
LINE
  8
0
  6
CONTINUOUS
 62
         7
  5
2EB
 10
6.4194934715
 20
5.2750580325
 30
0.0
 11
6.9116397912
 21
5.5591988426
 31
0.0
  0
LINE
  8
0
  6
CONTINUOUS
 62
         7
  5
2EC
 10
6.1868553405
 20
5.1407443449
 30
0.0
 11
6.2957497848
 21
5.2036145816
 31
0.0
  0
LINE
  8
0
  6
CONTINUOUS
 62
         7
  5
2ED
 10
5.2435748944
 20
5.6853475644
 30
0.0
 11
5.4571211423
 21
5.5620565807
 31
0.0
  0
LINE
  8
0
  6
CONTINUOUS
 62
         7
  5
2EE
 10
5.9733090925
 20
5.2640353286
 30
0.0
 11
6.1868553405
 21
5.1407443449
 31
0.0
  0
POLYLINE
  8
0
  6
CONTINUOUS
 62
         7
  5
2EF
 66
         1
 10
0.0
 20
0.0
 30
0.0
  0
VERTEX
  8
0
  6
CONTINUOUS
 62
         7
  5
2F0
 10
6.0023004706
 20
6.031950363
 30
0.0
  0
VERTEX
  8
0
  6
CONTINUOUS
 62
         7
  5
2F1
 10
5.9916938689
 20
6.0344868927
 30
0.0
  0
VERTEX
  8
0
  6
CONTINUOUS
 62
         7
  5
2F2
 10
5.9810872671
 20
6.031950363
 30
0.0
  0
SEQEND
  8
0
  6
CONTINUOUS
 62
         7
  5
2F3
  0
LINE
  8
0
  6
CONTINUOUS
 62
         7
  5
2F4
 10
5.948866358
 20
5.9199136606
 30
0.0
 11
6.3487827934
 21
5.689021799
 31
0.0
  0
LINE
  8
0
  6
CONTINUOUS
 62
         7
  5
2F5
 10
5.3520809281
 20
5.2540131207
 30
0.0
 11
5.4807087144
 21
5.1797498336
 31
0.0
  0
LINE
  8
0
  6
CONTINUOUS
 62
         7
  5
2F6
 10
5.9836967865
 20
4.8893495348
 30
0.0
 11
6.1610110858
 21
4.7869770764
 31
0.0
  0
LINE
  8
0
  6
CONTINUOUS
 62
         7
  5
2F7
 10
5.949267462
 20
5.9727543609
 30
0.0
 11
5.948866358
 21
5.9199136606
 31
0.0
  0
LINE
  8
0
  6
CONTINUOUS
 62
         7
  5
2F8
 10
5.949267462
 20
5.9727543609
 30
0.0
 11
6.3947447341
 21
5.7155579379
 31
0.0
  0
LINE
  8
0
  6
CONTINUOUS
 62
         7
  5
2F9
 10
6.28482037
 20
5.1768920665
 30
0.0
 11
6.3078854762
 21
5.1411928768
 31
0.0
  0
LINE
  8
0
  6
CONTINUOUS
 62
         7
  5
2FA
 10
6.308255173
 20
5.1414323615
 30
0.0
 11
6.329975879
 21
5.1288902895
 31
0.0
  0
LINE
  8
0
  6
CONTINUOUS
 62
         7
  5
2FB
 10
6.2846564956
 20
5.1972098682
 30
0.0
 11
6.2846429968
 21
5.1767860347
 31
0.0
  0
LINE
  8
0
  6
CONTINUOUS
 62
         7
  5
2FC
 10
6.271141796
 20
5.1730722775
 30
0.0
 11
6.2711525964
 21
5.1894133883
 31
0.0
  0
LINE
  8
0
  6
CONTINUOUS
 62
         7
  5
2FD
 10
6.3204169881
 20
5.1181477236
 30
0.0
 11
6.2984229955
 21
5.1308475981
 31
0.0
  0
LINE
  8
0
  6
CONTINUOUS
 62
         7
  5
2FE
 10
6.2984229955
 20
5.1308475981
 30
0.0
 11
6.271141796
 21
5.1730722775
 31
0.0
  0
LINE
  8
0
  6
CONTINUOUS
 62
         7
  5
2FF
 10
6.3790960602
 20
5.1823063266
 30
0.0
 11
6.3597122081
 21
5.2201308895
 31
0.0
  0
POLYLINE
  8
0
  6
CONTINUOUS
 62
         7
  5
300
 66
         1
 10
0.0
 20
0.0
 30
0.0
  0
VERTEX
  8
0
  6
CONTINUOUS
 62
         7
  5
301
 10
6.3598895813
 20
5.2202296706
 30
0.0
  0
VERTEX
  8
0
  6
CONTINUOUS
 62
         7
  5
302
 10
6.3597122081
 20
5.2201308895
 30
0.0
  0
SEQEND
  8
0
  6
CONTINUOUS
 62
         7
  5
303
  0
LINE
  8
0
  6
CONTINUOUS
 62
         7
  5
304
 10
6.3969322231
 20
5.1675475528
 30
0.0
 11
6.378703812
 21
5.1821059022
 31
0.0
  0
POLYLINE
  8
0
  6
CONTINUOUS
 62
         7
  5
305
 66
         1
 10
0.0
 20
0.0
 30
0.0
  0
VERTEX
  8
0
  6
CONTINUOUS
 62
         7
  5
306
 10
6.3765337525
 20
5.1162337346
 30
0.0
  0
VERTEX
  8
0
  6
CONTINUOUS
 62
         7
  5
307
 10
6.3603784648
 20
5.0970239651
 30
0.0
  0
VERTEX
  8
0
  6
CONTINUOUS
 62
         7
  5
308
 10
6.3487789307
 20
5.0714711992
 30
0.0
  0
SEQEND
  8
0
  6
CONTINUOUS
 62
         7
  5
309
  0
POLYLINE
  8
0
  6
CONTINUOUS
 62
         7
  5
30A
 66
         1
 10
0.0
 20
0.0
 30
0.0
  0
VERTEX
  8
0
  6
CONTINUOUS
 62
         7
  5
30B
 10
6.3997972445
 20
5.129664918
 30
0.0
  0
VERTEX
  8
0
  6
CONTINUOUS
 62
         7
  5
30C
 10
6.4018683123
 20
5.1342426891
 30
0.0
  0
SEQEND
  8
0
  6
CONTINUOUS
 62
         7
  5
30D
  0
LINE
  8
0
  6
CONTINUOUS
 62
         7
  5
30E
 10
6.2305489809
 20
4.9567150512
 30
0.0
 11
6.2640040582
 21
4.9408177035
 31
0.0
  0
LINE
  8
0
  6
CONTINUOUS
 62
         7
  5
30F
 10
6.3884548517
 20
5.0126694026
 30
0.0
 11
6.3894442628
 21
5.1236876212
 31
0.0
  0
LINE
  8
0
  6
CONTINUOUS
 62
         7
  5
310
 10
6.3899253733
 20
5.1776712723
 30
0.0
 11
6.3909402176
 21
5.2915432613
 31
0.0
  0
LINE
  8
0
  6
CONTINUOUS
 62
         7
  5
311
 10
6.3549997743
 20
5.0285667503
 30
0.0
 11
6.3884548517
 21
5.0126694026
 31
0.0
  0
POLYLINE
  8
0
  6
CONTINUOUS
 62
         7
  5
312
 66
         1
 10
0.0
 20
0.0
 30
0.0
  0
VERTEX
  8
0
  6
CONTINUOUS
 62
         7
  5
313
 10
6.6031269798
 20
5.0213718944
 30
0.0
  0
VERTEX
  8
0
  6
CONTINUOUS
 62
         7
  5
314
 10
6.6086350914
 20
5.0261154069
 30
0.0
  0
VERTEX
  8
0
  6
CONTINUOUS
 62
         7
  5
315
 10
6.6106097087
 20
5.0317113254
 30
0.0
  0
SEQEND
  8
0
  6
CONTINUOUS
 62
         7
  5
316
  0
POLYLINE
  8
0
  6
CONTINUOUS
 62
         7
  5
317
 66
         1
 10
0.0
 20
0.0
 30
0.0
  0
VERTEX
  8
0
  6
CONTINUOUS
 62
         7
  5
318
 10
6.1610110858
 20
4.7869770764
 30
0.0
  0
VERTEX
  8
0
  6
CONTINUOUS
 62
         7
  5
319
 10
6.1790771659
 20
4.78265664
 30
0.0
  0
VERTEX
  8
0
  6
CONTINUOUS
 62
         7
  5
31A
 10
6.197143246
 20
4.7869770764
 30
0.0
  0
SEQEND
  8
0
  6
CONTINUOUS
 62
         7
  5
31B
  0
POLYLINE
  8
0
  6
CONTINUOUS
 62
         7
  5
31C
 66
         1
 10
0.0
 20
0.0
 30
0.0
  0
VERTEX
  8
0
  6
CONTINUOUS
 62
         7
  5
31D
 10
5.3445981991
 20
5.2643525517
 30
0.0
  0
VERTEX
  8
0
  6
CONTINUOUS
 62
         7
  5
31E
 10
5.3465728165
 20
5.2587566332
 30
0.0
  0
VERTEX
  8
0
  6
CONTINUOUS
 62
         7
  5
31F
 10
5.3520809281
 20
5.2540131207
 30
0.0
  0
SEQEND
  8
0
  6
CONTINUOUS
 62
         7
  5
320
  0
LINE
  8
0
  6
CONTINUOUS
 62
         7
  5
321
 10
6.6031269798
 20
5.0213718944
 30
0.0
 11
6.605869468
 21
5.3826622642
 31
0.0
  0
LINE
  8
0
  6
CONTINUOUS
 62
         7
  5
322
 10
5.3492699632
 20
5.6243244879
 30
0.0
 11
5.3520809281
 21
5.2540131207
 31
0.0
  0
LINE
  8
0
  6
CONTINUOUS
 62
         7
  5
323
 10
6.1610110858
 20
4.7869770764
 30
0.0
 11
6.1582001209
 21
5.1572884436
 31
0.0
  0
LINE
  8
0
  6
CONTINUOUS
 62
         7
  5
324
 10
6.1998857342
 20
5.1482674462
 30
0.0
 11
6.197143246
 21
4.7869770764
 31
0.0
  0
LINE
  8
0
  6
CONTINUOUS
 62
         7
  5
326
 10
6.4047972423
 20
5.1383317864
 30
0.0
 11
6.4047837459
 21
5.1587364088
 31
0.0
  0
LINE
  8
0
  6
CONTINUOUS
 62
         7
  5
327
 10
6.3836672999
 20
5.1826693611
 30
0.0
 11
6.3628191513
 21
5.2233512703
 31
0.0
  0
LINE
  8
0
  6
CONTINUOUS
 62
         7
  5
328
 10
6.4018978572
 20
5.1681092977
 30
0.0
 11
6.3834761657
 21
5.1828220129
 31
0.0
  0
LINE
  8
0
  6
CONTINUOUS
 62
         7
  5
329
 10
6.6106097087
 20
5.0317113254
 30
0.0
 11
6.6144135359
 21
5.3875951841
 31
0.0
  0
ARC
  8
0
  6
CONTINUOUS
 62
         7
  5
32B
 10
6.3947972445
 20
5.138325172
 30
0.0
 40
0.01
 50
300.0
 51
0.0378977157
  0
LINE
  8
0
  6
CONTINUOUS
 62
         7
  5
32D
 10
6.5016686157
 20
5.6379907627
 30
0.0
 11
6.5016686157
 21
5.7400528353
 31
0.0
  0
LINE
  8
0
  6
CONTINUOUS
 62
         7
  5
32E
 10
6.3590158177
 20
5.2975467189
 30
0.0
 11
6.3295290914
 21
5.3210966631
 31
0.0
  0
ARC
  8
0
  6
CONTINUOUS
 62
         7
  5
32F
 10
6.3527752416
 20
5.2897329356
 30
0.0
 40
0.01
 50
0.0378977157
 51
51.3869477899
  0
LINE
  8
0
  6
CONTINUOUS
 62
         7
  5
330
 10
6.3628193044
 20
5.2231197248
 30
0.0
 11
6.3627752394
 21
5.28973955
 31
0.0
  0
LINE
  8
0
  6
CONTINUOUS
 62
         7
  5
331
 10
5.4807087144
 20
5.5116959434
 30
0.0
 11
5.4807087144
 21
5.1425814622
 31
0.0
  0
LINE
  8
0
  6
CONTINUOUS
 62
         7
  5
332
 10
6.0083108782
 20
5.8578324671
 30
0.0
 11
6.3247411628
 21
5.6751413571
 31
0.0
  0
LINE
  8
0
  6
CONTINUOUS
 62
         7
  5
333
 10
6.0139677325
 20
5.8529334876
 30
0.0
 11
6.3233269492
 21
5.6743248605
 31
0.0
  0
LINE
  8
0
  6
CONTINUOUS
 62
         7
  5
334
 10
6.330398017
 20
5.6784073434
 30
0.0
 11
6.0139677325
 21
5.8610984534
 31
0.0
  0
LINE
  8
0
  6
CONTINUOUS
 62
         7
  5
335
 10
6.0139677325
 20
5.8610984534
 30
0.0
 11
6.0083108782
 21
5.8578324671
 31
0.0
  0
POLYLINE
  8
0
  6
CONTINUOUS
 62
         7
  5
336
 66
         1
 10
0.0
 20
0.0
 30
0.0
  0
VERTEX
  8
0
  6
CONTINUOUS
 62
         7
  5
337
 10
5.4807087144
 20
5.1425814622
 30
0.0
  0
VERTEX
  8
0
  6
CONTINUOUS
 62
         7
  5
338
 10
5.4836376466
 20
5.1384989793
 30
0.0
  0
SEQEND
  8
0
  6
CONTINUOUS
 62
         7
  5
339
  0
LINE
  8
0
  6
CONTINUOUS
 62
         7
  5
33A
 10
5.9114372492
 20
4.8915087636
 30
0.0
 11
5.4836376466
 21
5.1384989793
 31
0.0
  0
LINE
  8
0
  6
CONTINUOUS
 62
         7
  5
33B
 10
5.983161636
 20
4.9247538918
 30
0.0
 11
5.9255793848
 21
4.8915087636
 31
0.0
  0
POLYLINE
  8
0
  6
CONTINUOUS
 62
         7
  5
33C
 66
         1
 10
0.0
 20
0.0
 30
0.0
  0
VERTEX
  8
0
  6
CONTINUOUS
 62
         7
  5
33D
 10
5.9114372492
 20
4.8915087636
 30
0.0
  0
VERTEX
  8
0
  6
CONTINUOUS
 62
         7
  5
33E
 10
5.918508317
 20
4.8898177438
 30
0.0
  0
VERTEX
  8
0
  6
CONTINUOUS
 62
         7
  5
33F
 10
5.9255793848
 20
4.8915087636
 30
0.0
  0
SEQEND
  8
0
  6
CONTINUOUS
 62
         7
  5
340
  0
POLYLINE
  8
0
  6
CONTINUOUS
 62
         7
  5
341
 66
         1
 10
0.0
 20
0.0
 30
0.0
  0
VERTEX
  8
0
  6
CONTINUOUS
 62
         7
  5
342
 10
6.0139677325
 20
5.8529334876
 30
0.0
  0
VERTEX
  8
0
  6
CONTINUOUS
 62
         7
  5
343
 10
6.0068966647
 20
5.8546245074
 30
0.0
  0
VERTEX
  8
0
  6
CONTINUOUS
 62
         7
  5
344
 10
5.9998255968
 20
5.8529334876
 30
0.0
  0
SEQEND
  8
0
  6
CONTINUOUS
 62
         7
  5
345
  0
LINE
  8
0
  6
CONTINUOUS
 62
         7
  5
346
 10
5.6533432741
 20
5.6528918253
 30
0.0
 11
5.9998255968
 21
5.8529334876
 31
0.0
  0
LINE
  8
0
  6
CONTINUOUS
 62
         7
  5
347
 10
6.0083108782
 20
5.8545664809
 30
0.0
 11
6.0083108782
 21
5.8578324671
 31
0.0
  0
LINE
  8
0
  6
CONTINUOUS
 62
         7
  5
348
 10
5.4836376466
 20
5.1384989793
 30
0.0
 11
5.4836376466
 21
5.5100049236
 31
0.0
  0
LINE
  8
0
  6
CONTINUOUS
 62
         7
  5
349
 10
5.9114372492
 20
4.8915087636
 30
0.0
 11
5.9114372492
 21
5.2630147079
 31
0.0
  0
LINE
  8
0
  6
CONTINUOUS
 62
         7
  5
34A
 10
5.9114372492
 20
5.2982963346
 30
0.0
 11
5.9114372492
 21
5.299757054
 31
0.0
  0
LINE
  8
0
  6
CONTINUOUS
 62
         7
  5
34B
 10
5.9255793848
 20
4.8915087636
 30
0.0
 11
5.9255793848
 21
5.2548497421
 31
0.0
  0
ENDBLK
  8
0
  6
CONTINUOUS
 62
         7
  5
34C
  0
BLOCK
  8
0
 62
         1
 48
0.0
  5
34D
  2
*X7
 70
         1
 10
0.0
 20
0.0
 30
0.0
  3
*X7
  0
INSERT
  8
0
 62
         0
 48
0.0
  5
34E
  2
*X6
 10
0.0
 20
0.0
 30
0.0
  0
ENDBLK
  8
0
 62
         0
 48
0.0
  5
34F
  0
BLOCK
  8
DEFAULT
 62
         1
 48
0.0
  5
350
  2
*X8
 70
         1
 10
0.0
 20
0.0
 30
0.0
  3
*X8
  0
POLYLINE
  8
0
  6
CONTINUOUS
 62
       136
  5
351
 66
         1
 10
0.0
 20
0.0
 30
0.0
  0
VERTEX
  8
0
  6
CONTINUOUS
 62
       136
  5
352
 10
4.5331225086
 20
5.0904874177
 30
0.0
  0
VERTEX
  8
0
  6
CONTINUOUS
 62
       136
  5
353
 10
4.3527005517
 20
5.2363207493
 30
0.0
  0
VERTEX
  8
0
  6
CONTINUOUS
 62
       136
  5
354
 10
4.6052912914
 20
5.1321540839
 30
0.0
  0
VERTEX
  8
0
  6
CONTINUOUS
 62
       136
  5
355
 10
4.5331225086
 20
5.0904874177
 30
0.0
  0
SEQEND
  8
0
  6
CONTINUOUS
 62
       136
  5
356
  0
POLYLINE
  8
0
  6
CONTINUOUS
 62
       136
  5
357
 66
         1
 10
0.0
 20
0.0
 30
0.0
  0
VERTEX
  8
0
  6
CONTINUOUS
 62
       136
  5
358
 10
5.0433902581
 20
4.7958841952
 30
0.0
  0
VERTEX
  8
0
  6
CONTINUOUS
 62
       136
  5
359
 10
5.2959809978
 20
4.6917175298
 30
0.0
  0
VERTEX
  8
0
  6
CONTINUOUS
 62
       136
  5
35A
 10
5.1155590409
 20
4.8375508614
 30
0.0
  0
VERTEX
  8
0
  6
CONTINUOUS
 62
       136
  5
35B
 10
5.0433902581
 20
4.7958841952
 30
0.0
  0
SEQEND
  8
0
  6
CONTINUOUS
 62
       136
  5
35C
  0
LINE
  8
0
  6
CONTINUOUS
 62
       136
  5
35D
 10
5.1353217202
 20
5.6881672916
 30
0.0
 11
4.2444473775
 21
5.1738207501
 31
0.0
  0
LINE
  8
0
  6
CONTINUOUS
 62
       136
  5
35E
 10
6.0786021663
 20
5.1435640721
 30
0.0
 11
5.1877278236
 21
4.6292175306
 31
0.0
  0
LINE
  8
0
  6
CONTINUOUS
 62
       136
  5
35F
 10
4.3527005517
 20
5.2363207493
 30
0.0
 11
5.2959810195
 21
4.6917175173
 31
0.0
  0
LINE
  8
0
  6
CONTINUOUS
 62
       136
  5
360
 10
4.8243407856
 20
4.9640191333
 30
0.0
 11
4.545946755
 21
4.8303388062
 31
0.0
  0
TEXT
  8
0
  6
CONTINUOUS
 62
       136
  5
361
 10
4.0271014042
 20
4.3591584878
 30
0.0
 40
0.25
  1
1 5/16"
  7
ARIAL_TTF
 11
4.0271014042
 21
4.6091584878
 31
0.0
 73
         3
  0
ENDBLK
  8
0
  6
CONTINUOUS
 62
       136
  5
362
  0
BLOCK
  8
DEFAULT
 62
         1
 48
0.0
  5
363
  2
*X9
 70
         1
 10
0.0
 20
0.0
 30
0.0
  3
*X9
  0
POLYLINE
  8
0
  6
CONTINUOUS
 62
       136
  5
364
 66
         1
 10
0.0
 20
0.0
 30
0.0
  0
VERTEX
  8
0
  6
CONTINUOUS
 62
       136
  5
365
 10
4.9655086056
 20
6.1612089345
 30
0.0
  0
VERTEX
  8
0
  6
CONTINUOUS
 62
       136
  5
366
 10
4.7850866487
 20
6.0153756029
 30
0.0
  0
VERTEX
  8
0
  6
CONTINUOUS
 62
       136
  5
367
 10
5.0376773884
 20
6.1195422683
 30
0.0
  0
VERTEX
  8
0
  6
CONTINUOUS
 62
       136
  5
368
 10
4.9655086056
 20
6.1612089345
 30
0.0
  0
SEQEND
  8
0
  6
CONTINUOUS
 62
       136
  5
369
  0
POLYLINE
  8
0
  6
CONTINUOUS
 62
       136
  5
36A
 66
         1
 10
0.0
 20
0.0
 30
0.0
  0
VERTEX
  8
0
  6
CONTINUOUS
 62
       136
  5
36B
 10
5.2572803597
 20
6.3296634352
 30
0.0
  0
VERTEX
  8
0
  6
CONTINUOUS
 62
       136
  5
36C
 10
5.5098710994
 20
6.4338301006
 30
0.0
  0
VERTEX
  8
0
  6
CONTINUOUS
 62
       136
  5
36D
 10
5.3294491425
 20
6.2879967691
 30
0.0
  0
VERTEX
  8
0
  6
CONTINUOUS
 62
       136
  5
36E
 10
5.2572803597
 20
6.3296634352
 30
0.0
  0
SEQEND
  8
0
  6
CONTINUOUS
 62
       136
  5
36F
  0
LINE
  8
0
  6
CONTINUOUS
 62
       136
  5
370
 10
5.1353217202
 20
5.8131672901
 30
0.0
 11
4.6768334745
 21
6.0778756022
 31
0.0
  0
LINE
  8
0
  6
CONTINUOUS
 62
       136
  5
371
 10
5.8601061709
 20
6.2316217878
 30
0.0
 11
5.4016179252
 21
6.4963300999
 31
0.0
  0
LINE
  8
0
  6
CONTINUOUS
 62
       136
  5
372
 10
4.7850866487
 20
6.0153756029
 30
0.0
 11
5.5098710848
 21
6.4338300922
 31
0.0
  0
LINE
  8
0
  6
CONTINUOUS
 62
       136
  5
373
 10
5.1474788668
 20
6.2246028476
 30
0.0
 11
4.5160968386
 21
6.3312586605
 31
0.0
  0
TEXT
  8
0
  6
CONTINUOUS
 62
       136
  5
374
 10
3.9409333404
 20
6.525414458
 30
0.0
 40
0.25
  1
1 1/8"
  7
ARIAL_TTF
 11
3.9409333404
 21
6.775414458
 31
0.0
 73
         3
  0
ENDBLK
  8
0
  6
CONTINUOUS
 62
       136
  5
375
  0
BLOCK
  8
DEFAULT
 62
         1
 48
0.0
  5
376
  2
*X10
 70
         1
 10
0.0
 20
0.0
 30
0.0
  3
*X10
  0
POLYLINE
  8
0
  6
CONTINUOUS
 62
       136
  5
377
 66
         1
 10
0.0
 20
0.0
 30
0.0
  0
VERTEX
  8
0
  6
CONTINUOUS
 62
       136
  5
378
 10
7.1346949845
 20
5.0375499916
 30
0.0
  0
VERTEX
  8
0
  6
CONTINUOUS
 62
       136
  5
379
 10
7.1030079537
 20
4.8077340322
 30
0.0
  0
VERTEX
  8
0
  6
CONTINUOUS
 62
       136
  5
37A
 10
7.0617411333
 20
5.0778262858
 30
0.0
  0
VERTEX
  8
0
  6
CONTINUOUS
 62
       136
  5
37B
 10
7.1346949845
 20
5.0375499916
 30
0.0
  0
SEQEND
  8
0
  6
CONTINUOUS
 62
       136
  5
37C
  0
POLYLINE
  8
0
  6
CONTINUOUS
 62
       136
  5
37D
 66
         1
 10
0.0
 20
0.0
 30
0.0
  0
VERTEX
  8
0
  6
CONTINUOUS
 62
       136
  5
37E
 10
7.154662468
 20
3.9955741856
 30
0.0
  0
VERTEX
  8
0
  6
CONTINUOUS
 62
       136
  5
37F
 10
7.1133956476
 20
4.2656664393
 30
0.0
  0
VERTEX
  8
0
  6
CONTINUOUS
 62
       136
  5
380
 10
7.0817086169
 20
4.0358504798
 30
0.0
  0
VERTEX
  8
0
  6
CONTINUOUS
 62
       136
  5
381
 10
7.154662468
 20
3.9955741856
 30
0.0
  0
SEQEND
  8
0
  6
CONTINUOUS
 62
       136
  5
382
  0
LINE
  8
0
  6
CONTINUOUS
 62
       136
  5
383
 10
6.0827398693
 20
5.3710026864
 30
0.0
 11
7.2124387305
 21
4.7473195908
 31
0.0
  0
LINE
  8
0
  6
CONTINUOUS
 62
       136
  5
384
 10
6.0931275632
 20
4.8289350935
 30
0.0
 11
7.2228264244
 21
4.2052519979
 31
0.0
  0
LINE
  8
0
  6
CONTINUOUS
 62
       136
  5
385
 10
7.0934281641
 20
5.3076422453
 30
0.0
 11
7.1030079537
 21
4.8077340322
 31
0.0
  0
LINE
  8
0
  6
CONTINUOUS
 62
       136
  5
386
 10
7.1133956476
 20
4.2656664393
 30
0.0
 11
7.1229754373
 21
3.7657582261
 31
0.0
  0
TEXT
  8
0
  6
CONTINUOUS
 62
       136
  5
387
 10
6.6926074856
 20
4.4313694875
 30
0.0
 40
0.25
  1
11/16"
  7
ARIAL_TTF
 11
6.6926074856
 21
4.6813694875
 31
0.0
 73
         3
  0
ENDBLK
  8
0
  6
CONTINUOUS
 62
       136
  5
388
  0
ENDSEC
  0
SECTION
  2
ENTITIES
  0
TEXT
  8
DEFAULT
  6
CONTINUOUS
 62
         7
  5
28
 10
2.4414758507
 20
1.4778872082
 30
0.0
 40
0.25
  1
SYSTEM: POKE THRU
  7
ARIAL_TTF
 11
2.4414758507
 21
1.7278872082
 31
0.0
 73
         3
  0
TEXT
  8
DEFAULT
  6
CONTINUOUS
 62
         7
  5
29
 10
2.0556062855
 20
1.0865828603
 30
0.0
 40
0.25
  1
CATALOG NUMBER: RC7G
  7
ARIAL_TTF
 11
2.0556062855
 21
1.3365828603
 31
0.0
 73
         3
  0
INSERT
  8
0
 62
         0
 48
0.0
  5
2C
  2
*X1
 10
0.0
 20
0.0
 30
0.0
  0
INSERT
  8
0
 62
         0
 48
0.0
  5
2F
  2
*X3
 10
0.0
 20
0.0
 30
0.0
  0
INSERT
  8
0
 62
         0
 48
0.0
  5
32
  2
*X5
 10
0.0
 20
0.0
 30
0.0
  0
INSERT
  8
0
 62
         0
 48
0.0
  5
35
  2
*X7
 10
0.0
 20
0.0
 30
0.0
  0
INSERT
  8
DEFAULT
 62
         0
 48
0.0
  5
37
  2
*X8
 10
0.0
 20
0.0
 30
0.0
  0
INSERT
  8
DEFAULT
 62
         0
 48
0.0
  5
39
  2
*X9
 10
0.0
 20
0.0
 30
0.0
  0
INSERT
  8
DEFAULT
 62
         0
 48
0.0
  5
3B
  2
*X10
 10
0.0
 20
0.0
 30
0.0
  0
ENDSEC
  0
EOF
