  0
SECTION
  2
HEADER
  9
$ACADVER
  1
AC1015
  9
$ACADMAINTVER
 70
     6
  9
$DWGCODEPAGE
  3
ANSI_1252
  9
$INSBASE
 10
0.0
 20
0.0
 30
0.0
  9
$EXTMIN
 10
0.0
 20
0.0
 30
0.0
  9
$EXTMAX
 10
44.0
 20
60.0
 30
0.0
  9
$LIMMIN
 10
0.0
 20
0.0
  9
$LIMMAX
 10
44.0
 20
60.0
  9
$ORTHOMODE
 70
     0
  9
$REGENMODE
 70
     1
  9
$FILLMODE
 70
     1
  9
$QTEXTMODE
 70
     0
  9
$MIRRTEXT
 70
     1
  9
$LTSCALE
 40
2.0
  9
$ATTMODE
 70
     1
  9
$TEXTSIZE
 40
0.25
  9
$TRACEWID
 40
0.05
  9
$TEXTSTYLE
  7
Standard
  9
$CLAYER
  8
0
  9
$CELTYPE
  6
ByLayer
  9
$CECOLOR
 62
   256
  9
$CELTSCALE
 40
1.0
  9
$DISPSILH
 70
     0
  9
$DIMSCALE
 40
1.0
  9
$DIMASZ
 40
0.26
  9
$DIMEXO
 40
0.1
  9
$DIMDLI
 40
0.38
  9
$DIMRND
 40
0.0
  9
$DIMDLE
 40
0.0
  9
$DIMEXE
 40
0.25
  9
$DIMTP
 40
0.0
  9
$DIMTM
 40
0.0
  9
$DIMTXT
 40
0.25
  9
$DIMCEN
 40
0.09
  9
$DIMTSZ
 40
0.0
  9
$DIMTOL
 70
     0
  9
$DIMLIM
 70
     0
  9
$DIMTIH
 70
     1
  9
$DIMTOH
 70
     1
  9
$DIMSE1
 70
     0
  9
$DIMSE2
 70
     0
  9
$DIMTAD
 70
     0
  9
$DIMZIN
 70
     0
  9
$DIMBLK
  1

  9
$DIMASO
 70
     1
  9
$DIMSHO
 70
     1
  9
$DIMPOST
  1

  9
$DIMAPOST
  1

  9
$DIMALT
 70
     0
  9
$DIMALTD
 70
     2
  9
$DIMALTF
 40
25.4
  9
$DIMLFAC
 40
1.0
  9
$DIMTOFL
 70
     0
  9
$DIMTVP
 40
0.0
  9
$DIMTIX
 70
     0
  9
$DIMSOXD
 70
     0
  9
$DIMSAH
 70
     0
  9
$DIMBLK1
  1

  9
$DIMBLK2
  1

  9
$DIMSTYLE
  2
Standard
  9
$DIMCLRD
 70
     0
  9
$DIMCLRE
 70
     0
  9
$DIMCLRT
 70
     0
  9
$DIMTFAC
 40
1.0
  9
$DIMGAP
 40
0.12
  9
$DIMJUST
 70
     0
  9
$DIMSD1
 70
     0
  9
$DIMSD2
 70
     0
  9
$DIMTOLJ
 70
     1
  9
$DIMTZIN
 70
     0
  9
$DIMALTZ
 70
     0
  9
$DIMALTTZ
 70
     0
  9
$DIMUPT
 70
     0
  9
$DIMDEC
 70
     3
  9
$DIMTDEC
 70
     3
  9
$DIMALTU
 70
     2
  9
$DIMALTTD
 70
     2
  9
$DIMTXSTY
  7
Standard
  9
$DIMAUNIT
 70
     0
  9
$DIMADEC
 70
     0
  9
$DIMALTRND
 40
0.0
  9
$DIMAZIN
 70
     0
  9
$DIMDSEP
 70
    46
  9
$DIMATFIT
 70
     3
  9
$DIMFRAC
 70
     0
  9
$DIMLDRBLK
  1

  9
$DIMLUNIT
 70
     2
  9
$DIMLWD
 70
    -2
  9
$DIMLWE
 70
    -2
  9
$DIMTMOVE
 70
     0
  9
$LUNITS
 70
     2
  9
$LUPREC
 70
     3
  9
$SKETCHINC
 40
0.1
  9
$FILLETRAD
 40
0.5
  9
$AUNITS
 70
     0
  9
$AUPREC
 70
     0
  9
$MENU
  1
.
  9
$ELEVATION
 40
0.0
  9
$PELEVATION
 40
0.0
  9
$THICKNESS
 40
0.0
  9
$LIMCHECK
 70
     0
  9
$CHAMFERA
 40
0.5
  9
$CHAMFERB
 40
0.5
  9
$CHAMFERC
 40
1.0
  9
$CHAMFERD
 40
0.0
  9
$SKPOLY
 70
     0
  9
$TDCREATE
 40
2456764.469205058
  9
$TDUCREATE
 40
2456764.635871725
  9
$TDUPDATE
 40
2456764.469205961
  9
$TDUUPDATE
 40
2456764.635872627
  9
$TDINDWG
 40
0.0000000116
  9
$TDUSRTIMER
 40
0.0000000116
  9
$USRTIMER
 70
     1
  9
$ANGBASE
 50
0.0
  9
$ANGDIR
 70
     0
  9
$PDMODE
 70
     0
  9
$PDSIZE
 40
-1.0
  9
$PLINEWID
 40
0.0
  9
$SPLFRAME
 70
     0
  9
$SPLINETYPE
 70
     6
  9
$SPLINESEGS
 70
     8
  9
$HANDSEED
  5
294
  9
$SURFTAB1
 70
     6
  9
$SURFTAB2
 70
     6
  9
$SURFTYPE
 70
     6
  9
$SURFU
 70
     6
  9
$SURFV
 70
     6
  9
$UCSBASE
  2

  9
$UCSNAME
  2

  9
$UCSORG
 10
0.0
 20
0.0
 30
0.0
  9
$UCSXDIR
 10
1.0
 20
0.0
 30
0.0
  9
$UCSYDIR
 10
0.0
 20
1.0
 30
0.0
  9
$UCSORTHOREF
  2

  9
$UCSORTHOVIEW
 70
     0
  9
$UCSORGTOP
 10
0.0
 20
0.0
 30
0.0
  9
$UCSORGBOTTOM
 10
0.0
 20
0.0
 30
0.0
  9
$UCSORGLEFT
 10
0.0
 20
0.0
 30
0.0
  9
$UCSORGRIGHT
 10
0.0
 20
0.0
 30
0.0
  9
$UCSORGFRONT
 10
0.0
 20
0.0
 30
0.0
  9
$UCSORGBACK
 10
0.0
 20
0.0
 30
0.0
  9
$PUCSBASE
  2

  9
$PUCSNAME
  2

  9
$PUCSORG
 10
0.0
 20
0.0
 30
0.0
  9
$PUCSXDIR
 10
1.0
 20
0.0
 30
0.0
  9
$PUCSYDIR
 10
0.0
 20
1.0
 30
0.0
  9
$PUCSORTHOREF
  2

  9
$PUCSORTHOVIEW
 70
     0
  9
$PUCSORGTOP
 10
0.0
 20
0.0
 30
0.0
  9
$PUCSORGBOTTOM
 10
0.0
 20
0.0
 30
0.0
  9
$PUCSORGLEFT
 10
0.0
 20
0.0
 30
0.0
  9
$PUCSORGRIGHT
 10
0.0
 20
0.0
 30
0.0
  9
$PUCSORGFRONT
 10
0.0
 20
0.0
 30
0.0
  9
$PUCSORGBACK
 10
0.0
 20
0.0
 30
0.0
  9
$USERI1
 70
     0
  9
$USERI2
 70
     0
  9
$USERI3
 70
     0
  9
$USERI4
 70
     0
  9
$USERI5
 70
     0
  9
$USERR1
 40
0.0
  9
$USERR2
 40
0.0
  9
$USERR3
 40
0.0
  9
$USERR4
 40
0.0
  9
$USERR5
 40
0.0
  9
$WORLDVIEW
 70
     1
  9
$SHADEDGE
 70
     3
  9
$SHADEDIF
 70
    70
  9
$TILEMODE
 70
     1
  9
$MAXACTVP
 70
    64
  9
$PINSBASE
 10
0.0
 20
0.0
 30
0.0
  9
$PLIMCHECK
 70
     0
  9
$PEXTMIN
 10
1.0000000000E+20
 20
1.0000000000E+20
 30
1.0000000000E+20
  9
$PEXTMAX
 10
-1.0000000000E+20
 20
-1.0000000000E+20
 30
-1.0000000000E+20
  9
$PLIMMIN
 10
0.0
 20
0.0
  9
$PLIMMAX
 10
12.0
 20
9.0
  9
$UNITMODE
 70
     0
  9
$VISRETAIN
 70
     1
  9
$PLINEGEN
 70
     0
  9
$PSLTSCALE
 70
     1
  9
$TREEDEPTH
 70
  3020
  9
$CMLSTYLE
  2
Standard
  9
$CMLJUST
 70
     0
  9
$CMLSCALE
 40
1.0
  9
$PROXYGRAPHICS
 70
     1
  9
$MEASUREMENT
 70
     0
  9
$CELWEIGHT
370
    -1
  9
$ENDCAPS
280
     0
  9
$JOINSTYLE
280
     0
  9
$LWDISPLAY
290
     1
  9
$INSUNITS
 70
     1
  9
$HYPERLINKBASE
  1

  9
$STYLESHEET
  1

  9
$XEDIT
290
     1
  9
$CEPSNTYPE
380
     0
  9
$PSTYLEMODE
290
     1
  9
$FINGERPRINTGUID
  2
{629A4A26-F8D1-4F66-A037-A3C25E9A6F57}
  9
$VERSIONGUID
  2
{FAEB1C32-E019-11D5-929B-00C0DF256EC4}
  9
$EXTNAMES
290
     1
  9
$PSVPSCALE
 40
0.0
  9
$OLESTARTUP
290
     0
  0
ENDSEC
  0
SECTION
  2
CLASSES
  0
CLASS
  1
ACDBDICTIONARYWDFLT
  2
AcDbDictionaryWithDefault
  3
ObjectDBX Classes
 90
        0
280
     0
281
     0
  0
CLASS
  1
VISUALSTYLE
  2
AcDbVisualStyle
  3
ObjectDBX Classes
 90
     4095
280
     0
281
     0
  0
CLASS
  1
MATERIAL
  2
AcDbMaterial
  3
ObjectDBX Classes
 90
     1153
280
     0
281
     0
  0
CLASS
  1
ACDBPLACEHOLDER
  2
AcDbPlaceHolder
  3
ObjectDBX Classes
 90
        0
280
     0
281
     0
  0
CLASS
  1
LAYOUT
  2
AcDbLayout
  3
ObjectDBX Classes
 90
        0
280
     0
281
     0
  0
ENDSEC
  0
SECTION
  2
TABLES
  0
TABLE
  2
VPORT
  5
8
330
0
100
AcDbSymbolTable
 70
     1
  0
VPORT
  5
29
330
8
100
AcDbSymbolTableRecord
100
AcDbViewportTableRecord
  2
*Active
 70
     0
 10
0.0
 20
0.0
 11
1.0
 21
1.0
 12
22.0
 22
30.0
 13
0.0
 23
0.0
 14
0.5
 24
0.5
 15
0.5
 25
0.5
 16
0.0
 26
0.0
 36
1.0
 17
0.0
 27
0.0
 37
0.0
 40
60.0
 41
0.7333333333
 42
50.0
 43
0.0
 44
0.0
 50
0.0
 51
0.0
 71
     0
 72
  2000
 73
     1
 74
     3
 75
     0
 76
     0
 77
     0
 78
     0
281
     0
 65
     1
110
0.0
120
0.0
130
0.0
111
1.0
121
0.0
131
0.0
112
0.0
122
1.0
132
0.0
 79
     0
146
0.0
  0
ENDTAB
  0
TABLE
  2
LTYPE
  5
5
330
0
100
AcDbSymbolTable
 70
     6
  0
LTYPE
  5
14
330
5
100
AcDbSymbolTableRecord
100
AcDbLinetypeTableRecord
  2
ByBlock
 70
     0
  3

 72
    65
 73
     0
 40
0.0
  0
LTYPE
  5
15
330
5
100
AcDbSymbolTableRecord
100
AcDbLinetypeTableRecord
  2
ByLayer
 70
     0
  3

 72
    65
 73
     0
 40
0.0
  0
LTYPE
  5
16
330
5
100
AcDbSymbolTableRecord
100
AcDbLinetypeTableRecord
  2
Continuous
 70
     0
  3
Solid line
 72
    65
 73
     0
 40
0.0
  0
LTYPE
  5
3F
330
5
100
AcDbSymbolTableRecord
100
AcDbLinetypeTableRecord
  2
HIDDEN
 70
     0
  3
Hidden __ __ __ __ __ __ __ __ __ __ __ __ __ __
 72
    65
 73
     2
 40
0.075
 49
0.05
 74
     0
 49
-0.025
 74
     0
  0
LTYPE
  5
40
330
5
100
AcDbSymbolTableRecord
100
AcDbLinetypeTableRecord
  2
PHANTOM
 70
     0
  3
Phantom ______  __  __  ______  __  __  ______
 72
    65
 73
     6
 40
0.5
 49
0.25
 74
     0
 49
-0.05
 74
     0
 49
0.05
 74
     0
 49
-0.05
 74
     0
 49
0.05
 74
     0
 49
-0.05
 74
     0
  0
LTYPE
  5
41
330
5
100
AcDbSymbolTableRecord
100
AcDbLinetypeTableRecord
  2
CENTER
 70
     0
  3
Center ____ _ ____ _ ____ _ ____ _ ____ _ ____
 72
    65
 73
     4
 40
0.4
 49
0.25
 74
     0
 49
-0.05
 74
     0
 49
0.05
 74
     0
 49
-0.05
 74
     0
  0
LTYPE
  5
42
330
5
100
AcDbSymbolTableRecord
100
AcDbLinetypeTableRecord
  2
CENTERX2
 70
     0
  3
Center (2x) ________  __  ________  __  _____
 72
    65
 73
     4
 40
0.8
 49
0.5
 74
     0
 49
-0.1
 74
     0
 49
0.1
 74
     0
 49
-0.1
 74
     0
  0
LTYPE
  5
43
330
5
100
AcDbSymbolTableRecord
100
AcDbLinetypeTableRecord
  2
DOT2
 70
     0
  3
Dot (.5x) ........................................
 72
    65
 73
     2
 40
0.025
 49
0.0
 74
     0
 49
-0.025
 74
     0
  0
ENDTAB
  0
TABLE
  2
LAYER
  5
2
330
0
100
AcDbSymbolTable
 70
     8
  0
LAYER
  5
10
330
2
100
AcDbSymbolTableRecord
100
AcDbLayerTableRecord
  2
0
 70
     0
 62
     7
  6
Continuous
370
    -3
390
F
  0
LAYER
  5
44
330
2
100
AcDbSymbolTableRecord
100
AcDbLayerTableRecord
  2
FORMAT
 70
     0
 62
     7
  6
Continuous
370
    -3
390
F
  0
LAYER
  5
45
330
2
100
AcDbSymbolTableRecord
100
AcDbLayerTableRecord
  2
DEFAULT
 70
     0
 62
   179
  6
Continuous
370
    -3
390
F
  0
LAYER
  5
46
330
2
100
AcDbSymbolTableRecord
100
AcDbLayerTableRecord
  2
INSPECTION_TAGS
 70
     0
 62
     7
  6
Continuous
370
    -3
390
F
  0
LAYER
  5
47
330
2
100
AcDbSymbolTableRecord
100
AcDbLayerTableRecord
  2
REVISIONS
 70
     0
 62
     7
  6
Continuous
370
    -3
390
F
  0
LAYER
  5
48
330
2
100
AcDbSymbolTableRecord
100
AcDbLayerTableRecord
  2
DIMENSIONS_&_ANNOTATIONS
 70
     0
 62
     7
  6
Continuous
370
    -3
390
F
  0
LAYER
  5
49
330
2
100
AcDbSymbolTableRecord
100
AcDbLayerTableRecord
  2
HIDDEN
 70
     0
 62
    -7
  6
Continuous
370
    -3
390
F
  0
LAYER
  5
4A
330
2
100
AcDbSymbolTableRecord
100
AcDbLayerTableRecord
  2
DIMENSION_&_ANNOTATIONS
 70
     0
 62
     7
  6
Continuous
370
    -3
390
F
  0
ENDTAB
  0
TABLE
  2
STYLE
  5
3
330
0
100
AcDbSymbolTable
 70
     2
  0
STYLE
  5
11
330
3
100
AcDbSymbolTableRecord
100
AcDbTextStyleTableRecord
  2
Standard
 70
     0
 40
0.0
 41
1.0
 50
0.0
 71
     0
 42
0.25
  3
txt
  4

  0
STYLE
  5
4E
330
3
100
AcDbSymbolTableRecord
100
AcDbTextStyleTableRecord
  2
SLDTEXTSTYLE0
 70
     0
 40
0.0
 41
0.605
 50
0.0
 71
     0
 42
0.2
  3
TXT
  4

  0
ENDTAB
  0
TABLE
  2
VIEW
  5
6
330
0
100
AcDbSymbolTable
 70
     0
  0
ENDTAB
  0
TABLE
  2
UCS
  5
7
330
0
100
AcDbSymbolTable
 70
     0
  0
ENDTAB
  0
TABLE
  2
APPID
  5
9
330
0
100
AcDbSymbolTable
 70
     1
  0
APPID
  5
12
330
9
100
AcDbSymbolTableRecord
100
AcDbRegAppTableRecord
  2
ACAD
 70
     0
  0
ENDTAB
  0
TABLE
  2
DIMSTYLE
  5
A
330
0
100
AcDbSymbolTable
 70
     1
100
AcDbDimStyleTable
  0
DIMSTYLE
105
27
330
A
100
AcDbSymbolTableRecord
100
AcDbDimStyleTableRecord
  2
Standard
 70
     0
178
     0
340
11
  0
ENDTAB
  0
TABLE
  2
BLOCK_RECORD
  5
1
330
0
100
AcDbSymbolTable
 70
     2
  0
BLOCK_RECORD
  5
1F
330
1
100
AcDbSymbolTableRecord
100
AcDbBlockTableRecord
  2
*Model_Space
340
22
  0
BLOCK_RECORD
  5
1B
330
1
100
AcDbSymbolTableRecord
100
AcDbBlockTableRecord
  2
*Paper_Space
340
1E
  0
BLOCK_RECORD
  5
23
330
1
100
AcDbSymbolTableRecord
100
AcDbBlockTableRecord
  2
*Paper_Space0
340
26
  0
BLOCK_RECORD
  5
4B
330
1
100
AcDbSymbolTableRecord
100
AcDbBlockTableRecord
  2
SW_NOTE_0
340
0
102
{BLKREFS
331
53
102
}
  0
ENDTAB
  0
ENDSEC
  0
SECTION
  2
BLOCKS
  0
BLOCK
  5
20
330
1F
100
AcDbEntity
  8
0
100
AcDbBlockBegin
  2
*Model_Space
 70
     0
 10
0.0
 20
0.0
 30
0.0
  3
*Model_Space
  1

  0
ENDBLK
  5
21
330
1F
100
AcDbEntity
  8
0
100
AcDbBlockEnd
  0
BLOCK
  5
1C
330
1B
100
AcDbEntity
 67
     1
  8
0
100
AcDbBlockBegin
  2
*Paper_Space
 70
     0
 10
0.0
 20
0.0
 30
0.0
  3
*Paper_Space
  1

  0
ENDBLK
  5
1D
330
1B
100
AcDbEntity
 67
     1
  8
0
100
AcDbBlockEnd
  0
BLOCK
  5
24
330
23
100
AcDbEntity
  8
0
100
AcDbBlockBegin
  2
*Paper_Space0
 70
     0
 10
0.0
 20
0.0
 30
0.0
  3
*Paper_Space0
  1

  0
ENDBLK
  5
25
330
23
100
AcDbEntity
  8
0
100
AcDbBlockEnd
  0
BLOCK
  5
4C
330
4B
100
AcDbEntity
  8
0
100
AcDbBlockBegin
  2
SW_NOTE_0
 70
     0
 10
0.0
 20
0.0
 30
0.0
  3
SW_NOTE_0
  1

  0
MTEXT
  5
4F
330
4B
100
AcDbEntity
  8
DEFAULT
 62
     0
100
AcDbMText
 10
1.5462239583
 20
0.6713894478
 30
0.0
 40
0.5208333333
 41
0.0
 71
     2
 72
     1
  1
Legrand®
  7
SLDTEXTSTYLE0
 73
     1
 44
1.0
  0
MTEXT
  5
50
330
4B
100
AcDbEntity
  8
DEFAULT
 62
     0
100
AcDbMText
 10
1.4945633181
 20
-0.0230549699
 30
0.0
 40
0.5208333333
 41
0.0
 71
     2
 72
     1
  1
SYSTEM: Poke Thru Devices
  7
SLDTEXTSTYLE0
 73
     1
 44
1.0
  0
MTEXT
  5
51
330
4B
100
AcDbEntity
  8
DEFAULT
 62
     0
100
AcDbMText
 10
1.5696135836
 20
-0.7174993876
 30
0.0
 40
0.5208333333
 41
0.0
 71
     2
 72
     1
  1
Catalog Number:  4FFCTC15
  7
SLDTEXTSTYLE0
 73
     1
 44
1.0
  0
MTEXT
  5
52
330
4B
100
AcDbEntity
  8
DEFAULT
 62
     0
100
AcDbMText
 10
1.5461035131
 20
-1.4119438054
 30
0.0
 40
0.5208333333
 41
0.0
 71
     2
 72
     1
  1
04/16/14
  7
SLDTEXTSTYLE0
 73
     1
 44
1.0
  0
ENDBLK
  5
4D
330
4B
100
AcDbEntity
  8
0
100
AcDbBlockEnd
  0
ENDSEC
  0
SECTION
  2
ENTITIES
  0
INSERT
  5
53
330
1F
100
AcDbEntity
  8
DEFAULT
 62
     7
100
AcDbBlockReference
  2
SW_NOTE_0
 10
20.9707753724
 20
9.3055555548
 30
0.0
  0
CIRCLE
  5
54
330
1F
100
AcDbEntity
  8
0
  6
Continuous
 62
     7
370
    15
100
AcDbCircle
 10
14.3876423088
 20
40.0613588983
 30
0.0
 40
0.2699999811818254
  0
LINE
  5
55
330
1F
100
AcDbEntity
  8
0
  6
Continuous
 62
     7
370
    15
100
AcDbLine
 10
14.5675663503
 20
40.0333590884
 30
0.0
 11
14.5634262914
 21
40.0333590884
 31
0.0
  0
LINE
  5
56
330
1F
100
AcDbEntity
  8
0
  6
Continuous
 62
     7
370
    15
100
AcDbLine
 10
14.5675663503
 20
40.0333590884
 30
0.0
 11
14.5675663503
 21
40.0893590015
 31
0.0
  0
LINE
  5
57
330
1F
100
AcDbEntity
  8
0
  6
Continuous
 62
     7
370
    15
100
AcDbLine
 10
14.5675663503
 20
40.0893590015
 30
0.0
 11
14.5634262914
 21
40.0893590015
 31
0.0
  0
ARC
  5
58
330
1F
100
AcDbEntity
  8
0
  6
Continuous
 62
     7
370
    15
100
AcDbCircle
 10
14.3876423094
 20
40.0613590455
 30
0.0
 40
0.1780000165529086
100
AcDbArc
 50
9.0503935217
 51
80.9496064783
  0
LINE
  5
59
330
1F
100
AcDbEntity
  8
0
  6
Continuous
 62
     7
370
    15
100
AcDbLine
 10
14.4156422653
 20
40.2412830865
 30
0.0
 11
14.4156422653
 21
40.2371430276
 31
0.0
  0
LINE
  5
5A
330
1F
100
AcDbEntity
  8
0
  6
Continuous
 62
     7
370
    15
100
AcDbLine
 10
14.4156422653
 20
40.2412830865
 30
0.0
 11
14.3596423522
 21
40.2412830865
 31
0.0
  0
LINE
  5
5B
330
1F
100
AcDbEntity
  8
0
  6
Continuous
 62
     7
370
    15
100
AcDbLine
 10
14.3596423522
 20
40.2412830865
 30
0.0
 11
14.3596423522
 21
40.2371430276
 31
0.0
  0
ARC
  5
5C
330
1F
100
AcDbEntity
  8
0
  6
Continuous
 62
     7
370
    15
100
AcDbCircle
 10
14.3876423082
 20
40.0613590455
 30
0.0
 40
0.1780000165529092
100
AcDbArc
 50
99.0503935217
 51
170.9496064783
  0
LINE
  5
5D
330
1F
100
AcDbEntity
  8
0
  6
Continuous
 62
     7
370
    15
100
AcDbLine
 10
14.2118583261
 20
40.0893590015
 30
0.0
 11
14.2077182673
 21
40.0893590015
 31
0.0
  0
LINE
  5
5E
330
1F
100
AcDbEntity
  8
0
  6
Continuous
 62
     7
370
    15
100
AcDbLine
 10
14.2077182673
 20
40.0893590015
 30
0.0
 11
14.2077182673
 21
40.0333590884
 31
0.0
  0
LINE
  5
5F
330
1F
100
AcDbEntity
  8
0
  6
Continuous
 62
     7
370
    15
100
AcDbLine
 10
14.2118583261
 20
40.0333590884
 30
0.0
 11
14.2077182673
 21
40.0333590884
 31
0.0
  0
ARC
  5
60
330
1F
100
AcDbEntity
  8
0
  6
Continuous
 62
     7
370
    15
100
AcDbCircle
 10
14.3876423082
 20
40.0613590444
 30
0.0
 40
0.1780000165529019
100
AcDbArc
 50
189.0503935217
 51
260.9496064783
  0
LINE
  5
61
330
1F
100
AcDbEntity
  8
0
  6
Continuous
 62
     7
370
    15
100
AcDbLine
 10
14.3596423522
 20
39.8855750623
 30
0.0
 11
14.3596423522
 21
39.8814350035
 31
0.0
  0
LINE
  5
62
330
1F
100
AcDbEntity
  8
0
  6
Continuous
 62
     7
370
    15
100
AcDbLine
 10
14.3596423522
 20
39.8814350035
 30
0.0
 11
14.4156422653
 21
39.8814350035
 31
0.0
  0
LINE
  5
63
330
1F
100
AcDbEntity
  8
0
  6
Continuous
 62
     7
370
    15
100
AcDbLine
 10
14.4156422653
 20
39.8855750623
 30
0.0
 11
14.4156422653
 21
39.8814350035
 31
0.0
  0
ARC
  5
64
330
1F
100
AcDbEntity
  8
0
  6
Continuous
 62
     7
370
    15
100
AcDbCircle
 10
14.3876423094
 20
40.0613590444
 30
0.0
 40
0.1780000165529016
100
AcDbArc
 50
279.0503935217
 51
350.9496064783
  0
LINE
  5
65
330
1F
100
AcDbEntity
  8
0
  6
Continuous
 62
     7
370
    15
100
AcDbLine
 10
14.4986423198
 20
40.0333590884
 30
0.0
 11
14.4986423198
 21
40.0893590015
 31
0.0
  0
LINE
  5
66
330
1F
100
AcDbEntity
  8
0
  6
Continuous
 62
     7
370
    15
100
AcDbLine
 10
14.4156422653
 20
40.172359056
 30
0.0
 11
14.3596423522
 21
40.172359056
 31
0.0
  0
LINE
  5
67
330
1F
100
AcDbEntity
  8
0
  6
Continuous
 62
     7
370
    15
100
AcDbLine
 10
14.2766422977
 20
40.0893590015
 30
0.0
 11
14.2766422977
 21
40.0333590884
 31
0.0
  0
LINE
  5
68
330
1F
100
AcDbEntity
  8
0
  6
Continuous
 62
     7
370
    15
100
AcDbLine
 10
14.3596423522
 20
39.9503590339
 30
0.0
 11
14.4156422653
 21
39.9503590339
 31
0.0
  0
ARC
  5
69
330
1F
100
AcDbEntity
  8
0
  6
Continuous
 62
     7
370
    15
100
AcDbCircle
 10
14.2766425275
 20
40.1723588263
 30
0.0
 40
0.0829998247594652
100
AcDbArc
 50
269.9998414005
 51
0.0001585995
  0
LINE
  5
6A
330
1F
100
AcDbEntity
  8
0
  6
Continuous
 62
     7
370
    15
100
AcDbLine
 10
14.2766422977
 20
40.0893590015
 30
0.0
 11
14.2118583261
 21
40.0893590015
 31
0.0
  0
LINE
  5
6B
330
1F
100
AcDbEntity
  8
0
  6
Continuous
 62
     7
370
    15
100
AcDbLine
 10
14.3596423522
 20
40.2371430276
 30
0.0
 11
14.3596423522
 21
40.172359056
 31
0.0
  0
ARC
  5
6C
330
1F
100
AcDbEntity
  8
0
  6
Continuous
 62
     7
370
    15
100
AcDbCircle
 10
14.4986420901
 20
40.1723588263
 30
0.0
 40
0.0829998247594688
100
AcDbArc
 50
179.9998414005
 51
270.0001585995
  0
LINE
  5
6D
330
1F
100
AcDbEntity
  8
0
  6
Continuous
 62
     7
370
    15
100
AcDbLine
 10
14.5634262914
 20
40.0893590015
 30
0.0
 11
14.4986423198
 21
40.0893590015
 31
0.0
  0
LINE
  5
6E
330
1F
100
AcDbEntity
  8
0
  6
Continuous
 62
     7
370
    15
100
AcDbLine
 10
14.4156422653
 20
40.2371430276
 30
0.0
 11
14.4156422653
 21
40.172359056
 31
0.0
  0
ARC
  5
6F
330
1F
100
AcDbEntity
  8
0
  6
Continuous
 62
     7
370
    15
100
AcDbCircle
 10
14.2766420267
 20
39.9503587629
 30
0.0
 40
0.0830003255054327
100
AcDbArc
 50
0.0001870702
 51
89.9998129298
  0
LINE
  5
70
330
1F
100
AcDbEntity
  8
0
  6
Continuous
 62
     7
370
    15
100
AcDbLine
 10
14.2766422977
 20
40.0333590884
 30
0.0
 11
14.2118583261
 21
40.0333590884
 31
0.0
  0
LINE
  5
71
330
1F
100
AcDbEntity
  8
0
  6
Continuous
 62
     7
370
    15
100
AcDbLine
 10
14.3596423522
 20
39.9503590339
 30
0.0
 11
14.3596423522
 21
39.8855750623
 31
0.0
  0
ARC
  5
72
330
1F
100
AcDbEntity
  8
0
  6
Continuous
 62
     7
370
    15
100
AcDbCircle
 10
14.4986425908
 20
39.9503587629
 30
0.0
 40
0.0830003255054327
100
AcDbArc
 50
90.0001870702
 51
179.9998129298
  0
LINE
  5
73
330
1F
100
AcDbEntity
  8
0
  6
Continuous
 62
     7
370
    15
100
AcDbLine
 10
14.4156422653
 20
39.9503590339
 30
0.0
 11
14.4156422653
 21
39.8855750623
 31
0.0
  0
LINE
  5
74
330
1F
100
AcDbEntity
  8
0
  6
Continuous
 62
     7
370
    15
100
AcDbLine
 10
14.5634262914
 20
40.0333590884
 30
0.0
 11
14.4986423198
 21
40.0333590884
 31
0.0
  0
CIRCLE
  5
75
330
1F
100
AcDbEntity
  8
0
  6
Continuous
 62
     7
370
    15
100
AcDbCircle
 10
14.9706442639
 20
33.3976178286
 30
0.0
 40
0.2700001228493173
  0
LINE
  5
76
330
1F
100
AcDbEntity
  8
0
  6
Continuous
 62
     7
370
    15
100
AcDbLine
 10
15.1505681221
 20
33.3696178819
 30
0.0
 11
15.1464280632
 21
33.3696178819
 31
0.0
  0
LINE
  5
77
330
1F
100
AcDbEntity
  8
0
  6
Continuous
 62
     7
370
    15
100
AcDbLine
 10
15.1505681221
 20
33.3696178819
 30
0.0
 11
15.1505681221
 21
33.425617795
 31
0.0
  0
LINE
  5
78
330
1F
100
AcDbEntity
  8
0
  6
Continuous
 62
     7
370
    15
100
AcDbLine
 10
15.1505681221
 20
33.425617795
 30
0.0
 11
15.1464280632
 21
33.425617795
 31
0.0
  0
ARC
  5
79
330
1F
100
AcDbEntity
  8
0
  6
Continuous
 62
     7
370
    15
100
AcDbCircle
 10
14.9706444662
 20
33.397618224
 30
0.0
 40
0.1779995757682495
100
AcDbArc
 50
9.0502906282
 51
80.9497093718
  0
LINE
  5
7A
330
1F
100
AcDbEntity
  8
0
  6
Continuous
 62
     7
370
    15
100
AcDbLine
 10
14.9986440371
 20
33.5775418799
 30
0.0
 11
14.9986440371
 21
33.5734018211
 31
0.0
  0
LINE
  5
7B
330
1F
100
AcDbEntity
  8
0
  6
Continuous
 62
     7
370
    15
100
AcDbLine
 10
14.9986440371
 20
33.5775418799
 30
0.0
 11
14.942644124
 21
33.5775418799
 31
0.0
  0
LINE
  5
7C
330
1F
100
AcDbEntity
  8
0
  6
Continuous
 62
     7
370
    15
100
AcDbLine
 10
14.942644124
 20
33.5775418799
 30
0.0
 11
14.942644124
 21
33.5734018211
 31
0.0
  0
ARC
  5
7D
330
1F
100
AcDbEntity
  8
0
  6
Continuous
 62
     7
370
    15
100
AcDbCircle
 10
14.970643695
 20
33.397618224
 30
0.0
 40
0.177999575768249
100
AcDbArc
 50
99.0502906282
 51
170.9497093718
  0
LINE
  5
7E
330
1F
100
AcDbEntity
  8
0
  6
Continuous
 62
     7
370
    15
100
AcDbLine
 10
14.7948600979
 20
33.425617795
 30
0.0
 11
14.7907200391
 21
33.425617795
 31
0.0
  0
LINE
  5
7F
330
1F
100
AcDbEntity
  8
0
  6
Continuous
 62
     7
370
    15
100
AcDbLine
 10
14.7907200391
 20
33.425617795
 30
0.0
 11
14.7907200391
 21
33.3696178819
 31
0.0
  0
LINE
  5
80
330
1F
100
AcDbEntity
  8
0
  6
Continuous
 62
     7
370
    15
100
AcDbLine
 10
14.7948600979
 20
33.3696178819
 30
0.0
 11
14.7907200391
 21
33.3696178819
 31
0.0
  0
ARC
  5
81
330
1F
100
AcDbEntity
  8
0
  6
Continuous
 62
     7
370
    15
100
AcDbCircle
 10
14.970643695
 20
33.3976174528
 30
0.0
 40
0.1779995757682495
100
AcDbArc
 50
189.0502906282
 51
260.9497093718
  0
LINE
  5
82
330
1F
100
AcDbEntity
  8
0
  6
Continuous
 62
     7
370
    15
100
AcDbLine
 10
14.942644124
 20
33.2218338557
 30
0.0
 11
14.942644124
 21
33.2176937969
 31
0.0
  0
LINE
  5
83
330
1F
100
AcDbEntity
  8
0
  6
Continuous
 62
     7
370
    15
100
AcDbLine
 10
14.942644124
 20
33.2176937969
 30
0.0
 11
14.9986440371
 21
33.2176937969
 31
0.0
  0
LINE
  5
84
330
1F
100
AcDbEntity
  8
0
  6
Continuous
 62
     7
370
    15
100
AcDbLine
 10
14.9986440371
 20
33.2218338557
 30
0.0
 11
14.9986440371
 21
33.2176937969
 31
0.0
  0
ARC
  5
85
330
1F
100
AcDbEntity
  8
0
  6
Continuous
 62
     7
370
    15
100
AcDbCircle
 10
14.9706444662
 20
33.3976174528
 30
0.0
 40
0.1779995757682495
100
AcDbArc
 50
279.0502906282
 51
350.9497093718
  0
LINE
  5
86
330
1F
100
AcDbEntity
  8
0
  6
Continuous
 62
     7
370
    15
100
AcDbLine
 10
15.0816440916
 20
33.3696178819
 30
0.0
 11
15.0816440916
 21
33.425617795
 31
0.0
  0
LINE
  5
87
330
1F
100
AcDbEntity
  8
0
  6
Continuous
 62
     7
370
    15
100
AcDbLine
 10
14.9986440371
 20
33.5086178495
 30
0.0
 11
14.942644124
 21
33.5086178495
 31
0.0
  0
LINE
  5
88
330
1F
100
AcDbEntity
  8
0
  6
Continuous
 62
     7
370
    15
100
AcDbLine
 10
14.8596440695
 20
33.425617795
 30
0.0
 11
14.8596440695
 21
33.3696178819
 31
0.0
  0
LINE
  5
89
330
1F
100
AcDbEntity
  8
0
  6
Continuous
 62
     7
370
    15
100
AcDbLine
 10
14.942644124
 20
33.2866178274
 30
0.0
 11
14.9986440371
 21
33.2866178274
 31
0.0
  0
ARC
  5
8A
330
1F
100
AcDbEntity
  8
0
  6
Continuous
 62
     7
370
    15
100
AcDbCircle
 10
14.8596440489
 20
33.5086178701
 30
0.0
 40
0.0830000751306902
100
AcDbArc
 50
270.0000142349
 51
359.9999857651
  0
LINE
  5
8B
330
1F
100
AcDbEntity
  8
0
  6
Continuous
 62
     7
370
    15
100
AcDbLine
 10
14.8596440695
 20
33.425617795
 30
0.0
 11
14.7948600979
 21
33.425617795
 31
0.0
  0
LINE
  5
8C
330
1F
100
AcDbEntity
  8
0
  6
Continuous
 62
     7
370
    15
100
AcDbLine
 10
14.942644124
 20
33.5734018211
 30
0.0
 11
14.942644124
 21
33.5086178495
 31
0.0
  0
ARC
  5
8D
330
1F
100
AcDbEntity
  8
0
  6
Continuous
 62
     7
370
    15
100
AcDbCircle
 10
15.081644613
 20
33.5086183708
 30
0.0
 40
0.083000575882435
100
AcDbArc
 50
180.0003599056
 51
269.9996400944
  0
LINE
  5
8E
330
1F
100
AcDbEntity
  8
0
  6
Continuous
 62
     7
370
    15
100
AcDbLine
 10
15.1464280632
 20
33.425617795
 30
0.0
 11
15.0816440916
 21
33.425617795
 31
0.0
  0
LINE
  5
8F
330
1F
100
AcDbEntity
  8
0
  6
Continuous
 62
     7
370
    15
100
AcDbLine
 10
14.9986440371
 20
33.5734018211
 30
0.0
 11
14.9986440371
 21
33.5086178495
 31
0.0
  0
ARC
  5
90
330
1F
100
AcDbEntity
  8
0
  6
Continuous
 62
     7
370
    15
100
AcDbCircle
 10
14.8596440489
 20
33.2866178067
 30
0.0
 40
0.0830000751306938
100
AcDbArc
 50
0.0000142349
 51
89.9999857651
  0
LINE
  5
91
330
1F
100
AcDbEntity
  8
0
  6
Continuous
 62
     7
370
    15
100
AcDbLine
 10
14.8596440695
 20
33.3696178819
 30
0.0
 11
14.7948600979
 21
33.3696178819
 31
0.0
  0
LINE
  5
92
330
1F
100
AcDbEntity
  8
0
  6
Continuous
 62
     7
370
    15
100
AcDbLine
 10
14.942644124
 20
33.2866178274
 30
0.0
 11
14.942644124
 21
33.2218338557
 31
0.0
  0
ARC
  5
93
330
1F
100
AcDbEntity
  8
0
  6
Continuous
 62
     7
370
    15
100
AcDbCircle
 10
15.081644613
 20
33.286617306
 30
0.0
 40
0.083000575882435
100
AcDbArc
 50
90.0003599056
 51
179.9996400944
  0
LINE
  5
94
330
1F
100
AcDbEntity
  8
0
  6
Continuous
 62
     7
370
    15
100
AcDbLine
 10
14.9986440371
 20
33.2866178274
 30
0.0
 11
14.9986440371
 21
33.2218338557
 31
0.0
  0
LINE
  5
95
330
1F
100
AcDbEntity
  8
0
  6
Continuous
 62
     7
370
    15
100
AcDbLine
 10
15.1464280632
 20
33.3696178819
 30
0.0
 11
15.0816440916
 21
33.3696178819
 31
0.0
  0
CIRCLE
  5
96
330
1F
100
AcDbEntity
  8
0
  6
Continuous
 62
     7
370
    15
100
AcDbCircle
 10
8.2631423224
 20
36.5253773235
 30
0.0
 40
0.2699999988902656
  0
LINE
  5
97
330
1F
100
AcDbEntity
  8
0
  6
Continuous
 62
     7
370
    15
100
AcDbLine
 10
8.4430664877
 20
36.4973773318
 30
0.0
 11
8.4389261355
 21
36.4973773318
 31
0.0
  0
LINE
  5
98
330
1F
100
AcDbEntity
  8
0
  6
Continuous
 62
     7
370
    15
100
AcDbLine
 10
8.4430664877
 20
36.4973773318
 30
0.0
 11
8.4430664877
 21
36.553377332
 31
0.0
  0
LINE
  5
99
330
1F
100
AcDbEntity
  8
0
  6
Continuous
 62
     7
370
    15
100
AcDbLine
 10
8.4430664877
 20
36.553377332
 30
0.0
 11
8.4389261355
 21
36.553377332
 31
0.0
  0
ARC
  5
9A
330
1F
100
AcDbEntity
  8
0
  6
Continuous
 62
     7
370
    15
100
AcDbCircle
 10
8.2631422439
 20
36.5253774457
 30
0.0
 40
0.1779999162361224
100
AcDbArc
 50
9.0503759378
 51
80.9495352153
  0
LINE
  5
9B
330
1F
100
AcDbEntity
  8
0
  6
Continuous
 62
     7
370
    15
100
AcDbLine
 10
8.2911424027
 20
36.7053013711
 30
0.0
 11
8.2911424027
 21
36.7011612939
 31
0.0
  0
LINE
  5
9C
330
1F
100
AcDbEntity
  8
0
  6
Continuous
 62
     7
370
    15
100
AcDbLine
 10
8.2911424027
 20
36.7053013711
 30
0.0
 11
8.2351421963
 21
36.7053013711
 31
0.0
  0
LINE
  5
9D
330
1F
100
AcDbEntity
  8
0
  6
Continuous
 62
     7
370
    15
100
AcDbLine
 10
8.2351421963
 20
36.7053013711
 30
0.0
 11
8.2351421963
 21
36.7011612939
 31
0.0
  0
ARC
  5
9E
330
1F
100
AcDbEntity
  8
0
  6
Continuous
 62
     7
370
    15
100
AcDbCircle
 10
8.2631423552
 20
36.5253774457
 30
0.0
 40
0.177999916236126
100
AcDbArc
 50
99.0504647847
 51
170.9496240622
  0
LINE
  5
9F
330
1F
100
AcDbEntity
  8
0
  6
Continuous
 62
     7
370
    15
100
AcDbLine
 10
8.0873584635
 20
36.553377332
 30
0.0
 11
8.0832184047
 21
36.553377332
 31
0.0
  0
LINE
  5
A0
330
1F
100
AcDbEntity
  8
0
  6
Continuous
 62
     7
370
    15
100
AcDbLine
 10
8.0832184047
 20
36.553377332
 30
0.0
 11
8.0832184047
 21
36.4973773318
 31
0.0
  0
LINE
  5
A1
330
1F
100
AcDbEntity
  8
0
  6
Continuous
 62
     7
370
    15
100
AcDbLine
 10
8.0873584635
 20
36.4973773318
 30
0.0
 11
8.0832184047
 21
36.4973773318
 31
0.0
  0
ARC
  5
A2
330
1F
100
AcDbEntity
  8
0
  6
Continuous
 62
     7
370
    15
100
AcDbCircle
 10
8.2631423542
 20
36.5253772117
 30
0.0
 40
0.1779999143434964
100
AcDbArc
 50
189.0503739633
 51
260.9495354129
  0
LINE
  5
A3
330
1F
100
AcDbEntity
  8
0
  6
Continuous
 62
     7
370
    15
100
AcDbLine
 10
8.2351421963
 20
36.3495933653
 30
0.0
 11
8.2351421963
 21
36.3454532881
 31
0.0
  0
LINE
  5
A4
330
1F
100
AcDbEntity
  8
0
  6
Continuous
 62
     7
370
    15
100
AcDbLine
 10
8.2351421963
 20
36.3454532881
 30
0.0
 11
8.2911424027
 21
36.3454532881
 31
0.0
  0
LINE
  5
A5
330
1F
100
AcDbEntity
  8
0
  6
Continuous
 62
     7
370
    15
100
AcDbLine
 10
8.2911424027
 20
36.3495933653
 30
0.0
 11
8.2911424027
 21
36.3454532881
 31
0.0
  0
ARC
  5
A6
330
1F
100
AcDbEntity
  8
0
  6
Continuous
 62
     7
370
    15
100
AcDbCircle
 10
8.2631422448
 20
36.5253772117
 30
0.0
 40
0.1779999143434964
100
AcDbArc
 50
279.0504645871
 51
350.9496260367
  0
LINE
  5
A7
330
1F
100
AcDbEntity
  8
0
  6
Continuous
 62
     7
370
    15
100
AcDbLine
 10
8.3741421639
 20
36.4973773318
 30
0.0
 11
8.3741421639
 21
36.553377332
 31
0.0
  0
LINE
  5
A8
330
1F
100
AcDbEntity
  8
0
  6
Continuous
 62
     7
370
    15
100
AcDbLine
 10
8.2911424027
 20
36.6363773315
 30
0.0
 11
8.2351421963
 21
36.6363773315
 31
0.0
  0
LINE
  5
A9
330
1F
100
AcDbEntity
  8
0
  6
Continuous
 62
     7
370
    15
100
AcDbLine
 10
8.1521424351
 20
36.553377332
 30
0.0
 11
8.1521424351
 21
36.4973773318
 31
0.0
  0
LINE
  5
AA
330
1F
100
AcDbEntity
  8
0
  6
Continuous
 62
     7
370
    15
100
AcDbLine
 10
8.2351421963
 20
36.4143773277
 30
0.0
 11
8.2911424027
 21
36.4143773277
 31
0.0
  0
ARC
  5
AB
330
1F
100
AcDbEntity
  8
0
  6
Continuous
 62
     7
370
    15
100
AcDbCircle
 10
8.3741421884
 20
36.6363771176
 30
0.0
 40
0.0829997856381617
100
AcDbArc
 50
179.9998523614
 51
269.9999831162
  0
LINE
  5
AC
330
1F
100
AcDbEntity
  8
0
  6
Continuous
 62
     7
370
    15
100
AcDbLine
 10
8.2911424027
 20
36.7011612939
 30
0.0
 11
8.2911424027
 21
36.6363773315
 31
0.0
  0
LINE
  5
AD
330
1F
100
AcDbEntity
  8
0
  6
Continuous
 62
     7
370
    15
100
AcDbLine
 10
8.4389261355
 20
36.553377332
 30
0.0
 11
8.3741421639
 21
36.553377332
 31
0.0
  0
ARC
  5
AE
330
1F
100
AcDbEntity
  8
0
  6
Continuous
 62
     7
370
    15
100
AcDbCircle
 10
8.1521424107
 20
36.6363771176
 30
0.0
 40
0.0829997856381617
100
AcDbArc
 50
270.0000168838
 51
0.0001476386
  0
LINE
  5
AF
330
1F
100
AcDbEntity
  8
0
  6
Continuous
 62
     7
370
    15
100
AcDbLine
 10
8.1521424351
 20
36.553377332
 30
0.0
 11
8.0873584635
 21
36.553377332
 31
0.0
  0
LINE
  5
B0
330
1F
100
AcDbEntity
  8
0
  6
Continuous
 62
     7
370
    15
100
AcDbLine
 10
8.2351421963
 20
36.7011612939
 30
0.0
 11
8.2351421963
 21
36.6363773315
 31
0.0
  0
ARC
  5
B1
330
1F
100
AcDbEntity
  8
0
  6
Continuous
 62
     7
370
    15
100
AcDbCircle
 10
8.1521424029
 20
36.4143775383
 30
0.0
 40
0.0829997934622896
100
AcDbArc
 50
359.9998545987
 51
89.9999777151
  0
LINE
  5
B2
330
1F
100
AcDbEntity
  8
0
  6
Continuous
 62
     7
370
    15
100
AcDbLine
 10
8.1521424351
 20
36.4973773318
 30
0.0
 11
8.0873584635
 21
36.4973773318
 31
0.0
  0
LINE
  5
B3
330
1F
100
AcDbEntity
  8
0
  6
Continuous
 62
     7
370
    15
100
AcDbLine
 10
8.2351421963
 20
36.4143773277
 30
0.0
 11
8.2351421963
 21
36.3495933653
 31
0.0
  0
ARC
  5
B4
330
1F
100
AcDbEntity
  8
0
  6
Continuous
 62
     7
370
    15
100
AcDbCircle
 10
8.3741421962
 20
36.4143775383
 30
0.0
 40
0.0829997934622896
100
AcDbArc
 50
90.0000222849
 51
180.0001454014
  0
LINE
  5
B5
330
1F
100
AcDbEntity
  8
0
  6
Continuous
 62
     7
370
    15
100
AcDbLine
 10
8.2911424027
 20
36.4143773277
 30
0.0
 11
8.2911424027
 21
36.3495933653
 31
0.0
  0
LINE
  5
B6
330
1F
100
AcDbEntity
  8
0
  6
Continuous
 62
     7
370
    15
100
AcDbLine
 10
8.4389261355
 20
36.4973773318
 30
0.0
 11
8.3741421639
 21
36.4973773318
 31
0.0
  0
LINE
  5
B7
330
1F
100
AcDbEntity
  8
0
  6
Continuous
 62
     7
370
    15
100
AcDbLine
 10
14.74014233
 20
35.7114977949
 30
0.0
 11
14.74014233
 21
37.3392569376
 31
0.0
  0
LINE
  5
B8
330
1F
100
AcDbEntity
  8
0
  6
Continuous
 62
     7
370
    15
100
AcDbLine
 10
14.9281421849
 20
35.7114977949
 30
0.0
 11
14.74014233
 21
35.7114977949
 31
0.0
  0
LINE
  5
B9
330
1F
100
AcDbEntity
  8
0
  6
Continuous
 62
     7
370
    15
100
AcDbLine
 10
14.9281421849
 20
35.7114977949
 30
0.0
 11
14.9281421849
 21
37.3392569376
 31
0.0
  0
LINE
  5
BA
330
1F
100
AcDbEntity
  8
0
  6
Continuous
 62
     7
370
    15
100
AcDbLine
 10
14.9281421849
 20
37.3392569376
 30
0.0
 11
14.74014233
 21
37.3392569376
 31
0.0
  0
CIRCLE
  5
BB
330
1F
100
AcDbEntity
  8
0
  6
Continuous
 62
     7
370
    15
100
AcDbCircle
 10
14.8341424086
 20
36.5253772746
 30
0.0
 40
1.279999964590685
  0
LINE
  5
BC
330
1F
100
AcDbEntity
  8
0
  6
Continuous
 62
     7
370
    15
100
AcDbLine
 10
11.142032049
 20
37.7353773949
 30
0.0
 11
10.9540321208
 21
37.7353773949
 31
0.0
  0
LINE
  5
BD
330
1F
100
AcDbEntity
  8
0
  6
Continuous
 62
     7
370
    15
100
AcDbLine
 10
11.142032049
 20
35.3153773376
 30
0.0
 11
10.9540321208
 21
35.3153773376
 31
0.0
  0
LINE
  5
BE
330
1F
100
AcDbEntity
  8
0
  6
Continuous
 62
     7
370
    15
100
AcDbLine
 10
10.9540321208
 20
35.3153773376
 30
0.0
 11
10.9540321208
 21
37.7353773949
 31
0.0
  0
CIRCLE
  5
BF
330
1F
100
AcDbEntity
  8
0
  6
Continuous
 62
     7
370
    15
100
AcDbCircle
 10
11.0480321106
 20
36.5253774153
 30
0.0
 40
2.081999947671219
  0
LINE
  5
C0
330
1F
100
AcDbEntity
  8
0
  6
Continuous
 62
     7
370
    15
100
AcDbLine
 10
11.142032049
 20
35.3153773376
 30
0.0
 11
11.142032049
 21
37.7353773949
 31
0.0
  0
CIRCLE
  5
C1
330
1F
100
AcDbEntity
  8
0
  6
Continuous
 62
     7
370
    15
100
AcDbCircle
 10
11.0480321302
 20
36.525377244
 30
0.0
 40
2.10199996333918
  0
CIRCLE
  5
C2
330
1F
100
AcDbEntity
  8
0
  6
Continuous
 62
     7
370
    15
100
AcDbCircle
 10
8.2631424339
 20
36.5253772989
 30
0.0
 40
0.3625000230395968
  0
CIRCLE
  5
C3
330
1F
100
AcDbEntity
  8
0
  6
Continuous
 62
     7
370
    15
100
AcDbCircle
 10
8.2631422037
 20
36.5253773532
 30
0.0
 40
0.3125000236665719
  0
CIRCLE
  5
C4
330
1F
100
AcDbEntity
  8
0
  6
Continuous
 62
     7
370
    15
100
AcDbCircle
 10
12.3461421214
 20
36.5253775968
 30
0.0
 40
5.621818270537051
  0
CIRCLE
  5
C5
330
1F
100
AcDbEntity
  8
0
  6
Continuous
 62
     7
370
    15
100
AcDbCircle
 10
14.8341423189
 20
36.5253773049
 30
0.0
 40
1.312000029129419
  0
CIRCLE
  5
C6
330
1F
100
AcDbEntity
  8
0
  6
Continuous
 62
     7
370
    15
100
AcDbCircle
 10
11.0480320597
 20
36.5253772852
 30
0.0
 40
2.119999971460994
  0
CIRCLE
  5
C7
330
1F
100
AcDbEntity
  8
0
  6
Continuous
 62
     7
370
    15
100
AcDbCircle
 10
14.9706440806
 20
33.3976178384
 30
0.0
 40
0.3625000261504613
  0
CIRCLE
  5
C8
330
1F
100
AcDbEntity
  8
0
  6
Continuous
 62
     7
370
    15
100
AcDbCircle
 10
14.3876423088
 20
40.061359045
 30
0.0
 40
0.362500026150461
  0
CIRCLE
  5
C9
330
1F
100
AcDbEntity
  8
0
  6
Continuous
 62
     7
370
    15
100
AcDbCircle
 10
14.3876422588
 20
40.0613589106
 30
0.0
 40
0.312499988567326
  0
CIRCLE
  5
CA
330
1F
100
AcDbEntity
  8
0
  6
Continuous
 62
     7
370
    15
100
AcDbCircle
 10
14.9706440305
 20
33.3976177041
 30
0.0
 40
0.3124999885673324
  0
CIRCLE
  5
CB
330
1F
100
AcDbEntity
  8
0
  6
Continuous
 62
     7
370
    15
100
AcDbCircle
 10
12.3461427042
 20
36.5253776075
 30
0.0
 40
6.385054042860807
  0
CIRCLE
  5
CC
330
1F
100
AcDbEntity
  8
0
  6
Continuous
 62
     7
370
    15
100
AcDbCircle
 10
12.3461419808
 20
36.525377571
 30
0.0
 40
8.249999965521821
  0
LINE
  5
CD
330
1F
100
AcDbEntity
  8
0
  6
Continuous
 62
     7
370
    15
100
AcDbLine
 10
6.283641834
 20
17.5973881948
 30
0.0
 11
6.283641834
 21
17.2223881535
 31
0.0
  0
LINE
  5
CE
330
1F
100
AcDbEntity
  8
0
  6
Continuous
 62
     7
370
    15
100
AcDbLine
 10
18.4086421916
 20
17.2223881535
 30
0.0
 11
18.4086421916
 21
17.5973881948
 31
0.0
  0
LINE
  5
CF
330
1F
100
AcDbEntity
  8
0
  6
Continuous
 62
     7
370
    15
100
AcDbLine
 10
4.9711416894
 20
17.8473886134
 30
0.0
 11
4.9711416894
 21
17.5973881948
 31
0.0
  0
LINE
  5
D0
330
1F
100
AcDbEntity
  8
0
  6
Continuous
 62
     7
370
    15
100
AcDbLine
 10
19.7211423361
 20
17.5973881948
 30
0.0
 11
19.7211423361
 21
17.8473886134
 31
0.0
  0
LINE
  5
D1
330
1F
100
AcDbEntity
  8
0
  6
Continuous
 62
     7
370
    15
100
AcDbLine
 10
20.5961420414
 20
17.9873891294
 30
0.0
 11
18.7311965987
 21
18.3498980084
 31
0.0
  0
LINE
  5
D2
330
1F
100
AcDbEntity
  8
0
  6
Continuous
 62
     7
370
    15
100
AcDbLine
 10
5.9610880135
 20
18.3498980084
 30
0.0
 11
4.0961419841
 21
17.9873891294
 31
0.0
  0
LINE
  5
D3
330
1F
100
AcDbEntity
  8
0
  6
Continuous
 62
     7
370
    15
100
AcDbLine
 10
20.5961420414
 20
17.8473886134
 30
0.0
 11
20.5961420414
 21
17.9873891294
 31
0.0
  0
LINE
  5
D4
330
1F
100
AcDbEntity
  8
0
  6
Continuous
 62
     7
370
    15
100
AcDbLine
 10
4.0961419841
 20
17.9873891294
 30
0.0
 11
4.0961419841
 21
17.8473886134
 31
0.0
  0
ARC
  5
D5
330
1F
100
AcDbEntity
  8
0
  6
Continuous
 62
     7
370
    15
100
AcDbCircle
 10
17.9679578382
 20
14.4233396295
 30
0.0
 40
4.000049263287471
100
AcDbArc
 50
79.0000966103
 51
89.999964799
  0
ARC
  5
D6
330
1F
100
AcDbEntity
  8
0
  6
Continuous
 62
     7
370
    15
100
AcDbCircle
 10
6.724326774
 20
14.4233396295
 30
0.0
 40
4.000049263287433
100
AcDbArc
 50
90.000035201
 51
100.9999033897
  0
LINE
  5
D7
330
1F
100
AcDbEntity
  8
0
  6
Continuous
 62
     7
370
    15
100
AcDbLine
 10
6.283641834
 20
17.2223881535
 30
0.0
 11
18.4086421916
 21
17.2223881535
 31
0.0
  0
LINE
  5
D8
330
1F
100
AcDbEntity
  8
0
  6
Continuous
 62
     7
370
    15
100
AcDbLine
 10
4.9711416894
 20
17.5973881948
 30
0.0
 11
19.7211423361
 21
17.5973881948
 31
0.0
  0
LINE
  5
D9
330
1F
100
AcDbEntity
  8
0
  6
Continuous
 62
     7
370
    15
100
AcDbLine
 10
20.5961420414
 20
17.9873891294
 30
0.0
 11
4.0961419841
 21
17.9873891294
 31
0.0
  0
LINE
  5
DA
330
1F
100
AcDbEntity
  8
0
  6
Continuous
 62
     7
370
    15
100
AcDbLine
 10
20.5961420414
 20
17.8473886134
 30
0.0
 11
4.0961419841
 21
17.8473886134
 31
0.0
  0
LINE
  5
DB
330
1F
100
AcDbEntity
  8
0
  6
Continuous
 62
     7
370
    15
100
AcDbLine
 10
6.7243243165
 20
18.4233888927
 30
0.0
 11
17.9679602957
 21
18.4233888927
 31
0.0
  0
LINE
  5
DC
330
1F
100
AcDbEntity
  8
0
  6
Continuous
 62
     8
370
    15
100
AcDbLine
 10
12.3461423061
 20
18.3498980084
 30
0.0
 11
5.9610880135
 21
18.3498980084
 31
0.0
  0
LINE
  5
DD
330
1F
100
AcDbEntity
  8
0
  6
Continuous
 62
     8
370
    15
100
AcDbLine
 10
18.7311965987
 20
18.3498980084
 30
0.0
 11
12.3461423061
 21
18.3498980084
 31
0.0
  0
LINE
  5
DE
330
1F
100
AcDbEntity
  8
0
  6
Continuous
 62
     7
370
    15
100
AcDbLine
 10
33.1162892384
 20
49.0350776773
 30
0.0
 11
33.1383607401
 21
49.0223389445
 31
0.0
  0
LWPOLYLINE
  5
DF
330
1F
100
AcDbEntity
  8
0
  6
Continuous
 62
     7
370
    15
100
AcDbPolyline
 90
       10
 70
   128
 43
0.0
 10
33.2353865492
 20
49.508034667
 10
33.2306368408
 20
49.5067422552
 10
33.1730347229
 20
49.4721786012
 10
33.1182102195
 20
49.4181020526
 10
33.0737614563
 20
49.35022961
 10
33.0442203076
 20
49.2745909637
 10
33.0333888794
 20
49.1957274481
 10
33.0431221536
 20
49.1293680014
 10
33.0703446025
 20
49.0758217933
 10
33.1130351826
 20
49.0371022406
  0
LINE
  5
E0
330
1F
100
AcDbEntity
  8
0
  6
Continuous
 62
     7
370
    15
100
AcDbLine
 10
32.0788269466
 20
45.5730548175
 30
0.0
 11
32.0788269466
 21
45.6817403087
 31
0.0
  0
LINE
  5
E1
330
1F
100
AcDbEntity
  8
0
  6
Continuous
 62
     7
370
    15
100
AcDbLine
 10
32.0788269466
 20
45.9004309823
 30
0.0
 11
32.0788269466
 21
46.0963610123
 31
0.0
  0
LINE
  5
E2
330
1F
100
AcDbEntity
  8
0
  6
Continuous
 62
     7
370
    15
100
AcDbLine
 10
32.0788269466
 20
46.3150513926
 30
0.0
 11
32.0788269466
 21
47.1818378594
 31
0.0
  0
LINE
  5
E3
330
1F
100
AcDbEntity
  8
0
  6
Continuous
 62
     7
370
    15
100
AcDbLine
 10
30.4288267942
 20
47.1818378594
 30
0.0
 11
30.4288267942
 21
45.5730546709
 31
0.0
  0
ARC
  5
E4
330
1F
100
AcDbEntity
  8
0
  6
Continuous
 62
     7
370
    15
100
AcDbCircle
 10
31.5509413285
 20
45.8943483853
 30
0.0
 40
0.0795688266891318
100
AcDbArc
 50
201.5172155154
 51
281.3804406907
  0
ARC
  5
E5
330
1F
100
AcDbEntity
  8
0
  6
Continuous
 62
     7
370
    15
100
AcDbCircle
 10
31.4944059349
 20
46.5516043572
 30
0.0
 40
0.7393709475186675
100
AcDbArc
 50
275.608296787
 51
325.0449057682
  0
LINE
  5
E6
330
1F
100
AcDbEntity
  8
0
  6
Continuous
 62
     7
370
    15
100
AcDbLine
 10
31.4711461532
 20
45.8802077893
 30
0.0
 11
31.4766261432
 21
45.8657649561
 31
0.0
  0
ARC
  5
E7
330
1F
100
AcDbEntity
  8
0
  6
Continuous
 62
     7
370
    15
100
AcDbCircle
 10
31.5509427749
 20
45.4797298729
 30
0.0
 40
0.0795705456435074
100
AcDbArc
 50
201.5175153719
 51
281.3791291598
  0
ARC
  5
E8
330
1F
100
AcDbEntity
  8
0
  6
Continuous
 62
     7
370
    15
100
AcDbCircle
 10
31.4944072779
 20
46.1369821855
 30
0.0
 40
0.7393683334674085
100
AcDbArc
 50
275.6082121081
 51
325.0450139077
  0
LINE
  5
E9
330
1F
100
AcDbEntity
  8
0
  6
Continuous
 62
     7
370
    15
100
AcDbLine
 10
31.4711461532
 20
45.465588259
 30
0.0
 11
31.4766261432
 21
45.4511452792
 31
0.0
  0
ARC
  5
EA
330
1F
100
AcDbEntity
  8
0
  6
Continuous
 62
     7
370
    15
100
AcDbCircle
 10
32.0546473298
 20
46.2564072141
 30
0.0
 40
0.0640737105200982
100
AcDbArc
 50
352.1861696079
 51
75.6544983288
  0
LINE
  5
EB
330
1F
100
AcDbEntity
  8
0
  6
Continuous
 62
     7
370
    15
100
AcDbLine
 10
32.0707053737
 20
46.3188828683
 30
0.0
 11
32.040844092
 21
46.3273565838
 31
0.0
  0
ARC
  5
EC
330
1F
100
AcDbEntity
  8
0
  6
Continuous
 62
     7
370
    15
100
AcDbCircle
 10
32.0068538756
 20
46.1884809791
 30
0.0
 40
0.1109723556659111
100
AcDbArc
 50
327.0767940437
 51
4.6582304013
  0
LINE
  5
ED
330
1F
100
AcDbEntity
  8
0
  6
Continuous
 62
     7
370
    15
100
AcDbLine
 10
30.5265341188
 20
44.6555966294
 30
0.0
 11
30.5902075432
 21
44.6188084344
 31
0.0
  0
LINE
  5
EE
330
1F
100
AcDbEntity
  8
0
  6
Continuous
 62
     7
370
    15
100
AcDbLine
 10
31.9174461975
 20
44.6188085077
 30
0.0
 11
31.981119622
 21
44.6555965561
 31
0.0
  0
LINE
  5
EF
330
1F
100
AcDbEntity
  8
0
  6
Continuous
 62
     7
370
    15
100
AcDbLine
 10
32.1182550378
 20
46.1980359177
 30
0.0
 11
32.1182550378
 21
46.2477905429
 31
0.0
  0
LINE
  5
F0
330
1F
100
AcDbEntity
  8
0
  6
Continuous
 62
     7
370
    15
100
AcDbLine
 10
30.5265341188
 20
44.5086010009
 30
0.0
 11
30.5902075432
 21
44.4718128792
 31
0.0
  0
LINE
  5
F1
330
1F
100
AcDbEntity
  8
0
  6
Continuous
 62
     7
370
    15
100
AcDbLine
 10
31.9174461975
 20
44.4718128792
 30
0.0
 11
31.981119622
 21
44.5086009275
 31
0.0
  0
ARC
  5
F2
330
1F
100
AcDbEntity
  8
0
  6
Continuous
 62
     7
370
    15
100
AcDbCircle
 10
32.0546552206
 20
45.8417922187
 30
0.0
 40
0.0640665097342955
100
AcDbArc
 50
352.1811922538
 51
75.6601353528
  0
ARC
  5
F3
330
1F
100
AcDbEntity
  8
0
  6
Continuous
 62
     7
370
    15
100
AcDbCircle
 10
30.5052716129
 20
46.7998440002
 30
0.0
 40
0.1158226875646045
100
AcDbArc
 50
147.1846623262
 51
183.3982218289
  0
LINE
  5
F4
330
1F
100
AcDbEntity
  8
0
  6
Continuous
 62
     7
370
    15
100
AcDbLine
 10
32.0707053737
 20
45.9042631914
 30
0.0
 11
32.040844092
 21
45.9127369068
 31
0.0
  0
LINE
  5
F5
330
1F
100
AcDbEntity
  8
0
  6
Continuous
 62
     7
370
    15
100
AcDbLine
 10
30.5265341188
 20
44.3616053723
 30
0.0
 11
30.6850103147
 21
44.27004441
 31
0.0
  0
LINE
  5
F6
330
1F
100
AcDbEntity
  8
0
  6
Continuous
 62
     7
370
    15
100
AcDbLine
 10
31.822643426
 20
44.27004441
 30
0.0
 11
31.981119622
 21
44.361605299
 31
0.0
  0
LINE
  5
F7
330
1F
100
AcDbEntity
  8
0
  6
Continuous
 62
     7
370
    15
100
AcDbLine
 10
30.4288270875
 20
46.8946470171
 30
0.0
 11
30.4072585367
 21
46.8630134358
 31
0.0
  0
LINE
  5
F8
330
1F
100
AcDbEntity
  8
0
  6
Continuous
 62
     7
370
    15
100
AcDbLine
 10
30.3893988496
 20
46.7929718183
 30
0.0
 11
30.3893988496
 21
46.7432171931
 31
0.0
  0
ARC
  5
F9
330
1F
100
AcDbEntity
  8
0
  6
Continuous
 62
     7
370
    15
100
AcDbCircle
 10
32.0068516121
 20
45.7738618721
 30
0.0
 40
0.1109745653644721
100
AcDbArc
 50
327.0771822173
 51
4.6578422277
  0
ARC
  5
FA
330
1F
100
AcDbEntity
  8
0
  6
Continuous
 62
     7
370
    15
100
AcDbCircle
 10
30.4525354101
 20
46.7344627719
 30
0.0
 40
0.0633851879218674
100
AcDbArc
 50
171.898434437
 51
248.0349888936
  0
LINE
  5
FB
330
1F
100
AcDbEntity
  8
0
  6
Continuous
 62
     7
370
    15
100
AcDbLine
 10
32.1182550378
 20
45.7834163874
 30
0.0
 11
32.1182550378
 21
45.8331710127
 31
0.0
  0
ARC
  5
FC
330
1F
100
AcDbEntity
  8
0
  6
Continuous
 62
     7
370
    15
100
AcDbCircle
 10
30.5052943978
 20
46.3852192603
 30
0.0
 40
0.1158455296571994
100
AcDbArc
 50
147.1745530128
 51
183.3861045942
  0
LINE
  5
FD
330
1F
100
AcDbEntity
  8
0
  6
Continuous
 62
     7
370
    15
100
AcDbLine
 10
30.4288270875
 20
46.4800274868
 30
0.0
 11
30.4072585367
 21
46.4483939055
 31
0.0
  0
LINE
  5
FE
330
1F
100
AcDbEntity
  8
0
  6
Continuous
 62
     7
370
    15
100
AcDbLine
 10
30.3893988496
 20
46.3783511147
 30
0.0
 11
30.3893988496
 21
46.3285976628
 31
0.0
  0
ARC
  5
FF
330
1F
100
AcDbEntity
  8
0
  6
Continuous
 62
     7
370
    15
100
AcDbCircle
 10
30.4525345428
 20
46.3198430504
 30
0.0
 40
0.0633846861169529
100
AcDbArc
 50
171.8941778052
 51
248.035651265
  0
LINE
  5
100
330
1F
100
AcDbEntity
  8
0
  6
Continuous
 62
     7
370
    15
100
AcDbLine
 10
33.1383608134
 20
49.1978558502
 30
0.0
 11
33.1383608134
 21
47.4339097741
 31
0.0
  0
LINE
  5
101
330
1F
100
AcDbEntity
  8
0
  6
Continuous
 62
     7
370
    15
100
AcDbLine
 10
36.4403608951
 20
47.4339097741
 30
0.0
 11
36.4403608951
 21
49.1978558502
 31
0.0
  0
LINE
  5
102
330
1F
100
AcDbEntity
  8
0
  6
Continuous
 62
     7
370
    15
100
AcDbLine
 10
33.1543608252
 20
46.0755765324
 30
0.0
 11
33.1543608252
 21
46.0292861338
 31
0.0
  0
LINE
  5
103
330
1F
100
AcDbEntity
  8
0
  6
Continuous
 62
     7
370
    15
100
AcDbLine
 10
33.1543608252
 20
46.217663211
 30
0.0
 11
33.1543608252
 21
46.1606788826
 31
0.0
  0
LINE
  5
104
330
1F
100
AcDbEntity
  8
0
  6
Continuous
 62
     7
370
    15
100
AcDbLine
 10
33.1543608252
 20
46.3597768759
 30
0.0
 11
33.1543608252
 21
46.3027655612
 31
0.0
  0
LINE
  5
105
330
1F
100
AcDbEntity
  8
0
  6
Continuous
 62
     7
370
    15
100
AcDbLine
 10
33.1543608252
 20
46.4864754656
 30
0.0
 11
33.1543608252
 21
46.4448792262
 31
0.0
  0
LINE
  5
106
330
1F
100
AcDbEntity
  8
0
  6
Continuous
 62
     7
370
    15
100
AcDbLine
 10
36.4243609199
 20
46.5159178722
 30
0.0
 11
36.4243609199
 21
46.5729068938
 31
0.0
  0
LINE
  5
107
330
1F
100
AcDbEntity
  8
0
  6
Continuous
 62
     7
370
    15
100
AcDbLine
 10
36.4243609199
 20
46.3738250336
 30
0.0
 11
36.4243609199
 21
46.430815522
 31
0.0
  0
LINE
  5
108
330
1F
100
AcDbEntity
  8
0
  6
Continuous
 62
     7
370
    15
100
AcDbLine
 10
36.4243609199
 20
46.2317189953
 30
0.0
 11
36.4243609199
 21
46.2887226834
 31
0.0
  0
LINE
  5
109
330
1F
100
AcDbEntity
  8
0
  6
Continuous
 62
     7
370
    15
100
AcDbLine
 10
36.4243609199
 20
46.0896402366
 30
0.0
 11
36.4243609199
 21
46.146616645
 31
0.0
  0
LINE
  5
10A
330
1F
100
AcDbEntity
  8
0
  6
Continuous
 62
     7
370
    15
100
AcDbLine
 10
36.5293607203
 20
46.9439246878
 30
0.0
 11
36.5293607203
 21
47.1072531477
 31
0.0
  0
LWPOLYLINE
  5
10B
330
1F
100
AcDbEntity
  8
0
  6
Continuous
 62
     7
370
    15
100
AcDbPolyline
 90
       13
 70
   128
 43
0.0
 10
34.9885551331
 20
36.9570153908
 10
34.9806567844
 20
37.0084654631
 10
34.9514788148
 20
37.058444779
 10
34.9064943211
 20
37.0985435692
 10
34.8446391757
 20
37.1292516944
 10
34.7683155307
 20
37.1469911161
 10
34.6869851102
 20
37.1485111519
 10
34.6074591823
 20
37.1331271696
 10
34.5484151643
 20
37.1074924791
 10
34.5128626217
 20
37.0824978345
 10
34.4725761004
 20
37.035106862
 10
34.4523729272
 20
36.9803415746
 10
34.4534352216
 20
36.9569772579
  0
LINE
  5
10C
330
1F
100
AcDbEntity
  8
0
  6
Continuous
 62
     7
370
    15
100
AcDbLine
 10
34.4502679915
 20
36.9551685854
 30
0.0
 11
34.4502679915
 21
36.9068254639
 31
0.0
  0
LINE
  5
10D
330
1F
100
AcDbEntity
  8
0
  6
Continuous
 62
     7
370
    15
100
AcDbLine
 10
34.9902680333
 20
36.9068248772
 30
0.0
 11
34.9902680333
 21
36.9551685854
 31
0.0
  0
LINE
  5
10E
330
1F
100
AcDbEntity
  8
0
  6
Continuous
 62
     7
370
    15
100
AcDbLine
 10
34.7942456045
 20
37.0302997708
 30
0.0
 11
34.7942456045
 21
36.9647499147
 31
0.0
  0
LINE
  5
10F
330
1F
100
AcDbEntity
  8
0
  6
Continuous
 62
     7
370
    15
100
AcDbLine
 10
34.6462902737
 20
36.9647499147
 30
0.0
 11
34.6462902737
 21
37.0302997708
 31
0.0
  0
LWPOLYLINE
  5
110
330
1F
100
AcDbEntity
  8
0
  6
Continuous
 62
     7
370
    15
100
AcDbPolyline
 90
       13
 70
   128
 43
0.0
 10
29.8643341419
 20
39.4385849635
 10
29.8564356465
 20
39.4900353291
 10
29.8272578236
 20
39.5400143517
 10
29.7822733299
 20
39.5801134352
 10
29.7204179644
 20
39.6108215604
 10
29.6440943928
 20
39.6285603955
 10
29.5627639723
 20
39.6300807246
 10
29.4832378244
 20
39.6146967423
 10
29.4241940264
 20
39.5890620518
 10
29.3886418505
 20
39.5640677005
 10
29.3483550359
 20
39.516676728
 10
29.3281519359
 20
39.4619111473
 10
29.3292140837
 20
39.4385471239
  0
LINE
  5
111
330
1F
100
AcDbEntity
  8
0
  6
Continuous
 62
     7
370
    15
100
AcDbLine
 10
29.3260467069
 20
39.4367381581
 30
0.0
 11
29.3260467069
 21
39.3883947433
 31
0.0
  0
LINE
  5
112
330
1F
100
AcDbEntity
  8
0
  6
Continuous
 62
     7
370
    15
100
AcDbLine
 10
29.8660468955
 20
39.3883947433
 30
0.0
 11
29.8660468955
 21
39.4367381581
 31
0.0
  0
LINE
  5
113
330
1F
100
AcDbEntity
  8
0
  6
Continuous
 62
     7
370
    15
100
AcDbLine
 10
29.6700244666
 20
39.5118690502
 30
0.0
 11
29.6700244666
 21
39.4463194874
 31
0.0
  0
LINE
  5
114
330
1F
100
AcDbEntity
  8
0
  6
Continuous
 62
     7
370
    15
100
AcDbLine
 10
29.5220691358
 20
39.4463194874
 30
0.0
 11
29.5220691358
 21
39.5118693435
 31
0.0
  0
LWPOLYLINE
  5
115
330
1F
100
AcDbEntity
  8
0
  6
Continuous
 62
     7
370
    15
100
AcDbPolyline
 90
       13
 70
   128
 43
0.0
 10
36.8189137487
 20
40.899489527
 10
36.8110155466
 20
40.9509401859
 10
36.7818377237
 20
41.0009189152
 10
36.73685323
 20
41.0410179987
 10
36.6749981579
 20
41.0717261239
 10
36.5986742929
 20
41.0894651057
 10
36.5173441658
 20
41.0909852881
 10
36.4378180178
 20
41.0756014525
 10
36.3787742199
 20
41.0499666153
 10
36.3432214572
 20
41.024972264
 10
36.302934936
 20
40.9775815848
 10
36.282731836
 20
40.9228157108
 10
36.2837939838
 20
40.8994516874
  0
LINE
  5
116
330
1F
100
AcDbEntity
  8
0
  6
Continuous
 62
     7
370
    15
100
AcDbLine
 10
36.2806269003
 20
40.8976427216
 30
0.0
 11
36.2806269003
 21
40.8492996001
 31
0.0
  0
LINE
  5
117
330
1F
100
AcDbEntity
  8
0
  6
Continuous
 62
     7
370
    15
100
AcDbLine
 10
36.8206267956
 20
40.8492993068
 30
0.0
 11
36.8206267956
 21
40.8976427216
 31
0.0
  0
LINE
  5
118
330
1F
100
AcDbEntity
  8
0
  6
Continuous
 62
     7
370
    15
100
AcDbLine
 10
36.62460466
 20
40.972773907
 30
0.0
 11
36.62460466
 21
40.907224051
 31
0.0
  0
LINE
  5
119
330
1F
100
AcDbEntity
  8
0
  6
Continuous
 62
     7
370
    15
100
AcDbLine
 10
36.4766490359
 20
40.907224051
 30
0.0
 11
36.4766490359
 21
40.972773907
 31
0.0
  0
LINE
  5
11A
330
1F
100
AcDbEntity
  8
0
  6
Continuous
 62
     7
370
    15
100
AcDbLine
 10
30.6242282435
 20
38.2927601735
 30
0.0
 11
30.6242282435
 21
38.180063982
 31
0.0
  0
LINE
  5
11B
330
1F
100
AcDbEntity
  8
0
  6
Continuous
 62
     7
370
    15
100
AcDbLine
 10
33.1842282302
 20
38.180063982
 30
0.0
 11
33.1842282302
 21
38.2927607601
 31
0.0
  0
LINE
  5
11C
330
1F
100
AcDbEntity
  8
0
  6
Continuous
 62
     7
370
    15
100
AcDbLine
 10
36.0685421637
 20
40.6789277016
 30
0.0
 11
36.0543925138
 21
40.6871028071
 31
0.0
  0
LINE
  5
11D
330
1F
100
AcDbEntity
  8
0
  6
Continuous
 62
     7
370
    15
100
AcDbLine
 10
33.1084322125
 20
40.6871028071
 30
0.0
 11
33.0942826359
 21
40.6789277016
 31
0.0
  0
LINE
  5
11E
330
1F
100
AcDbEntity
  8
0
  6
Continuous
 62
     7
370
    15
100
AcDbLine
 10
32.479412399
 20
39.8215515527
 30
0.0
 11
32.479412399
 21
39.7415208773
 31
0.0
  0
LINE
  5
11F
330
1F
100
AcDbEntity
  8
0
  6
Continuous
 62
     7
370
    15
100
AcDbLine
 10
36.6834123273
 20
39.7415205839
 30
0.0
 11
36.6834123273
 21
39.8215515527
 31
0.0
  0
LINE
  5
120
330
1F
100
AcDbEntity
  8
0
  6
Continuous
 62
     7
370
    15
100
AcDbLine
 10
33.1842282302
 20
38.1555644784
 30
0.0
 11
33.1842282302
 21
38.180063982
 31
0.0
  0
LINE
  5
121
330
1F
100
AcDbEntity
  8
0
  6
Continuous
 62
     7
370
    15
100
AcDbLine
 10
30.6242282435
 20
38.180063982
 30
0.0
 11
30.6242282435
 21
38.1555644784
 31
0.0
  0
LINE
  5
122
330
1F
100
AcDbEntity
  8
0
  6
Continuous
 62
     7
370
    15
100
AcDbLine
 10
41.9135095888
 20
38.8442688691
 30
0.0
 11
41.9135095888
 21
38.9585989083
 31
0.0
  0
LINE
  5
123
330
1F
100
AcDbEntity
  8
0
  6
Continuous
 62
     7
370
    15
100
AcDbLine
 10
25.4135101182
 20
38.9585989083
 30
0.0
 11
25.4135101182
 21
38.8442688691
 31
0.0
  0
LWPOLYLINE
  5
124
330
1F
100
AcDbEntity
  8
0
  6
Continuous
 62
     7
370
    15
100
AcDbPolyline
 90
       17
 70
   128
 43
0.0
 10
33.8215267314
 20
48.9944467867
 10
33.8000572436
 20
48.9720838983
 10
33.7835260112
 20
48.9438426779
 10
33.7744499244
 20
48.9140198224
 10
33.774210668
 20
48.8871584261
 10
33.7828446516
 20
48.8673463349
 10
33.7990375829
 20
48.8575995675
 10
33.8203240236
 20
48.8594035467
 10
33.8434634113
 20
48.8724819556
 10
33.86493289
 20
48.8948442573
 10
33.8814641223
 20
48.923086651
 10
33.8905402275
 20
48.9529077465
 10
33.8907794747
 20
48.9797709029
 10
33.8821453811
 20
48.9995824073
 10
33.8659525599
 20
49.0093285881
 10
33.8446661191
 20
49.0075257822
 10
33.8215267314
 20
48.9944467867
  0
LWPOLYLINE
  5
125
330
1F
100
AcDbEntity
  8
0
  6
Continuous
 62
     7
370
    15
100
AcDbPolyline
 90
       17
 70
   128
 43
0.0
 10
33.7923514385
 20
49.0465539181
 10
33.757026804
 20
49.0097609564
 10
33.7298274641
 20
48.9632927999
 10
33.7148942657
 20
48.9142251534
 10
33.714500594
 20
48.8700291306
 10
33.7287064853
 20
48.8374313739
 10
33.7553491217
 20
48.8213950258
 10
33.790372488
 20
48.8243623515
 10
33.8284445515
 20
48.8458804496
 10
33.8637693051
 20
48.8826745845
 10
33.8909686359
 20
48.9291421544
 10
33.9059018434
 20
48.9782092142
 10
33.9062955105
 20
49.0224064103
 10
33.8920896146
 20
49.0550041671
 10
33.8654469874
 20
49.0710405152
 10
33.830423612
 20
49.0680731895
 10
33.7923514385
 20
49.0465539181
  0
LWPOLYLINE
  5
126
330
1F
100
AcDbEntity
  8
0
  6
Continuous
 62
     7
370
    15
100
AcDbPolyline
 90
        7
 70
   128
 43
0.0
 10
33.712832555
 20
49.0352671684
 10
33.685633215
 20
48.9887990119
 10
33.670700019
 20
48.9397319521
 10
33.6703063438
 20
48.8955353426
 10
33.6845122386
 20
48.8629381725
 10
33.7111548727
 20
48.8469018244
 10
33.7229502885
 20
48.8457402379
  0
LWPOLYLINE
  5
127
330
1F
100
AcDbEntity
  8
0
  6
Continuous
 62
     7
370
    15
100
AcDbPolyline
 90
        6
 70
   128
 43
0.0
 10
33.853651457
 20
49.0722015151
 10
33.8478953701
 20
49.0805103791
 10
33.8212527246
 20
49.0965467272
 10
33.7862293675
 20
49.0935794015
 10
33.748157194
 20
49.0720607167
 10
33.712832555
 20
49.0352671684
  0
LWPOLYLINE
  5
128
330
1F
100
AcDbEntity
  8
0
  6
Continuous
 62
     7
370
    15
100
AcDbPolyline
 90
        7
 70
   128
 43
0.0
 10
33.6686384113
 20
49.0607733805
 10
33.6414390714
 20
49.0143058106
 10
33.6265058754
 20
48.9652381641
 10
33.6261121991
 20
48.9210421413
 10
33.6403180927
 20
48.8884443845
 10
33.6669607305
 20
48.8724080365
 10
33.6787561437
 20
48.8712464499
  0
LWPOLYLINE
  5
129
330
1F
100
AcDbEntity
  8
0
  6
Continuous
 62
     7
370
    15
100
AcDbPolyline
 90
        6
 70
   128
 43
0.0
 10
33.8094573133
 20
49.0977077271
 10
33.8037012265
 20
49.1060171778
 10
33.7770585901
 20
49.1220535259
 10
33.7420352147
 20
49.1190862002
 10
33.7039630504
 20
49.0975669287
 10
33.6686384113
 20
49.0607733805
  0
ARC
  5
12A
330
1F
100
AcDbEntity
  8
0
  6
Continuous
 62
     7
370
    15
100
AcDbCircle
 10
33.3682979383
 20
49.1461610663
 30
0.0
 40
0.2568335545690209
100
AcDbArc
 50
151.2898073
 51
206.4560113051
  0
LWPOLYLINE
  5
12B
330
1F
100
AcDbEntity
  8
0
  6
Continuous
 62
     7
370
    15
100
AcDbPolyline
 90
       35
 70
   128
 43
0.0
 10
31.7200644777
 20
47.5746562282
 10
31.837190098
 20
47.5185231433
 10
31.9344498011
 20
47.4509246709
 10
32.0085317453
 20
47.3741628643
 10
32.0569131464
 20
47.2908515867
 10
32.0779466634
 20
47.2038279254
 10
32.0709155446
 20
47.116055686
 10
32.0360594406
 20
47.0305233141
 10
31.974565311
 20
46.9501438693
 10
31.8885275316
 20
46.8776544134
 10
31.7808754419
 20
46.8155236111
 10
31.6552755195
 20
46.7658672514
 10
31.5160046617
 20
46.7303760881
 10
31.3678060137
 20
46.7102592271
 10
31.2157254372
 20
46.7062013007
 10
31.064942699
 20
46.7183404671
 10
30.9205920999
 20
46.7462637179
 10
30.7875892631
 20
46.7890197839
 10
30.6704637894
 20
46.8451528688
 10
30.573203793
 20
46.9127510479
 10
30.4991221421
 20
46.9895131478
 10
30.4507405944
 20
47.0728244254
 10
30.4297070773
 20
47.1598477934
 10
30.4367384894
 20
47.2476203262
 10
30.4715943001
 20
47.3331526981
 10
30.5330882831
 20
47.4135321429
 10
30.6191263558
 20
47.4860215988
 10
30.7267784455
 20
47.548152401
 10
30.8523782213
 20
47.5978087607
 10
30.9916489324
 20
47.6332996308
 10
31.1398480204
 20
47.653416785
 10
31.2919283036
 20
47.6574747115
 10
31.4427110417
 20
47.6453352517
 10
31.5870616408
 20
47.6174122943
 10
31.7200644777
 20
47.5746562282
  0
LWPOLYLINE
  5
12C
330
1F
100
AcDbEntity
  8
0
  6
Continuous
 62
     7
370
    15
100
AcDbPolyline
 90
       32
 70
   128
 43
0.0
 10
30.8631190839
 20
47.5239870002
 10
30.75178101
 20
47.4715912322
 10
30.6609968588
 20
47.4073329078
 10
30.5944834138
 20
47.3338431968
 10
30.5549630704
 20
47.2541299043
 10
30.5440547164
 20
47.171457206
 10
30.5622042134
 20
47.0892095428
 10
30.6086691433
 20
47.0107540491
 10
30.6815469681
 20
46.9393026879
 10
30.7778536422
 20
46.8777808386
 10
30.8936468112
 20
46.8287070321
 10
31.0241859699
 20
46.7940905787
 10
31.1641263533
 20
46.7753482619
 10
31.3077393742
 20
46.7732480195
 10
31.4491450874
 20
46.7878752105
 10
31.5825544795
 20
46.8186314419
 10
31.7025057472
 20
46.8642574481
 10
31.8040879604
 20
46.9228850109
 10
31.8831424338
 20
46.9921143978
 10
31.9364328582
 20
47.0691108683
 10
31.9617771521
 20
47.1507225922
 10
31.9581378074
 20
47.233608248
 10
31.9256639826
 20
47.3143740083
 10
31.8656850488
 20
47.3897140447
 10
31.7806566177
 20
47.4565436993
 10
31.6740594891
 20
47.5121264972
 10
31.5502584126
 20
47.5541876647
 10
31.414321103
 20
47.5810044749
 10
31.2718130559
 20
47.5914795805
 10
31.1285688974
 20
47.5851838399
 10
30.9904524396
 20
47.5623747967
 10
30.8631190839
 20
47.5239870002
  0
LWPOLYLINE
  5
12D
330
1F
100
AcDbEntity
  8
0
  6
Continuous
 62
     7
370
    15
100
AcDbPolyline
 90
       19
 70
   128
 43
0.0
 10
32.0788269466
 20
45.5730548175
 10
32.0709155446
 20
45.5072723508
 10
32.0360594406
 20
45.4217401255
 10
31.974565311
 20
45.3413605341
 10
31.8885275316
 20
45.2688712248
 10
31.7808754419
 20
45.2067404226
 10
31.6552755195
 20
45.1570840629
 10
31.5160046617
 20
45.1215928995
 10
31.3678060137
 20
45.1014760386
 10
31.2157254372
 20
45.0974179655
 10
31.064942699
 20
45.1095572786
 10
30.9205920999
 20
45.1374805293
 10
30.7875892631
 20
45.1802364487
 10
30.6704637894
 20
45.2363695336
 10
30.573203793
 20
45.3039680061
 10
30.4991221421
 20
45.3807299593
 10
30.4507405944
 20
45.4640412369
 10
30.4297070773
 20
45.5510647516
 10
30.4288267942
 20
45.5730546709
  0
ARC
  5
12E
330
1F
100
AcDbEntity
  8
0
  6
Continuous
 62
     7
370
    15
100
AcDbCircle
 10
31.5736947299
 20
45.5227402533
 30
0.0
 40
0.1072259960384994
100
AcDbArc
 50
97.1611724221
 51
172.6380091637
  0
LINE
  5
12F
330
1F
100
AcDbEntity
  8
0
  6
Continuous
 62
     7
370
    15
100
AcDbLine
 10
31.4673526637
 20
45.5364799467
 30
0.0
 11
31.4673526637
 21
45.4867254682
 31
0.0
  0
LWPOLYLINE
  5
130
330
1F
100
AcDbEntity
  8
0
  6
Continuous
 62
     7
370
    15
100
AcDbPolyline
 90
        3
 70
   128
 43
0.0
 10
31.4722364606
 20
45.4660360272
 10
31.4686029826
 20
45.4743538377
 10
31.4673526637
 20
45.4867254682
  0
LWPOLYLINE
  5
131
330
1F
100
AcDbEntity
  8
0
  6
Continuous
 62
     7
370
    15
100
AcDbPolyline
 90
        4
 70
   128
 43
0.0
 10
32.019778602
 20
45.8942996532
 10
32.0305725573
 20
45.908280785
 10
32.0394902277
 20
45.9129498644
 10
32.0406293745
 20
45.9120169285
  0
ARC
  5
132
330
1F
100
AcDbEntity
  8
0
  6
Continuous
 62
     7
370
    15
100
AcDbCircle
 10
31.4885380112
 20
46.2841399049
 30
0.0
 40
0.6589324602456251
100
AcDbArc
 50
276.2547160106
 51
323.7276636095
  0
LWPOLYLINE
  5
133
330
1F
100
AcDbEntity
  8
0
  6
Continuous
 62
     7
370
    15
100
AcDbPolyline
 90
        3
 70
   128
 43
0.0
 10
31.4722364606
 20
45.8806555574
 10
31.4686029826
 20
45.888973368
 10
31.4673526637
 20
45.9013449984
  0
LWPOLYLINE
  5
134
330
1F
100
AcDbEntity
  8
0
  6
Continuous
 62
     7
370
    15
100
AcDbPolyline
 90
        4
 70
   128
 43
0.0
 10
32.019778602
 20
46.3089193301
 10
32.0305725573
 20
46.3229014886
 10
32.0394902277
 20
46.3275704213
 10
32.0406293745
 20
46.3266364588
  0
ARC
  5
135
330
1F
100
AcDbEntity
  8
0
  6
Continuous
 62
     7
370
    15
100
AcDbCircle
 10
31.4885384875
 20
46.6987583944
 30
0.0
 40
0.6589313738003231
100
AcDbArc
 50
276.2546847077
 51
323.7277223521
  0
ARC
  5
136
330
1F
100
AcDbEntity
  8
0
  6
Continuous
 62
     7
370
    15
100
AcDbCircle
 10
31.5736945947
 20
45.9373598975
 30
0.0
 40
0.1072258661216182
100
AcDbArc
 50
97.1611083197
 51
172.6379825672
  0
LINE
  5
137
330
1F
100
AcDbEntity
  8
0
  6
Continuous
 62
     7
370
    15
100
AcDbLine
 10
31.4673526637
 20
45.9510996237
 30
0.0
 11
31.4673526637
 21
45.9013449984
 31
0.0
  0
LINE
  5
138
330
1F
100
AcDbEntity
  8
0
  6
Continuous
 62
     7
370
    15
100
AcDbLine
 10
30.9155192519
 20
44.8443616355
 30
0.0
 11
29.9912451025
 21
45.3778020865
 31
0.0
  0
LINE
  5
139
330
1F
100
AcDbEntity
  8
0
  6
Continuous
 62
     7
370
    15
100
AcDbLine
 10
29.9912451025
 20
45.3778020865
 30
0.0
 11
30.3295527943
 21
46.1064949752
 31
0.0
  0
LINE
  5
13A
330
1F
100
AcDbEntity
  8
0
  6
Continuous
 62
     7
370
    15
100
AcDbLine
 10
30.3295527943
 20
46.1064949752
 30
0.0
 11
30.4288270875
 21
46.1218475712
 31
0.0
  0
LINE
  5
13B
330
1F
100
AcDbEntity
  8
0
  6
Continuous
 62
     7
370
    15
100
AcDbLine
 10
32.0788269466
 20
46.0208558312
 30
0.0
 11
32.5164088582
 21
45.768307402
 31
0.0
  0
LINE
  5
13C
330
1F
100
AcDbEntity
  8
0
  6
Continuous
 62
     7
370
    15
100
AcDbLine
 10
32.5164088582
 20
45.768307402
 30
0.0
 11
32.1781009464
 21
45.0396143666
 31
0.0
  0
LINE
  5
13D
330
1F
100
AcDbEntity
  8
0
  6
Continuous
 62
     7
370
    15
100
AcDbLine
 10
32.1781009464
 20
45.0396143666
 30
0.0
 11
30.9155192519
 21
44.8443616355
 31
0.0
  0
LINE
  5
13E
330
1F
100
AcDbEntity
  8
0
  6
Continuous
 62
     7
370
    15
100
AcDbLine
 10
32.1781009464
 20
44.7619558674
 30
0.0
 11
32.1781009464
 21
45.0396143666
 31
0.0
  0
LINE
  5
13F
330
1F
100
AcDbEntity
  8
0
  6
Continuous
 62
     7
370
    15
100
AcDbLine
 10
32.1781009464
 20
44.7619558674
 30
0.0
 11
30.9155192519
 21
44.5667031363
 31
0.0
  0
LINE
  5
140
330
1F
100
AcDbEntity
  8
0
  6
Continuous
 62
     7
370
    15
100
AcDbLine
 10
30.9155192519
 20
44.5667031363
 30
0.0
 11
30.9155192519
 21
44.8443616355
 31
0.0
  0
ARC
  5
141
330
1F
100
AcDbEntity
  8
0
  6
Continuous
 62
     7
370
    15
100
AcDbCircle
 10
31.502393943
 20
46.6956131299
 30
0.0
 40
0.6796084141641191
100
AcDbArc
 50
275.674412364
 51
324.3079384691
  0
ARC
  5
142
330
1F
100
AcDbEntity
  8
0
  6
Continuous
 62
     7
370
    15
100
AcDbCircle
 10
32.0343208506
 20
46.2327955301
 30
0.0
 40
0.0692726063193854
100
AcDbArc
 50
8.1021590865
 51
73.1958128866
  0
ARC
  5
143
330
1F
100
AcDbEntity
  8
0
  6
Continuous
 62
     7
370
    15
100
AcDbCircle
 10
31.5085250914
 20
46.6730948361
 30
0.0
 40
0.733924565230565
100
AcDbArc
 50
275.8999846164
 51
324.0823567023
  0
ARC
  5
144
330
1F
100
AcDbEntity
  8
0
  6
Continuous
 62
     7
370
    15
100
AcDbCircle
 10
31.4290776705
 20
45.9533583122
 30
0.0
 40
0.1552313074397019
100
AcDbArc
 50
356.1953595287
 51
25.1520080262
  0
ARC
  5
145
330
1F
100
AcDbEntity
  8
0
  6
Continuous
 62
     7
370
    15
100
AcDbCircle
 10
31.5759469669
 20
45.9152683297
 30
0.0
 40
0.1042605357530462
100
AcDbArc
 50
93.495344489
 51
169.1984153119
  0
ARC
  5
146
330
1F
100
AcDbEntity
  8
0
  6
Continuous
 62
     7
370
    15
100
AcDbCircle
 10
31.5873373109
 20
45.9066821308
 30
0.0
 40
0.0365316651201009
100
AcDbArc
 50
95.2936936771
 51
173.1542004667
  0
ARC
  5
147
330
1F
100
AcDbEntity
  8
0
  6
Continuous
 62
     7
370
    15
100
AcDbCircle
 10
31.5300542357
 20
45.9808302754
 30
0.0
 40
0.0728879459547428
100
AcDbArc
 50
219.1546917772
 51
286.7547834813
  0
LINE
  5
148
330
1F
100
AcDbEntity
  8
0
  6
Continuous
 62
     7
370
    15
100
AcDbLine
 10
32.1149713557
 20
46.1867374349
 30
0.0
 11
32.1149713557
 21
46.2364917668
 31
0.0
  0
ARC
  5
149
330
1F
100
AcDbEntity
  8
0
  6
Continuous
 62
     7
370
    15
100
AcDbCircle
 10
32.0275523088
 20
46.1870793058
 30
0.0
 40
0.0874197153943911
100
AcDbArc
 50
332.2509510847
 51
359.7759337525
  0
ARC
  5
14A
330
1F
100
AcDbEntity
  8
0
  6
Continuous
 62
     7
370
    15
100
AcDbCircle
 10
31.5079114871
 20
46.5730967406
 30
0.0
 40
0.7338304903533523
100
AcDbArc
 50
275.538243359
 51
324.444115488
  0
ARC
  5
14B
330
1F
100
AcDbEntity
  8
0
  6
Continuous
 62
     7
370
    15
100
AcDbCircle
 10
31.5727363937
 20
45.8636498668
 30
0.0
 40
0.0217992637006877
100
AcDbArc
 50
186.2354786797
 51
285.968500053
  0
LINE
  5
14C
330
1F
100
AcDbEntity
  8
0
  6
Continuous
 62
     7
370
    15
100
AcDbLine
 10
31.5510660966
 20
45.9110366198
 30
0.0
 11
31.5510660966
 21
45.8612821412
 31
0.0
  0
LWPOLYLINE
  5
14D
330
1F
100
AcDbEntity
  8
0
  6
Continuous
 62
     7
370
    15
100
AcDbPolyline
 90
        6
 70
   128
 43
0.0
 10
32.1149713557
 20
46.2364917668
 10
32.1144228287
 20
46.2434853393
 10
32.1128505802
 20
46.2479046483
 10
32.1103387959
 20
46.2494440438
 10
32.1069569949
 20
46.24775945
 10
32.1029020018
 20
46.24255871
  0
LINE
  5
14E
330
1F
100
AcDbEntity
  8
0
  6
Continuous
 62
     7
370
    15
100
AcDbLine
 10
31.560327843
 20
46.0437493534
 30
0.0
 11
31.5695904693
 21
46.0193349154
 31
0.0
  0
LINE
  5
14F
330
1F
100
AcDbEntity
  8
0
  6
Continuous
 62
     7
370
    15
100
AcDbLine
 10
31.4735337123
 20
45.9348076385
 30
0.0
 11
31.4673526637
 21
45.9510996237
 31
0.0
  0
LINE
  5
150
330
1F
100
AcDbEntity
  8
0
  6
Continuous
 62
     7
370
    15
100
AcDbLine
 10
32.0543476827
 20
46.2991100834
 30
0.0
 11
32.019778602
 21
46.3089193301
 31
0.0
  0
LINE
  5
151
330
1F
100
AcDbEntity
  8
0
  6
Continuous
 62
     7
370
    15
100
AcDbLine
 10
31.4735337123
 20
45.88505316
 30
0.0
 11
31.4735337123
 21
45.9348076385
 31
0.0
  0
ARC
  5
152
330
1F
100
AcDbEntity
  8
0
  6
Continuous
 62
     7
370
    15
100
AcDbCircle
 10
31.5300542357
 20
45.9310757969
 30
0.0
 40
0.0728879459547309
100
AcDbArc
 50
219.1546917771
 51
286.7547834813
  0
ARC
  5
153
330
1F
100
AcDbEntity
  8
0
  6
Continuous
 62
     7
370
    15
100
AcDbCircle
 10
32.0722255016
 20
46.144673784
 30
0.0
 40
0.0327371712834173
100
AcDbArc
 50
329.2102525159
 51
2.9817487969
  0
LINE
  5
154
330
1F
100
AcDbEntity
  8
0
  6
Continuous
 62
     7
370
    15
100
AcDbLine
 10
31.4673526637
 20
45.9013449984
 30
0.0
 11
31.4735337123
 21
45.88505316
 31
0.0
  0
ARC
  5
155
330
1F
100
AcDbEntity
  8
0
  6
Continuous
 62
     7
370
    15
100
AcDbCircle
 10
31.5085286905
 20
46.2584685015
 30
0.0
 40
0.733917572866978
100
AcDbArc
 50
275.8997585566
 51
324.0826313507
  0
ARC
  5
156
330
1F
100
AcDbEntity
  8
0
  6
Continuous
 62
     7
370
    15
100
AcDbCircle
 10
31.4290786217
 20
45.5387388145
 30
0.0
 40
0.1552303701611528
100
AcDbArc
 50
356.1952701993
 51
25.1520973556
  0
ARC
  5
157
330
1F
100
AcDbEntity
  8
0
  6
Continuous
 62
     7
370
    15
100
AcDbCircle
 10
31.5023939145
 20
46.2809932946
 30
0.0
 40
0.6796082593127011
100
AcDbArc
 50
275.6744160772
 51
324.3079607632
  0
ARC
  5
158
330
1F
100
AcDbEntity
  8
0
  6
Continuous
 62
     7
370
    15
100
AcDbCircle
 10
32.0343208054
 20
45.8181759358
 30
0.0
 40
0.0692726806888703
100
AcDbArc
 50
8.1023263793
 51
73.195792479
  0
ARC
  5
159
330
1F
100
AcDbEntity
  8
0
  6
Continuous
 62
     7
370
    15
100
AcDbCircle
 10
31.5759497975
 20
45.5006454023
 30
0.0
 40
0.1042639528207196
100
AcDbArc
 50
93.4967881386
 51
169.1968730544
  0
ARC
  5
15A
330
1F
100
AcDbEntity
  8
0
  6
Continuous
 62
     7
370
    15
100
AcDbCircle
 10
31.5873375714
 20
45.4920621662
 30
0.0
 40
0.0365319755911743
100
AcDbArc
 50
95.2940589596
 51
173.1535728525
  0
ARC
  5
15B
330
1F
100
AcDbEntity
  8
0
  6
Continuous
 62
     7
370
    15
100
AcDbCircle
 10
31.5300542357
 20
45.5662107451
 30
0.0
 40
0.0728879459547264
100
AcDbArc
 50
219.1546917771
 51
286.7547834813
  0
LINE
  5
15C
330
1F
100
AcDbEntity
  8
0
  6
Continuous
 62
     7
370
    15
100
AcDbLine
 10
32.1149713557
 20
45.7721177579
 30
0.0
 11
32.1149713557
 21
45.8218723832
 31
0.0
  0
ARC
  5
15D
330
1F
100
AcDbEntity
  8
0
  6
Continuous
 62
     7
370
    15
100
AcDbCircle
 10
32.027553361
 20
45.7724595146
 30
0.0
 40
0.0874186627750846
100
AcDbArc
 50
332.2507812934
 51
359.7760058837
  0
ARC
  5
15E
330
1F
100
AcDbEntity
  8
0
  6
Continuous
 62
     7
370
    15
100
AcDbCircle
 10
31.5079155264
 20
46.1584702116
 30
0.0
 40
0.733823134491249
100
AcDbArc
 50
275.537982189
 51
324.444376658
  0
ARC
  5
15F
330
1F
100
AcDbEntity
  8
0
  6
Continuous
 62
     7
370
    15
100
AcDbCircle
 10
31.572735836
 20
45.4490295252
 30
0.0
 40
0.021798637144003
100
AcDbArc
 50
186.233901297
 51
285.9704959402
  0
LINE
  5
160
330
1F
100
AcDbEntity
  8
0
  6
Continuous
 62
     7
370
    15
100
AcDbLine
 10
31.5510660966
 20
45.4964170895
 30
0.0
 11
31.5510660966
 21
45.4466624643
 31
0.0
  0
LWPOLYLINE
  5
161
330
1F
100
AcDbEntity
  8
0
  6
Continuous
 62
     7
370
    15
100
AcDbPolyline
 90
        6
 70
   128
 43
0.0
 10
32.1149713557
 20
45.8218723832
 10
32.1144228287
 20
45.8288656624
 10
32.1128505802
 20
45.833285118
 10
32.1103387959
 20
45.8348243669
 10
32.1069569949
 20
45.8331399197
 10
32.1029020018
 20
45.8279393264
  0
LINE
  5
162
330
1F
100
AcDbEntity
  8
0
  6
Continuous
 62
     7
370
    15
100
AcDbLine
 10
31.560327843
 20
45.6291298231
 30
0.0
 11
31.5695904693
 21
45.6047152385
 31
0.0
  0
LINE
  5
163
330
1F
100
AcDbEntity
  8
0
  6
Continuous
 62
     7
370
    15
100
AcDbLine
 10
31.4735337123
 20
45.5201881083
 30
0.0
 11
31.4673526637
 21
45.5364799467
 31
0.0
  0
LINE
  5
164
330
1F
100
AcDbEntity
  8
0
  6
Continuous
 62
     7
370
    15
100
AcDbLine
 10
32.0543476827
 20
45.8844905531
 30
0.0
 11
32.019778602
 21
45.8942996532
 31
0.0
  0
LINE
  5
165
330
1F
100
AcDbEntity
  8
0
  6
Continuous
 62
     7
370
    15
100
AcDbLine
 10
29.9912451025
 20
45.1001435873
 30
0.0
 11
29.9912451025
 21
45.3778020865
 31
0.0
  0
LINE
  5
166
330
1F
100
AcDbEntity
  8
0
  6
Continuous
 62
     7
370
    15
100
AcDbLine
 10
30.9155192519
 20
44.5667031363
 30
0.0
 11
29.9912451025
 21
45.1001435873
 31
0.0
  0
LINE
  5
167
330
1F
100
AcDbEntity
  8
0
  6
Continuous
 62
     7
370
    15
100
AcDbLine
 10
31.4735337123
 20
45.470433483
 30
0.0
 11
31.4735337123
 21
45.5201881083
 31
0.0
  0
ARC
  5
168
330
1F
100
AcDbEntity
  8
0
  6
Continuous
 62
     7
370
    15
100
AcDbCircle
 10
31.5300543676
 20
45.5164565504
 30
0.0
 40
0.0728883201149768
100
AcDbArc
 50
219.1548886724
 51
286.7545865861
  0
ARC
  5
169
330
1F
100
AcDbEntity
  8
0
  6
Continuous
 62
     7
370
    15
100
AcDbCircle
 10
31.2620164352
 20
46.2951253649
 30
0.0
 40
1.666299500429838
100
AcDbArc
 50
272.1630168491
 51
285.4187886612
  0
ARC
  5
16A
330
1F
100
AcDbEntity
  8
0
  6
Continuous
 62
     7
370
    15
100
AcDbCircle
 10
32.0719474232
 20
45.7301220223
 30
0.0
 40
0.0330114501712036
100
AcDbArc
 50
329.3545196143
 51
2.8391804327
  0
LINE
  5
16B
330
1F
100
AcDbEntity
  8
0
  6
Continuous
 62
     7
370
    15
100
AcDbLine
 10
31.4673526637
 20
45.4867254682
 30
0.0
 11
31.4735337123
 21
45.470433483
 31
0.0
  0
ARC
  5
16C
330
1F
100
AcDbEntity
  8
0
  6
Continuous
 62
     7
370
    15
100
AcDbCircle
 10
31.2608937592
 20
46.091593944
 30
0.0
 40
1.485030906928566
100
AcDbArc
 50
267.0942587585
 51
290.4875381198
  0
LWPOLYLINE
  5
16D
330
1F
100
AcDbEntity
  8
0
  6
Continuous
 62
     7
370
    15
100
AcDbPolyline
 90
       16
 70
   128
 43
0.0
 10
30.2481777877
 20
44.951856207
 10
30.2961513135
 20
44.8592321437
 10
30.3707193054
 20
44.771199134
 10
30.4693764324
 20
44.6914505686
 10
30.5894313922
 20
44.622161489
 10
30.7276088626
 20
44.5652219668
 10
30.8801407272
 20
44.5221854039
 10
31.0428655141
 20
44.4942254136
 10
31.2113447011
 20
44.4821048003
 10
31.3809829815
 20
44.4861542935
 10
31.5471524885
 20
44.5062631612
 10
31.7053209813
 20
44.5418832431
 10
31.8511738698
 20
44.5920425169
 10
31.9807327198
 20
44.655373112
 10
32.0904633455
 20
44.7301473149
 10
32.1167732815
 20
44.7524720703
  0
ARC
  5
16E
330
1F
100
AcDbEntity
  8
0
  6
Continuous
 62
     7
370
    15
100
AcDbCircle
 10
31.2538268704
 20
45.343962438
 30
0.0
 40
1.215258081546204
100
AcDbArc
 50
242.0914070644
 51
297.9085929356
  0
LWPOLYLINE
  5
16F
330
1F
100
AcDbEntity
  8
0
  6
Continuous
 62
     7
370
    15
100
AcDbPolyline
 90
        3
 70
   128
 43
0.0
 10
32.1149713557
 20
46.1867374349
 10
32.11777031
 20
46.1936433018
 10
32.1182465312
 20
46.1974507245
  0
ARC
  5
170
330
1F
100
AcDbEntity
  8
0
  6
Continuous
 62
     7
370
    15
100
AcDbCircle
 10
31.2538268009
 20
45.8760688482
 30
0.0
 40
1.421651950112934
100
AcDbArc
 50
242.1735814796
 51
297.8264248518
  0
LWPOLYLINE
  5
171
330
1F
100
AcDbEntity
  8
0
  6
Continuous
 62
     7
370
    15
100
AcDbPolyline
 90
       22
 70
   128
 43
0.0
 10
30.2276969043
 20
44.9636766705
 10
30.2267048624
 20
44.9033893002
 10
30.2477058198
 20
44.8061523302
 10
30.2961513135
 20
44.7122364418
 10
30.3707193054
 20
44.6242035054
 10
30.4693764324
 20
44.54445494
 10
30.5894313922
 20
44.4751658604
 10
30.7276088626
 20
44.4182264116
 10
30.8801407272
 20
44.3751897754
 10
31.0428655141
 20
44.347229785
 10
31.2113447011
 20
44.3351091717
 10
31.3809829815
 20
44.3391586649
 10
31.5471524885
 20
44.3592675326
 10
31.7053209813
 20
44.3948876145
 10
31.8511738698
 20
44.4450468884
 10
31.9807327198
 20
44.5083774835
 10
32.0904633455
 20
44.5831517597
 10
32.1773727548
 20
44.6673299739
 10
32.2390904019
 20
44.758616306
 10
32.273932426
 20
44.8545200914
 10
32.2809488783
 20
44.9524260004
 10
32.2782154832
 20
44.9775960563
  0
LINE
  5
172
330
1F
100
AcDbEntity
  8
0
  6
Continuous
 62
     7
370
    15
100
AcDbLine
 10
32.5164088582
 20
45.4906489028
 30
0.0
 11
32.5164088582
 21
45.768307402
 31
0.0
  0
LINE
  5
173
330
1F
100
AcDbEntity
  8
0
  6
Continuous
 62
     7
370
    15
100
AcDbLine
 10
32.5164088582
 20
45.4906489028
 30
0.0
 11
32.1781009464
 21
44.7619558674
 31
0.0
  0
ARC
  5
174
330
1F
100
AcDbEntity
  8
0
  6
Continuous
 62
     7
370
    15
100
AcDbCircle
 10
31.2538268704
 20
45.7290728573
 30
0.0
 40
1.421651597243458
100
AcDbArc
 50
242.1735708074
 51
297.8264291926
  0
LWPOLYLINE
  5
175
330
1F
100
AcDbEntity
  8
0
  6
Continuous
 62
     7
370
    15
100
AcDbPolyline
 90
       23
 70
   128
 43
0.0
 10
30.2337453678
 20
44.8544097994
 10
30.2337213147
 20
44.8542995073
 10
30.2267048624
 20
44.756393745
 10
30.2477058198
 20
44.6591567016
 10
30.2961513135
 20
44.5652408866
 10
30.3707193054
 20
44.4772078769
 10
30.4693764324
 20
44.3974593115
 10
30.5894313922
 20
44.3281702319
 10
30.7276088626
 20
44.271230783
 10
30.8801407272
 20
44.2281942202
 10
31.0428655141
 20
44.2002342298
 10
31.2113447011
 20
44.1881135432
 10
31.3809829815
 20
44.1921630364
 10
31.5471524885
 20
44.2122719774
 10
31.7053209813
 20
44.2478919859
 10
31.8511738698
 20
44.2980513332
 10
31.9807327198
 20
44.3613818549
 10
32.0904633455
 20
44.4361561311
 10
32.1773727548
 20
44.5203344187
 10
32.2390904019
 20
44.6116206041
 10
32.273932426
 20
44.7075245362
 10
32.2809488783
 20
44.8054304452
 10
32.2739086663
 20
44.8544097994
  0
LWPOLYLINE
  5
176
330
1F
100
AcDbEntity
  8
0
  6
Continuous
 62
     7
370
    15
100
AcDbPolyline
 90
        3
 70
   128
 43
0.0
 10
32.1149713557
 20
45.7721177579
 10
32.11777031
 20
45.7790237715
 10
32.1182465312
 20
45.7828311942
  0
LWPOLYLINE
  5
177
330
1F
100
AcDbEntity
  8
0
  6
Continuous
 62
     7
370
    15
100
AcDbPolyline
 90
        3
 70
   128
 43
0.0
 10
30.4055622096
 20
46.4451238633
 10
30.4072523767
 20
46.448384519
 10
30.4073028295
 20
46.4484684114
  0
LWPOLYLINE
  5
178
330
1F
100
AcDbEntity
  8
0
  6
Continuous
 62
     7
370
    15
100
AcDbPolyline
 90
       49
 70
   128
 43
0.0
 10
36.0991870764
 20
49.7779240292
 10
35.9567941613
 20
49.8716341467
 10
35.794425917
 20
49.9538158106
 10
35.6148607647
 20
50.0230622107
 10
35.4211713355
 20
50.0781894672
 10
35.2166710846
 20
50.118254231
 10
35.0048594381
 20
50.1425701101
 10
34.7893608542
 20
50.1507223359
 10
34.573861977
 20
50.1425701101
 10
34.3620505506
 20
50.118254231
 10
34.1575504463
 20
50.0781894672
 10
33.9638607972
 20
50.0230622107
 10
33.7842957273
 20
49.9538158106
 10
33.6219274876
 20
49.8716341467
 10
33.4795343938
 20
49.7779240292
 10
33.3595528215
 20
49.6742887997
 10
33.2640356816
 20
49.5625019311
 10
33.1946172435
 20
49.4444759346
 10
33.1524853469
 20
49.3222295068
 10
33.1383608134
 20
49.1978558502
 10
33.1524853469
 20
49.073481607
 10
33.1946172802
 20
48.9512357658
 10
33.2640357183
 20
48.8332091826
 10
33.3595528765
 20
48.721422314
 10
33.4795344305
 20
48.6177870845
 10
33.6219275105
 20
48.5240769671
 10
33.7842956815
 20
48.4418953031
 10
33.9638607972
 20
48.3726489031
 10
34.1575504463
 20
48.3175216466
 10
34.3620505506
 20
48.2774568827
 10
34.5738620504
 20
48.2531407103
 10
34.7893607809
 20
48.2449887778
 10
35.0048595848
 20
48.2531407103
 10
35.2166710846
 20
48.2774568827
 10
35.4211711889
 20
48.3175216466
 10
35.6148607647
 20
48.3726489031
 10
35.794425917
 20
48.4418953031
 10
35.9567941613
 20
48.5240769671
 10
36.099187223
 20
48.6177870845
 10
36.2191687037
 20
48.721422314
 10
36.3146860269
 20
48.8332091826
 10
36.3841043183
 20
48.9512357658
 10
36.4262361783
 20
49.073481607
 10
36.4403608951
 20
49.1978558502
 10
36.4262361783
 20
49.3222295068
 10
36.3841043183
 20
49.4444753479
 10
36.3146860269
 20
49.5625019311
 10
36.2191687037
 20
49.6742887997
 10
36.0991870764
 20
49.7779240292
  0
LWPOLYLINE
  5
179
330
1F
100
AcDbEntity
  8
0
  6
Continuous
 62
     7
370
    15
100
AcDbPolyline
 90
       48
 70
   128
 43
0.0
 10
36.0137311169
 20
49.7369587424
 10
35.878305228
 20
49.8263346166
 10
35.7234469636
 20
49.904494727
 10
35.5519200784
 20
49.9700457565
 10
35.3667851771
 20
50.0218161451
 10
35.1713461815
 20
50.0588830769
 10
34.969090638
 20
50.0805853862
 10
34.7636276782
 20
50.0865352908
 10
34.5586239997
 20
50.0766260186
 10
34.3577379404
 20
50.0510359142
 10
34.1645540654
 20
50.0102202257
 10
33.9825200283
 20
49.9549081713
 10
33.8148839357
 20
49.886086513
 10
33.6646374684
 20
49.8049831299
 10
33.5344616818
 20
49.713045312
 10
33.4266795644
 20
49.6119145336
 10
33.3432146369
 20
49.5033947739
 10
33.2855561263
 20
49.3894220105
 10
33.2547331624
 20
49.2720313666
 10
33.2512955921
 20
49.1533166314
 10
33.2753048314
 20
49.0353974069
 10
33.3263323986
 20
48.920376869
 10
33.4034677975
 20
48.8103077405
 10
33.5053344858
 20
48.7071541588
 10
33.630114638
 20
48.6127576493
 10
33.775581573
 20
48.5288025125
 10
33.9391394261
 20
48.4567859044
 10
34.1178695047
 20
48.3979943703
 10
34.3085823682
 20
48.3534756845
 10
34.5078746927
 20
48.3240253581
 10
34.7121901457
 20
48.3101687448
 10
34.9178827096
 20
48.3121525353
 10
35.1212819465
 20
48.3299418231
 10
35.3187578253
 20
48.3632192253
 10
35.5067867198
 20
48.4113907488
 10
35.6820132289
 20
48.4735966436
 10
35.841310162
 20
48.5487266557
 10
35.9818350054
 20
48.6354408539
 10
36.1010802278
 20
48.7321910429
 10
36.196917574
 20
48.8372512693
 10
36.2676373704
 20
48.9487465679
 10
36.3119771249
 20
49.0646869886
 10
36.3291457265
 20
49.1830039684
 10
36.3188369389
 20
49.3015855319
 10
36.28123468
 20
49.4183167701
 10
36.2170095019
 20
49.5311132804
 10
36.1273083248
 20
49.6379628194
 10
36.0137311169
 20
49.7369587424
  0
LWPOLYLINE
  5
17A
330
1F
100
AcDbEntity
  8
0
  6
Continuous
 62
     7
370
    15
100
AcDbPolyline
 90
       25
 70
   128
 43
0.0
 10
33.1383608134
 20
47.4339097741
 10
33.1524853469
 20
47.3095355309
 10
33.1946172802
 20
47.1872896898
 10
33.2640357183
 20
47.0692633999
 10
33.3595528765
 20
46.9574762379
 10
33.4795344305
 20
46.8538413018
 10
33.6219275105
 20
46.7601311843
 10
33.7842956815
 20
46.6779498137
 10
33.9638607972
 20
46.608702827
 10
34.1575504463
 20
46.5535755705
 10
34.3620505506
 20
46.5135111
 10
34.5738620504
 20
46.4891949275
 10
34.7893607809
 20
46.4810429951
 10
35.0048595848
 20
46.4891949275
 10
35.2166710846
 20
46.5135111
 10
35.4211711889
 20
46.5535755705
 10
35.6148607647
 20
46.608702827
 10
35.794425917
 20
46.6779495204
 10
35.9567941613
 20
46.7601311843
 10
36.099187223
 20
46.8538413018
 10
36.2191687037
 20
46.9574762379
 10
36.3146860269
 20
47.0692633999
 10
36.3841043183
 20
47.1872896898
 10
36.4262361783
 20
47.3095355309
 10
36.4403608951
 20
47.4339097741
  0
LWPOLYLINE
  5
17B
330
1F
100
AcDbEntity
  8
0
  6
Continuous
 62
     7
370
    15
100
AcDbPolyline
 90
       11
 70
   128
 43
0.0
 10
33.6318093885
 20
48.9077783479
 10
33.6230961691
 20
48.9172933846
 10
33.6155433401
 20
48.945420793
 10
33.6171835816
 20
48.9809207563
 10
33.6278208895
 20
49.0197728941
 10
33.646580074
 20
49.0575919239
 10
33.6718022252
 20
49.0899051506
 10
33.7009066784
 20
49.1127567266
 10
33.7306677031
 20
49.1235119624
 10
33.7576845139
 20
49.1211289499
 10
33.7643221306
 20
49.1163476718
  0
LINE
  5
17C
330
1F
100
AcDbEntity
  8
0
  6
Continuous
 62
     7
370
    15
100
AcDbLine
 10
36.5816071834
 20
47.7708232687
 30
0.0
 11
36.4403608951
 21
47.852342887
 31
0.0
  0
LINE
  5
17D
330
1F
100
AcDbEntity
  8
0
  6
Continuous
 62
     7
370
    15
100
AcDbLine
 10
36.6348838213
 20
47.7790620269
 30
0.0
 11
36.5816071834
 21
47.7708232687
 31
0.0
  0
ARC
  5
17E
330
1F
100
AcDbEntity
  8
0
  6
Continuous
 62
     7
370
    15
100
AcDbCircle
 10
35.9544255787
 20
47.3953831577
 30
0.0
 40
0.7811740487771954
100
AcDbArc
 50
20.3912003448
 51
29.4166366034
  0
LINE
  5
17F
330
1F
100
AcDbEntity
  8
0
  6
Continuous
 62
     7
370
    15
100
AcDbLine
 10
36.6333711187
 20
47.6593273834
 30
0.0
 11
36.6866477566
 21
47.6675661416
 31
0.0
  0
LINE
  5
180
330
1F
100
AcDbEntity
  8
0
  6
Continuous
 62
     7
370
    15
100
AcDbLine
 10
36.191033962
 20
46.7065615098
 30
0.0
 11
36.6333711187
 21
47.6593273834
 31
0.0
  0
LINE
  5
181
330
1F
100
AcDbEntity
  8
0
  6
Continuous
 62
     7
370
    15
100
AcDbLine
 10
36.2300348181
 20
46.6840522499
 30
0.0
 11
36.191033962
 21
46.7065615098
 31
0.0
  0
ARC
  5
182
330
1F
100
AcDbEntity
  8
0
  6
Continuous
 62
     7
370
    15
100
AcDbCircle
 10
35.2462037624
 20
48.2253705849
 30
0.0
 40
1.828547444334135
100
AcDbArc
 50
297.4322154392
 51
302.5502898502
  0
LINE
  5
183
330
1F
100
AcDbEntity
  8
0
  6
Continuous
 62
     7
370
    15
100
AcDbLine
 10
36.0496125557
 20
46.6249406927
 30
0.0
 11
36.0886135585
 21
46.6024314328
 31
0.0
  0
LINE
  5
184
330
1F
100
AcDbEntity
  8
0
  6
Continuous
 62
     7
370
    15
100
AcDbLine
 10
34.3987873395
 20
46.3696480152
 30
0.0
 11
36.0496125557
 21
46.6249406927
 31
0.0
  0
LINE
  5
185
330
1F
100
AcDbEntity
  8
0
  6
Continuous
 62
     7
370
    15
100
AcDbLine
 10
34.3845119244
 20
46.3388997038
 30
0.0
 11
34.3987873395
 21
46.3696480152
 31
0.0
  0
ARC
  5
186
330
1F
100
AcDbEntity
  8
0
  6
Continuous
 62
     7
370
    15
100
AcDbCircle
 10
34.7671683854
 20
49.452868842
 30
0.0
 40
3.137392191115191
100
AcDbArc
 50
259.4238910624
 51
262.994396719
  0
LINE
  5
187
330
1F
100
AcDbEntity
  8
0
  6
Continuous
 62
     7
370
    15
100
AcDbLine
 10
34.2056022179
 20
46.3995233768
 30
0.0
 11
34.1913268028
 21
46.368774772
 31
0.0
  0
LINE
  5
188
330
1F
100
AcDbEntity
  8
0
  6
Continuous
 62
     7
370
    15
100
AcDbLine
 10
32.9971143784
 20
47.0969962795
 30
0.0
 11
34.2056022179
 21
46.3995233768
 31
0.0
  0
LINE
  5
189
330
1F
100
AcDbEntity
  8
0
  6
Continuous
 62
     7
370
    15
100
AcDbLine
 10
32.9438377406
 20
47.088757228
 30
0.0
 11
32.9971143784
 21
47.0969962795
 31
0.0
  0
ARC
  5
18A
330
1F
100
AcDbEntity
  8
0
  6
Continuous
 62
     7
370
    15
100
AcDbCircle
 10
33.6243197071
 20
47.4724461483
 30
0.0
 40
0.7811996507744408
100
AcDbArc
 50
200.3912888131
 51
209.4164241272
  0
LINE
  5
18B
330
1F
100
AcDbEntity
  8
0
  6
Continuous
 62
     7
370
    15
100
AcDbLine
 10
32.9453505164
 20
47.2084921648
 30
0.0
 11
32.8920739519
 21
47.2002531133
 31
0.0
  0
LINE
  5
18C
330
1F
100
AcDbEntity
  8
0
  6
Continuous
 62
     7
370
    15
100
AcDbLine
 10
33.1383608501
 20
47.6242237089
 30
0.0
 11
32.9453505164
 21
47.2084921648
 31
0.0
  0
LINE
  5
18D
330
1F
100
AcDbEntity
  8
0
  6
Continuous
 62
     7
370
    15
100
AcDbLine
 10
36.0496125557
 20
46.6249406927
 30
0.0
 11
36.0496125557
 21
46.3799485896
 31
0.0
  0
LINE
  5
18E
330
1F
100
AcDbEntity
  8
0
  6
Continuous
 62
     7
370
    15
100
AcDbLine
 10
36.0496125557
 20
46.3799485896
 30
0.0
 11
34.3987873395
 21
46.1246559121
 31
0.0
  0
LINE
  5
18F
330
1F
100
AcDbEntity
  8
0
  6
Continuous
 62
     7
370
    15
100
AcDbLine
 10
34.3987873395
 20
46.3696480152
 30
0.0
 11
34.3987873395
 21
46.1246559121
 31
0.0
  0
LINE
  5
190
330
1F
100
AcDbEntity
  8
0
  6
Continuous
 62
     7
370
    15
100
AcDbLine
 10
36.7129532927
 20
47.2525652824
 30
0.0
 11
36.6375493105
 21
47.4149808995
 31
0.0
  0
LINE
  5
191
330
1F
100
AcDbEntity
  8
0
  6
Continuous
 62
     7
370
    15
100
AcDbLine
 10
36.5285860359
 20
47.1372147482
 30
0.0
 11
36.7129532927
 21
47.2525652824
 31
0.0
  0
ARC
  5
192
330
1F
100
AcDbEntity
  8
0
  6
Continuous
 62
     7
370
    15
100
AcDbCircle
 10
35.8080498322
 20
47.1327191381
 30
0.0
 40
0.7205502282079552
100
AcDbArc
 50
309.8348182047
 51
0.3574784227
  0
LINE
  5
193
330
1F
100
AcDbEntity
  8
0
  6
Continuous
 62
     7
370
    15
100
AcDbLine
 10
36.3293519375
 20
46.4263129073
 30
0.0
 11
36.2696173475
 21
46.5794126587
 31
0.0
  0
LINE
  5
194
330
1F
100
AcDbEntity
  8
0
  6
Continuous
 62
     7
370
    15
100
AcDbLine
 10
35.9692026046
 20
46.2184546152
 30
0.0
 11
36.3293519375
 21
46.4263129073
 31
0.0
  0
LINE
  5
195
330
1F
100
AcDbEntity
  8
0
  6
Continuous
 62
     7
370
    15
100
AcDbLine
 10
35.7039320157
 20
46.2529299769
 30
0.0
 11
35.9692026046
 21
46.2184546152
 31
0.0
  0
ARC
  5
196
330
1F
100
AcDbEntity
  8
0
  6
Continuous
 62
     7
370
    15
100
AcDbCircle
 10
34.8040582917
 20
48.8723056406
 30
0.0
 40
2.769639252084755
100
AcDbArc
 50
268.6218783791
 51
288.9599088514
  0
LINE
  5
197
330
1F
100
AcDbEntity
  8
0
  6
Continuous
 62
     7
370
    15
100
AcDbLine
 10
34.5375832961
 20
45.9970609061
 30
0.0
 11
34.7374472473
 21
46.1034675168
 31
0.0
  0
LINE
  5
198
330
1F
100
AcDbEntity
  8
0
  6
Continuous
 62
     7
370
    15
100
AcDbLine
 10
34.0456102028
 20
46.0731424805
 30
0.0
 11
34.5375832961
 21
45.9970609061
 31
0.0
  0
LINE
  5
199
330
1F
100
AcDbEntity
  8
0
  6
Continuous
 62
     7
370
    15
100
AcDbLine
 10
33.9647065591
 20
46.2229683764
 30
0.0
 11
34.0456102028
 21
46.0731424805
 31
0.0
  0
ARC
  5
19A
330
1F
100
AcDbEntity
  8
0
  6
Continuous
 62
     7
370
    15
100
AcDbCircle
 10
34.3964177113
 20
47.7880932779
 30
0.0
 40
1.623573366514601
100
AcDbArc
 50
225.4381472196
 51
254.5794525988
  0
LINE
  5
19B
330
1F
100
AcDbEntity
  8
0
  6
Continuous
 62
     7
370
    15
100
AcDbLine
 10
32.9975921396
 20
46.6780008531
 30
0.0
 11
33.257190644
 21
46.6313080058
 31
0.0
  0
LINE
  5
19C
330
1F
100
AcDbEntity
  8
0
  6
Continuous
 62
     7
370
    15
100
AcDbLine
 10
32.8657682691
 20
46.961941013
 30
0.0
 11
32.9975921396
 21
46.6780008531
 31
0.0
  0
LINE
  5
19D
330
1F
100
AcDbEntity
  8
0
  6
Continuous
 62
     7
370
    15
100
AcDbLine
 10
32.8920739519
 20
46.9783991696
 30
0.0
 11
32.8657682691
 21
46.961941013
 31
0.0
  0
ARC
  5
19E
330
1F
100
AcDbEntity
  8
0
  6
Continuous
 62
     7
370
    15
100
AcDbCircle
 10
34.4168082052
 20
47.7527544741
 30
0.0
 40
1.54023873711938
100
AcDbArc
 50
225.3054184113
 51
254.7122093397
  0
ARC
  5
19F
330
1F
100
AcDbEntity
  8
0
  6
Continuous
 62
     7
370
    15
100
AcDbCircle
 10
34.8019683732
 20
48.7484026304
 30
0.0
 40
2.595349252425796
100
AcDbArc
 50
266.0362442464
 51
291.545576124
  0
LWPOLYLINE
  5
1A0
330
1F
100
AcDbEntity
  8
0
  6
Continuous
 62
     7
370
    15
100
AcDbPolyline
 90
        3
 70
   128
 43
0.0
 10
36.3360559934
 20
46.7739370515
 10
36.3841043183
 20
46.8606330633
 10
36.4176005447
 20
46.9495792091
  0
LWPOLYLINE
  5
1A1
330
1F
100
AcDbEntity
  8
0
  6
Continuous
 62
     7
370
    15
100
AcDbPolyline
 90
       17
 70
   128
 43
0.0
 10
33.1674588139
 20
46.1459196931
 10
33.1577490061
 20
46.0163247635
 10
33.2156813769
 20
45.8257064989
 10
33.345314256
 20
45.6440457974
 10
33.5400511022
 20
45.4827106612
 10
33.7878600712
 20
45.3502287783
 10
34.0843849749
 20
45.2495883009
 10
34.4119972336
 20
45.187684976
 10
34.7526154121
 20
45.1671210803
 10
35.0998539007
 20
45.1889416015
 10
35.4318315324
 20
45.2525101605
 10
35.7317831073
 20
45.3538140036
 10
35.9935868296
 20
45.4915302127
 10
36.1998599667
 20
45.6574088831
 10
36.3415309968
 20
45.842779915
 10
36.4151820393
 20
46.0443653463
 10
36.4151406798
 20
46.1466151784
  0
LWPOLYLINE
  5
1A2
330
1F
100
AcDbEntity
  8
0
  6
Continuous
 62
     7
370
    15
100
AcDbPolyline
 90
       18
 70
   128
 43
0.0
 10
33.1627914212
 20
46.2928389825
 10
33.1576395207
 20
46.2759704574
 10
33.1723212711
 20
46.0815188104
 10
33.2589853833
 20
45.8936029945
 10
33.415951755
 20
45.7186507489
 10
33.632803832
 20
45.568397618
 10
33.9011837595
 20
45.4478821302
 10
34.2126986026
 20
45.3620573083
 10
34.5464577736
 20
45.3166257798
 10
34.8915907399
 20
45.3127610111
 10
35.2355148936
 20
45.3516329488
 10
35.5553034927
 20
45.4304976377
 10
35.8419232216
 20
45.5468657334
 10
36.0834179519
 20
45.6971039045
 10
36.2640288254
 20
45.8710500284
 10
36.379599357
 20
46.0640671453
 10
36.4240086307
 20
46.268676515
 10
36.4166516223
 20
46.3198828301
  0
LWPOLYLINE
  5
1A3
330
1F
100
AcDbEntity
  8
0
  6
Continuous
 62
     7
370
    15
100
AcDbPolyline
 90
       18
 70
   128
 43
0.0
 10
33.1624696382
 20
46.3907918243
 10
33.1547459675
 20
46.3397908401
 10
33.1982170253
 20
46.147856844
 10
33.3136080389
 20
45.9635775862
 10
33.4962207244
 20
45.7972361878
 10
33.7336772088
 20
45.6587794672
 10
34.0214590651
 20
45.5511156443
 10
34.3445777658
 20
45.481029734
 10
34.6829064307
 20
45.4521148813
 10
35.0303820766
 20
45.4652793826
 10
35.3672691715
 20
45.5207540884
 10
35.6738703897
 20
45.6145184719
 10
35.9448082598
 20
45.7453722269
 10
36.1634316142
 20
45.9064722592
 10
36.3181546535
 20
46.087991429
 10
36.4062172895
 20
46.2872255274
 10
36.4210128519
 20
46.4926318745
 10
36.418407202
 20
46.5016453171
  0
LWPOLYLINE
  5
1A4
330
1F
100
AcDbEntity
  8
0
  6
Continuous
 62
     7
370
    15
100
AcDbPolyline
 90
       19
 70
   128
 43
0.0
 10
33.1596332477
 20
46.4855268366
 10
33.1572280888
 20
46.4473537576
 10
33.2036087597
 20
46.2774984131
 10
33.3068747967
 20
46.1137015053
 10
33.4637186298
 20
45.9636743851
 10
33.665129711
 20
45.8350324845
 10
33.9072812458
 20
45.7299091922
 10
34.1833037521
 20
45.6523895677
 10
34.4785372249
 20
45.6066277497
 10
34.7827392241
 20
45.5935946603
 10
35.0914721442
 20
45.6141861291
 10
35.3885590589
 20
45.6679043752
 10
35.6606953285
 20
45.7515598754
 10
35.9054809274
 20
45.8647733543
 10
36.1109702869
 20
46.0031348892
 10
36.2670906034
 20
46.1590482614
 10
36.3719716051
 20
46.3301479115
 10
36.4210418916
 20
46.5113768313
 10
36.4163782388
 20
46.6017382941
  0
LWPOLYLINE
  5
1A5
330
1F
100
AcDbEntity
  8
0
  6
Continuous
 62
     7
370
    15
100
AcDbPolyline
 90
       15
 70
   128
 43
0.0
 10
33.1817679986
 20
46.4815457626
 10
33.1837072029
 20
46.4702147201
 10
33.2699002272
 20
46.3040204267
 10
33.4113509848
 20
46.1489527247
 10
33.6005042176
 20
46.0132538923
 10
33.8302952068
 20
45.9009943225
 10
34.0975296763
 20
45.814591054
 10
34.3886700231
 20
45.7590368557
 10
34.6900750479
 20
45.7361436269
 10
34.9990762916
 20
45.7465115204
 10
35.3013705461
 20
45.7905296386
 10
35.5814311242
 20
45.8653573742
 10
35.8353906171
 20
45.9698780201
 10
36.0539935851
 20
46.1013848742
 10
36.0612998474
 20
46.1082798879
  0
LWPOLYLINE
  5
1A6
330
1F
100
AcDbEntity
  8
0
  6
Continuous
 62
     7
370
    15
100
AcDbPolyline
 90
        3
 70
   128
 43
0.0
 10
36.3293519375
 20
46.4136035075
 10
36.3966711598
 20
46.5378674586
 10
36.4010347361
 20
46.5823286517
  0
LWPOLYLINE
  5
1A7
330
1F
100
AcDbEntity
  8
0
  6
Continuous
 62
     7
370
    15
100
AcDbPolyline
 90
        5
 70
   128
 43
0.0
 10
33.2649469477
 20
46.4729538352
 10
33.3155182769
 20
46.3876229809
 10
33.5392464707
 20
46.1937222075
 10
33.8384582125
 20
46.0398398519
 10
34.0013326343
 20
45.99181206
  0
LWPOLYLINE
  5
1A8
330
1F
100
AcDbEntity
  8
0
  6
Continuous
 62
     7
370
    15
100
AcDbPolyline
 90
        5
 70
   128
 43
0.0
 10
34.6287811893
 20
45.8822857386
 10
35.0091026024
 20
45.8895160284
 10
35.4071016181
 20
45.9566608661
 10
35.7620779307
 20
46.0774459241
 10
35.768627255
 20
46.0811938008
  0
LINE
  5
1A9
330
1F
100
AcDbEntity
  8
0
  6
Continuous
 62
     7
370
    15
100
AcDbLine
 10
34.1913268028
 20
46.368774772
 30
0.0
 11
34.1913268028
 21
46.1237826688
 31
0.0
  0
LINE
  5
1AA
330
1F
100
AcDbEntity
  8
0
  6
Continuous
 62
     7
370
    15
100
AcDbLine
 10
34.3845119244
 20
46.3388997038
 30
0.0
 11
34.3845119244
 21
46.0939076006
 31
0.0
  0
ARC
  5
1AB
330
1F
100
AcDbEntity
  8
0
  6
Continuous
 62
     7
370
    15
100
AcDbCircle
 10
34.7670971294
 20
49.207415967
 30
0.0
 40
3.136926168558311
100
AcDbArc
 50
259.4236257589
 51
262.9946620225
  0
ARC
  5
1AC
330
1F
100
AcDbEntity
  8
0
  6
Continuous
 62
     7
370
    15
100
AcDbCircle
 10
33.7991666846
 20
46.0460208114
 30
0.0
 40
0.6450229807088326
100
AcDbArc
 50
181.4866664027
 51
223.9873091706
  0
LWPOLYLINE
  5
1AD
330
1F
100
AcDbEntity
  8
0
  6
Continuous
 62
     7
370
    15
100
AcDbPolyline
 90
       14
 70
   128
 43
0.0
 10
33.3350767476
 20
45.5980529821
 10
33.4899218121
 20
45.4606378762
 10
33.6825789044
 20
45.3426764122
 10
33.9610723477
 20
45.228456665
 10
34.2788818313
 20
45.1504781259
 10
34.6149553757
 20
45.1133811277
 10
34.9617328963
 20
45.1180717669
 10
35.3025633724
 20
45.1653987935
 10
35.6156927951
 20
45.2517803556
 10
35.8948148639
 20
45.375589792
 10
36.1250602441
 20
45.5315304439
 10
36.2925959354
 20
45.7092911771
 10
36.3944873184
 20
45.9056969882
 10
36.4209210397
 20
46.089808608
  0
LWPOLYLINE
  5
1AE
330
1F
100
AcDbEntity
  8
0
  6
Continuous
 62
     7
370
    15
100
AcDbPolyline
 90
       17
 70
   128
 43
0.0
 10
33.1621741083
 20
46.1604885115
 10
33.1577490061
 20
46.1014271137
 10
33.2156813769
 20
45.9108088491
 10
33.345314256
 20
45.7291481477
 10
33.5400511022
 20
45.5678130114
 10
33.7878600712
 20
45.4353311285
 10
34.0843849749
 20
45.3346906511
 10
34.4119972336
 20
45.2727873263
 10
34.7526154121
 20
45.2522234305
 10
35.0998539007
 20
45.2740439517
 10
35.4318315324
 20
45.3376120707
 10
35.7317831073
 20
45.4389163538
 10
35.9935868296
 20
45.5766325629
 10
36.1998599667
 20
45.7425112333
 10
36.3415309968
 20
45.9278821185
 10
36.4151820393
 20
46.1294676965
 10
36.4151406798
 20
46.2317175286
  0
LWPOLYLINE
  5
1AF
330
1F
100
AcDbEntity
  8
0
  6
Continuous
 62
     7
370
    15
100
AcDbPolyline
 90
       17
 70
   128
 43
0.0
 10
33.1620277
 20
46.302953879
 10
33.1723212711
 20
46.1666211606
 10
33.2589853833
 20
45.9787051981
 10
33.415951755
 20
45.8037530992
 10
33.632803832
 20
45.6534999682
 10
33.9011837595
 20
45.5329844804
 10
34.2126986026
 20
45.4471596586
 10
34.5464577736
 20
45.4017281301
 10
34.8915907399
 20
45.3978633614
 10
35.2355148936
 20
45.436735299
 10
35.5553034927
 20
45.5155999879
 10
35.8419232216
 20
45.6319680836
 10
36.0834179519
 20
45.7822062547
 10
36.2640288254
 20
45.9561525253
 10
36.379599357
 20
46.1491694955
 10
36.4240086307
 20
46.3537788652
 10
36.4211513037
 20
46.3736675155
  0
LWPOLYLINE
  5
1B0
330
1F
100
AcDbEntity
  8
0
  6
Continuous
 62
     7
370
    15
100
AcDbPolyline
 90
       17
 70
   128
 43
0.0
 10
33.1577474661
 20
46.4447126147
 10
33.1547459675
 20
46.4248931904
 10
33.1982170253
 20
46.2329591943
 10
33.3136080389
 20
46.0486799364
 10
33.4962207244
 20
45.882338098
 10
33.7336772088
 20
45.7438818175
 10
34.0214590651
 20
45.6362179945
 10
34.3445777658
 20
45.5661320842
 10
34.6829064307
 20
45.5372172315
 10
35.0303820766
 20
45.5503817328
 10
35.3672691715
 20
45.6058564386
 10
35.6738703897
 20
45.6996208221
 10
35.9448082598
 20
45.8304745771
 10
36.1634316142
 20
45.9915741694
 10
36.3181546535
 20
46.1730937792
 10
36.4062172895
 20
46.3723278776
 10
36.4165738899
 20
46.5161094166
  0
LWPOLYLINE
  5
1B1
330
1F
100
AcDbEntity
  8
0
  6
Continuous
 62
     7
370
    15
100
AcDbPolyline
 90
       15
 70
   128
 43
0.0
 10
33.1705802112
 20
46.483558006
 10
33.2036087597
 20
46.36260047
 10
33.3068747967
 20
46.1988038555
 10
33.4637186298
 20
46.0487767353
 10
33.665129711
 20
45.9201348347
 10
33.9072812458
 20
45.8150115424
 10
34.1833037521
 20
45.737491918
 10
34.4785372249
 20
45.6917300999
 10
34.7827392241
 20
45.6786970105
 10
35.0914721442
 20
45.6992884793
 10
35.3885590589
 20
45.7530067254
 10
35.6606953285
 20
45.8366622257
 10
35.9054809274
 20
45.9498758511
 10
36.1109702869
 20
46.0882372394
 10
36.2265242453
 20
46.2036382263
  0
ARC
  5
1B2
330
1F
100
AcDbEntity
  8
0
  6
Continuous
 62
     7
370
    15
100
AcDbCircle
 10
36.0116947529
 20
46.6030773879
 30
0.0
 40
0.4088252049134211
100
AcDbArc
 50
320.9867130774
 51
0.5433042895
  0
LWPOLYLINE
  5
1B3
330
1F
100
AcDbEntity
  8
0
  6
Continuous
 62
     7
370
    15
100
AcDbPolyline
 90
        6
 70
   128
 43
0.0
 10
33.2233912611
 20
46.478799901
 10
33.2699002272
 20
46.3891227769
 10
33.4113509848
 20
46.2340550749
 10
33.6005042176
 20
46.0983562425
 10
33.8302952068
 20
45.986096526
 10
34.0412493032
 20
45.917889834
  0
ARC
  5
1B4
330
1F
100
AcDbEntity
  8
0
  6
Continuous
 62
     7
370
    15
100
AcDbCircle
 10
34.7489987955
 20
48.3769848788
 30
0.0
 40
2.560829570976515
100
AcDbArc
 50
254.9750219541
 51
295.6959468836
  0
LINE
  5
1B5
330
1F
100
AcDbEntity
  8
0
  6
Continuous
 62
     7
370
    15
100
AcDbLine
 10
36.3129325005
 20
46.4683966611
 30
0.0
 11
36.3172048511
 21
46.4762828367
 31
0.0
  0
LINE
  5
1B6
330
1F
100
AcDbEntity
  8
0
  6
Continuous
 62
     7
370
    15
100
AcDbLine
 10
34.3987873395
 20
46.1246559121
 30
0.0
 11
34.3845119244
 21
46.0939076006
 31
0.0
  0
LINE
  5
1B7
330
1F
100
AcDbEntity
  8
0
  6
Continuous
 62
     7
370
    15
100
AcDbLine
 10
34.5375832961
 20
45.9970609061
 30
0.0
 11
34.5375832961
 21
45.8337325928
 31
0.0
  0
LINE
  5
1B8
330
1F
100
AcDbEntity
  8
0
  6
Continuous
 62
     7
370
    15
100
AcDbLine
 10
34.0456102028
 20
46.0731424805
 30
0.0
 11
34.0456102028
 21
45.9098141673
 31
0.0
  0
LINE
  5
1B9
330
1F
100
AcDbEntity
  8
0
  6
Continuous
 62
     7
370
    15
100
AcDbLine
 10
34.5375832961
 20
45.8337325928
 30
0.0
 11
34.0456102028
 21
45.9098141673
 31
0.0
  0
LINE
  5
1BA
330
1F
100
AcDbEntity
  8
0
  6
Continuous
 62
     7
370
    15
100
AcDbLine
 10
34.7374472473
 20
46.1034675168
 30
0.0
 11
34.7374472473
 21
45.940139057
 31
0.0
  0
LINE
  5
1BB
330
1F
100
AcDbEntity
  8
0
  6
Continuous
 62
     7
370
    15
100
AcDbLine
 10
35.7039320157
 20
46.2529299769
 30
0.0
 11
35.7039320157
 21
46.0896018103
 31
0.0
  0
ARC
  5
1BC
330
1F
100
AcDbEntity
  8
0
  6
Continuous
 62
     7
370
    15
100
AcDbCircle
 10
34.804057987
 20
48.7089740101
 30
0.0
 40
2.769636075105574
100
AcDbArc
 50
268.6218831025
 51
288.9599380944
  0
LINE
  5
1BD
330
1F
100
AcDbEntity
  8
0
  6
Continuous
 62
     7
370
    15
100
AcDbLine
 10
32.9971143784
 20
47.0969962795
 30
0.0
 11
32.9971143784
 21
46.852003883
 31
0.0
  0
LINE
  5
1BE
330
1F
100
AcDbEntity
  8
0
  6
Continuous
 62
     7
370
    15
100
AcDbLine
 10
34.1913268028
 20
46.1627700318
 30
0.0
 11
32.9971143784
 21
46.852003883
 31
0.0
  0
LINE
  5
1BF
330
1F
100
AcDbEntity
  8
0
  6
Continuous
 62
     7
370
    15
100
AcDbLine
 10
34.7374472473
 20
45.940139057
 30
0.0
 11
34.5375832961
 21
45.8337325928
 31
0.0
  0
LINE
  5
1C0
330
1F
100
AcDbEntity
  8
0
  6
Continuous
 62
     7
370
    15
100
AcDbLine
 10
33.9647065591
 20
46.2229683764
 30
0.0
 11
33.9647065591
 21
46.0596402098
 31
0.0
  0
LINE
  5
1C1
330
1F
100
AcDbEntity
  8
0
  6
Continuous
 62
     7
370
    15
100
AcDbLine
 10
34.0456102028
 20
45.9098141673
 30
0.0
 11
33.9647065591
 21
46.0596402098
 31
0.0
  0
LINE
  5
1C2
330
1F
100
AcDbEntity
  8
0
  6
Continuous
 62
     7
370
    15
100
AcDbLine
 10
36.0886135585
 20
46.6024314328
 30
0.0
 11
36.0886135585
 21
46.3574393296
 31
0.0
  0
LINE
  5
1C3
330
1F
100
AcDbEntity
  8
0
  6
Continuous
 62
     7
370
    15
100
AcDbLine
 10
36.2300348181
 20
46.6840522499
 30
0.0
 11
36.2300348181
 21
46.4390598534
 31
0.0
  0
ARC
  5
1C4
330
1F
100
AcDbEntity
  8
0
  6
Continuous
 62
     7
370
    15
100
AcDbCircle
 10
35.2461724068
 20
47.9804383498
 30
0.0
 40
1.828615026132794
100
AcDbArc
 50
297.4322232321
 51
302.550103765
  0
LINE
  5
1C5
330
1F
100
AcDbEntity
  8
0
  6
Continuous
 62
     7
370
    15
100
AcDbLine
 10
36.0886135585
 20
46.3574393296
 30
0.0
 11
36.0496125557
 21
46.3799485896
 31
0.0
  0
LINE
  5
1C6
330
1F
100
AcDbEntity
  8
0
  6
Continuous
 62
     7
370
    15
100
AcDbLine
 10
35.9692026046
 20
46.2184546152
 30
0.0
 11
35.9692026046
 21
46.0551261553
 31
0.0
  0
LINE
  5
1C7
330
1F
100
AcDbEntity
  8
0
  6
Continuous
 62
     7
370
    15
100
AcDbLine
 10
35.9692026046
 20
46.0551261553
 30
0.0
 11
35.7039320157
 21
46.0896018103
 31
0.0
  0
LINE
  5
1C8
330
1F
100
AcDbEntity
  8
0
  6
Continuous
 62
     7
370
    15
100
AcDbLine
 10
33.257190644
 20
46.6313080058
 30
0.0
 11
33.257190644
 21
46.467979546
 31
0.0
  0
ARC
  5
1C9
330
1F
100
AcDbEntity
  8
0
  6
Continuous
 62
     7
370
    15
100
AcDbCircle
 10
34.3964159265
 20
47.6247628499
 30
0.0
 40
1.623570711898379
100
AcDbArc
 50
225.4381433607
 51
254.5794920954
  0
LINE
  5
1CA
330
1F
100
AcDbEntity
  8
0
  6
Continuous
 62
     7
370
    15
100
AcDbLine
 10
36.6333711187
 20
47.6593273834
 30
0.0
 11
36.6333711187
 21
47.4143349869
 31
0.0
  0
LINE
  5
1CB
330
1F
100
AcDbEntity
  8
0
  6
Continuous
 62
     7
370
    15
100
AcDbLine
 10
36.6333711187
 20
47.4143349869
 30
0.0
 11
36.2300348181
 21
46.5455752896
 31
0.0
  0
LINE
  5
1CC
330
1F
100
AcDbEntity
  8
0
  6
Continuous
 62
     7
370
    15
100
AcDbLine
 10
36.3293519375
 20
46.4263129073
 30
0.0
 11
36.3293519375
 21
46.2629847407
 31
0.0
  0
LINE
  5
1CD
330
1F
100
AcDbEntity
  8
0
  6
Continuous
 62
     7
370
    15
100
AcDbLine
 10
36.3293519375
 20
46.2629847407
 30
0.0
 11
35.9692026046
 21
46.0551261553
 31
0.0
  0
ARC
  5
1CE
330
1F
100
AcDbEntity
  8
0
  6
Continuous
 62
     7
370
    15
100
AcDbCircle
 10
35.8204022095
 20
46.9696714401
 30
0.0
 40
0.7094258701521428
100
AcDbArc
 50
314.2652853169
 51
357.9201431267
  0
LINE
  5
1CF
330
1F
100
AcDbEntity
  8
0
  6
Continuous
 62
     7
370
    15
100
AcDbLine
 10
32.9975921396
 20
46.6780008531
 30
0.0
 11
32.9975921396
 21
46.5146726866
 31
0.0
  0
LINE
  5
1D0
330
1F
100
AcDbEntity
  8
0
  6
Continuous
 62
     7
370
    15
100
AcDbLine
 10
33.257190644
 20
46.467979546
 30
0.0
 11
32.9975921396
 21
46.5146726866
 31
0.0
  0
LINE
  5
1D1
330
1F
100
AcDbEntity
  8
0
  6
Continuous
 62
     7
370
    15
100
AcDbLine
 10
32.9438377406
 20
47.088757228
 30
0.0
 11
32.9438377406
 21
46.8437651249
 31
0.0
  0
LINE
  5
1D2
330
1F
100
AcDbEntity
  8
0
  6
Continuous
 62
     7
370
    15
100
AcDbLine
 10
32.9971143784
 20
46.852003883
 30
0.0
 11
32.9438377406
 21
46.8437651249
 31
0.0
  0
LINE
  5
1D3
330
1F
100
AcDbEntity
  8
0
  6
Continuous
 62
     7
370
    15
100
AcDbLine
 10
32.8920739519
 20
47.2002531133
 30
0.0
 11
32.8920739519
 21
46.9552610102
 31
0.0
  0
ARC
  5
1D4
330
1F
100
AcDbEntity
  8
0
  6
Continuous
 62
     7
370
    15
100
AcDbCircle
 10
33.6242932021
 20
47.2274417397
 30
0.0
 40
0.7811705191247432
100
AcDbArc
 50
200.3911201802
 51
209.4165927601
  0
LINE
  5
1D5
330
1F
100
AcDbEntity
  8
0
  6
Continuous
 62
     7
370
    15
100
AcDbLine
 10
32.8657682691
 20
46.961941013
 30
0.0
 11
32.8657682691
 21
46.7986125531
 31
0.0
  0
LINE
  5
1D6
330
1F
100
AcDbEntity
  8
0
  6
Continuous
 62
     7
370
    15
100
AcDbLine
 10
32.9975921396
 20
46.5146726866
 30
0.0
 11
32.8657682691
 21
46.7986125531
 31
0.0
  0
LINE
  5
1D7
330
1F
100
AcDbEntity
  8
0
  6
Continuous
 62
     7
370
    15
100
AcDbLine
 10
36.7129532927
 20
47.2525652824
 30
0.0
 11
36.7129532927
 21
47.0892368225
 31
0.0
  0
LINE
  5
1D8
330
1F
100
AcDbEntity
  8
0
  6
Continuous
 62
     7
370
    15
100
AcDbLine
 10
36.7129532927
 20
47.0892368225
 30
0.0
 11
36.5293607203
 21
46.9743711627
 31
0.0
  0
LINE
  5
1D9
330
1F
100
AcDbEntity
  8
0
  6
Continuous
 62
     7
370
    15
100
AcDbLine
 10
36.6866477566
 20
47.6675661416
 30
0.0
 11
36.6866477566
 21
47.4225740384
 31
0.0
  0
LINE
  5
1DA
330
1F
100
AcDbEntity
  8
0
  6
Continuous
 62
     7
370
    15
100
AcDbLine
 10
36.6866477566
 20
47.4225740384
 30
0.0
 11
36.6333711187
 21
47.4143349869
 31
0.0
  0
LINE
  5
1DB
330
1F
100
AcDbEntity
  8
0
  6
Continuous
 62
     7
370
    15
100
AcDbLine
 10
34.5732435642
 20
36.9682247013
 30
0.0
 11
34.576170997
 21
36.9699882009
 31
0.0
  0
LINE
  5
1DC
330
1F
100
AcDbEntity
  8
0
  6
Continuous
 62
     7
370
    15
100
AcDbLine
 10
34.5732435642
 20
36.9682247013
 30
0.0
 11
34.6128414934
 21
36.9453707786
 31
0.0
  0
LINE
  5
1DD
330
1F
100
AcDbEntity
  8
0
  6
Continuous
 62
     7
370
    15
100
AcDbLine
 10
34.6128414934
 20
36.9453707786
 30
0.0
 11
34.6157689263
 21
36.9471348649
 31
0.0
  0
ARC
  5
1DE
330
1F
100
AcDbEntity
  8
0
  6
Continuous
 62
     7
370
    15
100
AcDbCircle
 10
34.7202680124
 20
37.2130407608
 30
0.0
 40
0.2857026504958111
100
AcDbArc
 50
248.5455336757
 51
291.4544663243
  0
LINE
  5
1DF
330
1F
100
AcDbEntity
  8
0
  6
Continuous
 62
     7
370
    15
100
AcDbLine
 10
34.8276946047
 20
36.9453707786
 30
0.0
 11
34.8247670986
 21
36.9471348649
 31
0.0
  0
LINE
  5
1E0
330
1F
100
AcDbEntity
  8
0
  6
Continuous
 62
     7
370
    15
100
AcDbLine
 10
34.8276946047
 20
36.9453707786
 30
0.0
 11
34.867292534
 21
36.9682247013
 31
0.0
  0
LINE
  5
1E1
330
1F
100
AcDbEntity
  8
0
  6
Continuous
 62
     7
370
    15
100
AcDbLine
 10
34.867292534
 20
36.9682247013
 30
0.0
 11
34.8643650278
 21
36.9699882009
 31
0.0
  0
ARC
  5
1E2
330
1F
100
AcDbEntity
  8
0
  6
Continuous
 62
     7
370
    15
100
AcDbCircle
 10
34.8257399868
 20
37.0302994775
 30
0.0
 40
0.0716194378368207
100
AcDbArc
 50
302.6366437485
 51
57.3633562515
  0
LINE
  5
1E3
330
1F
100
AcDbEntity
  8
0
  6
Continuous
 62
     7
370
    15
100
AcDbLine
 10
34.8643650278
 20
37.0906107541
 30
0.0
 11
34.867292534
 21
37.0922258288
 31
0.0
  0
LINE
  5
1E4
330
1F
100
AcDbEntity
  8
0
  6
Continuous
 62
     7
370
    15
100
AcDbLine
 10
34.867292534
 20
37.0922258288
 30
0.0
 11
34.8276946047
 21
37.1150797515
 31
0.0
  0
LINE
  5
1E5
330
1F
100
AcDbEntity
  8
0
  6
Continuous
 62
     7
370
    15
100
AcDbLine
 10
34.8247670986
 20
37.1134646768
 30
0.0
 11
34.8276946047
 21
37.1150797515
 31
0.0
  0
ARC
  5
1E6
330
1F
100
AcDbEntity
  8
0
  6
Continuous
 62
     7
370
    15
100
AcDbCircle
 10
34.7202680124
 20
36.8475486787
 30
0.0
 40
0.2857120526451313
100
AcDbArc
 50
68.5462746525
 51
111.4537253475
  0
LINE
  5
1E7
330
1F
100
AcDbEntity
  8
0
  6
Continuous
 62
     7
370
    15
100
AcDbLine
 10
34.6157689263
 20
37.1134646768
 30
0.0
 11
34.6128414934
 21
37.1150797515
 31
0.0
  0
LINE
  5
1E8
330
1F
100
AcDbEntity
  8
0
  6
Continuous
 62
     7
370
    15
100
AcDbLine
 10
34.6128414934
 20
37.1150797515
 30
0.0
 11
34.5732435642
 21
37.0922258288
 31
0.0
  0
LINE
  5
1E9
330
1F
100
AcDbEntity
  8
0
  6
Continuous
 62
     7
370
    15
100
AcDbLine
 10
34.576170997
 20
37.0906107541
 30
0.0
 11
34.5732435642
 21
37.0922258288
 31
0.0
  0
ARC
  5
1EA
330
1F
100
AcDbEntity
  8
0
  6
Continuous
 62
     7
370
    15
100
AcDbCircle
 10
34.6147959123
 20
37.0302994775
 30
0.0
 40
0.0716193700734245
100
AcDbArc
 50
122.6365591004
 51
237.3634408996
  0
LINE
  5
1EB
330
1F
100
AcDbEntity
  8
0
  6
Continuous
 62
     7
370
    15
100
AcDbLine
 10
34.6157689263
 20
36.9471348649
 30
0.0
 11
34.6615781171
 21
36.9735732795
 31
0.0
  0
ARC
  5
1EC
330
1F
100
AcDbEntity
  8
0
  6
Continuous
 62
     7
370
    15
100
AcDbCircle
 10
34.7202680124
 20
36.8602699473
 30
0.0
 40
0.1276015238521875
100
AcDbArc
 50
62.6163340546
 51
117.3836659454
  0
LINE
  5
1ED
330
1F
100
AcDbEntity
  8
0
  6
Continuous
 62
     7
370
    15
100
AcDbLine
 10
34.8247670986
 20
36.9471348649
 30
0.0
 11
34.7789579078
 21
36.9735732795
 31
0.0
  0
LINE
  5
1EE
330
1F
100
AcDbEntity
  8
0
  6
Continuous
 62
     7
370
    15
100
AcDbLine
 10
34.576170997
 20
36.9699882009
 30
0.0
 11
34.6219801878
 21
36.9964272021
 31
0.0
  0
LINE
  5
1EF
330
1F
100
AcDbEntity
  8
0
  6
Continuous
 62
     7
370
    15
100
AcDbLine
 10
34.8643650278
 20
36.9699882009
 30
0.0
 11
34.818555837
 21
36.9964272021
 31
0.0
  0
ARC
  5
1F0
330
1F
100
AcDbEntity
  8
0
  6
Continuous
 62
     7
370
    15
100
AcDbCircle
 10
34.8314035091
 20
37.0302997708
 30
0.0
 40
0.0362272492771791
100
AcDbArc
 50
110.7714508866
 51
249.2285491134
  0
LINE
  5
1F1
330
1F
100
AcDbEntity
  8
0
  6
Continuous
 62
     7
370
    15
100
AcDbLine
 10
34.818555837
 20
37.0641723395
 30
0.0
 11
34.8643650278
 21
37.0906107541
 31
0.0
  0
LINE
  5
1F2
330
1F
100
AcDbEntity
  8
0
  6
Continuous
 62
     7
370
    15
100
AcDbLine
 10
34.6219801878
 20
37.0641723395
 30
0.0
 11
34.576170997
 21
37.0906107541
 31
0.0
  0
ARC
  5
1F3
330
1F
100
AcDbEntity
  8
0
  6
Continuous
 62
     7
370
    15
100
AcDbCircle
 10
34.6091324866
 20
37.0302997708
 30
0.0
 40
0.0362272595791054
100
AcDbArc
 50
290.7714938431
 51
69.2285061569
  0
LINE
  5
1F4
330
1F
100
AcDbEntity
  8
0
  6
Continuous
 62
     7
370
    15
100
AcDbLine
 10
34.6615781171
 20
36.9735732795
 30
0.0
 11
34.6615781171
 21
37.0195562683
 31
0.0
  0
LINE
  5
1F5
330
1F
100
AcDbEntity
  8
0
  6
Continuous
 62
     7
370
    15
100
AcDbLine
 10
34.6615781171
 20
37.0870256755
 30
0.0
 11
34.6615781171
 21
37.0195562683
 31
0.0
  0
ARC
  5
1F6
330
1F
100
AcDbEntity
  8
0
  6
Continuous
 62
     7
370
    15
100
AcDbCircle
 10
34.7202680124
 20
37.2003307416
 30
0.0
 40
0.127603063489464
100
AcDbArc
 50
242.616692151
 51
297.383307849
  0
LINE
  5
1F7
330
1F
100
AcDbEntity
  8
0
  6
Continuous
 62
     7
370
    15
100
AcDbLine
 10
34.7789579078
 20
37.0195562683
 30
0.0
 11
34.7789579078
 21
37.0870256755
 31
0.0
  0
LINE
  5
1F8
330
1F
100
AcDbEntity
  8
0
  6
Continuous
 62
     7
370
    15
100
AcDbLine
 10
34.7789579078
 20
36.9735732795
 30
0.0
 11
34.7789579078
 21
37.0195562683
 31
0.0
  0
LINE
  5
1F9
330
1F
100
AcDbEntity
  8
0
  6
Continuous
 62
     7
370
    15
100
AcDbLine
 10
34.7789579078
 20
37.0870256755
 30
0.0
 11
34.8247670986
 21
37.1134646768
 31
0.0
  0
LINE
  5
1FA
330
1F
100
AcDbEntity
  8
0
  6
Continuous
 62
     7
370
    15
100
AcDbLine
 10
34.6615781171
 20
37.0870256755
 30
0.0
 11
34.6157689263
 21
37.1134646768
 31
0.0
  0
LINE
  5
1FB
330
1F
100
AcDbEntity
  8
0
  6
Continuous
 62
     7
370
    15
100
AcDbLine
 10
34.6128414934
 20
37.1150797515
 30
0.0
 11
34.6615781171
 21
37.0195562683
 31
0.0
  0
LINE
  5
1FC
330
1F
100
AcDbEntity
  8
0
  6
Continuous
 62
     7
370
    15
100
AcDbLine
 10
34.6615781171
 20
37.0195562683
 30
0.0
 11
34.646290347
 21
37.0107329035
 31
0.0
  0
LINE
  5
1FD
330
1F
100
AcDbEntity
  8
0
  6
Continuous
 62
     7
370
    15
100
AcDbLine
 10
34.7942456778
 20
37.0107329035
 30
0.0
 11
34.7789579078
 21
37.0195562683
 31
0.0
  0
LINE
  5
1FE
330
1F
100
AcDbEntity
  8
0
  6
Continuous
 62
     7
370
    15
100
AcDbLine
 10
34.8276946047
 20
37.1150797515
 30
0.0
 11
34.7789579078
 21
37.0195562683
 31
0.0
  0
LINE
  5
1FF
330
1F
100
AcDbEntity
  8
0
  6
Continuous
 62
     7
370
    15
100
AcDbLine
 10
29.449022353
 20
39.449794274
 30
0.0
 11
29.4519497858
 21
39.4515580669
 31
0.0
  0
LINE
  5
200
330
1F
100
AcDbEntity
  8
0
  6
Continuous
 62
     7
370
    15
100
AcDbLine
 10
29.449022353
 20
39.449794274
 30
0.0
 11
29.4886204289
 21
39.4269406446
 31
0.0
  0
LINE
  5
201
330
1F
100
AcDbEntity
  8
0
  6
Continuous
 62
     7
370
    15
100
AcDbLine
 10
29.4886204289
 20
39.4269406446
 30
0.0
 11
29.4915478617
 21
39.4287044376
 31
0.0
  0
ARC
  5
202
330
1F
100
AcDbEntity
  8
0
  6
Continuous
 62
     7
370
    15
100
AcDbCircle
 10
29.5960469479
 20
39.6946154306
 30
0.0
 40
0.28570739441511
100
AcDbArc
 50
248.5459075472
 51
291.4540924528
  0
LINE
  5
203
330
1F
100
AcDbEntity
  8
0
  6
Continuous
 62
     7
370
    15
100
AcDbLine
 10
29.7034734669
 20
39.4269406446
 30
0.0
 11
29.700546034
 21
39.4287044376
 31
0.0
  0
LINE
  5
204
330
1F
100
AcDbEntity
  8
0
  6
Continuous
 62
     7
370
    15
100
AcDbLine
 10
29.7034734669
 20
39.4269406446
 30
0.0
 11
29.7430715427
 21
39.449794274
 31
0.0
  0
LINE
  5
205
330
1F
100
AcDbEntity
  8
0
  6
Continuous
 62
     7
370
    15
100
AcDbLine
 10
29.7430715427
 20
39.449794274
 30
0.0
 11
29.7401438166
 21
39.4515580669
 31
0.0
  0
ARC
  5
206
330
1F
100
AcDbEntity
  8
0
  6
Continuous
 62
     7
370
    15
100
AcDbCircle
 10
29.7015195995
 20
39.5118691969
 30
0.0
 40
0.0716188699853724
100
AcDbArc
 50
302.6361519593
 51
57.3638480407
  0
LINE
  5
207
330
1F
100
AcDbEntity
  8
0
  6
Continuous
 62
     7
370
    15
100
AcDbLine
 10
29.7401438166
 20
39.5721803268
 30
0.0
 11
29.7430715427
 21
39.5737956948
 31
0.0
  0
LINE
  5
208
330
1F
100
AcDbEntity
  8
0
  6
Continuous
 62
     7
370
    15
100
AcDbLine
 10
29.7430715427
 20
39.5737956948
 30
0.0
 11
29.7034734669
 21
39.5966493242
 31
0.0
  0
LINE
  5
209
330
1F
100
AcDbEntity
  8
0
  6
Continuous
 62
     7
370
    15
100
AcDbLine
 10
29.700546034
 20
39.5950342495
 30
0.0
 11
29.7034734669
 21
39.5966493242
 31
0.0
  0
ARC
  5
20A
330
1F
100
AcDbEntity
  8
0
  6
Continuous
 62
     7
370
    15
100
AcDbCircle
 10
29.5960469479
 20
39.3291176978
 30
0.0
 40
0.2857125678893935
100
AcDbArc
 50
68.546315257
 51
111.453684743
  0
LINE
  5
20B
330
1F
100
AcDbEntity
  8
0
  6
Continuous
 62
     7
370
    15
100
AcDbLine
 10
29.4915478617
 20
39.5950342495
 30
0.0
 11
29.4886204289
 21
39.5966493242
 31
0.0
  0
LINE
  5
20C
330
1F
100
AcDbEntity
  8
0
  6
Continuous
 62
     7
370
    15
100
AcDbLine
 10
29.4886204289
 20
39.5966493242
 30
0.0
 11
29.449022353
 21
39.5737956948
 31
0.0
  0
LINE
  5
20D
330
1F
100
AcDbEntity
  8
0
  6
Continuous
 62
     7
370
    15
100
AcDbLine
 10
29.4519497858
 20
39.5721803268
 30
0.0
 11
29.449022353
 21
39.5737956948
 31
0.0
  0
ARC
  5
20E
330
1F
100
AcDbEntity
  8
0
  6
Continuous
 62
     7
370
    15
100
AcDbCircle
 10
29.4905744577
 20
39.5118691969
 30
0.0
 40
0.0716191153123461
100
AcDbArc
 50
122.6364584201
 51
237.3635415799
  0
LINE
  5
20F
330
1F
100
AcDbEntity
  8
0
  6
Continuous
 62
     7
370
    15
100
AcDbLine
 10
29.4915478617
 20
39.4287044376
 30
0.0
 11
29.5373569058
 21
39.4551428522
 31
0.0
  0
ARC
  5
210
330
1F
100
AcDbEntity
  8
0
  6
Continuous
 62
     7
370
    15
100
AcDbCircle
 10
29.5960468012
 20
39.3418419759
 30
0.0
 40
0.1275993431434581
100
AcDbArc
 50
62.615826838
 51
117.384173162
  0
LINE
  5
211
330
1F
100
AcDbEntity
  8
0
  6
Continuous
 62
     7
370
    15
100
AcDbLine
 10
29.700546034
 20
39.4287044376
 30
0.0
 11
29.6547366965
 21
39.4551428522
 31
0.0
  0
LINE
  5
212
330
1F
100
AcDbEntity
  8
0
  6
Continuous
 62
     7
370
    15
100
AcDbLine
 10
29.4519497858
 20
39.4515580669
 30
0.0
 11
29.4977591233
 21
39.4779967748
 31
0.0
  0
LINE
  5
213
330
1F
100
AcDbEntity
  8
0
  6
Continuous
 62
     7
370
    15
100
AcDbLine
 10
29.7401438166
 20
39.4515580669
 30
0.0
 11
29.6943347724
 21
39.4779967748
 31
0.0
  0
ARC
  5
214
330
1F
100
AcDbEntity
  8
0
  6
Continuous
 62
     7
370
    15
100
AcDbCircle
 10
29.7071824376
 20
39.5118693435
 30
0.0
 40
0.0362272467905263
100
AcDbArc
 50
110.7714405179
 51
249.2285594821
  0
LINE
  5
215
330
1F
100
AcDbEntity
  8
0
  6
Continuous
 62
     7
370
    15
100
AcDbLine
 10
29.6943347724
 20
39.5457419122
 30
0.0
 11
29.7401438166
 21
39.5721803268
 31
0.0
  0
LINE
  5
216
330
1F
100
AcDbEntity
  8
0
  6
Continuous
 62
     7
370
    15
100
AcDbLine
 10
29.4977591233
 20
39.5457419122
 30
0.0
 11
29.4519497858
 21
39.5721803268
 31
0.0
  0
ARC
  5
217
330
1F
100
AcDbEntity
  8
0
  6
Continuous
 62
     7
370
    15
100
AcDbCircle
 10
29.4849113143
 20
39.5118693435
 30
0.0
 40
0.0362272977888337
100
AcDbArc
 50
290.7716531673
 51
69.2283468327
  0
LINE
  5
218
330
1F
100
AcDbEntity
  8
0
  6
Continuous
 62
     7
370
    15
100
AcDbLine
 10
29.5373569058
 20
39.4551428522
 30
0.0
 11
29.5373569058
 21
39.501125841
 31
0.0
  0
LINE
  5
219
330
1F
100
AcDbEntity
  8
0
  6
Continuous
 62
     7
370
    15
100
AcDbLine
 10
29.5373569058
 20
39.5685955416
 30
0.0
 11
29.5373569058
 21
39.501125841
 31
0.0
  0
ARC
  5
21A
330
1F
100
AcDbEntity
  8
0
  6
Continuous
 62
     7
370
    15
100
AcDbCircle
 10
29.5960468012
 20
39.6818987242
 30
0.0
 40
0.1276013910667572
100
AcDbArc
 50
242.6163031703
 51
297.3836968297
  0
LINE
  5
21B
330
1F
100
AcDbEntity
  8
0
  6
Continuous
 62
     7
370
    15
100
AcDbLine
 10
29.6547366965
 20
39.501125841
 30
0.0
 11
29.6547366965
 21
39.5685955416
 31
0.0
  0
LINE
  5
21C
330
1F
100
AcDbEntity
  8
0
  6
Continuous
 62
     7
370
    15
100
AcDbLine
 10
29.6547366965
 20
39.4551428522
 30
0.0
 11
29.6547366965
 21
39.501125841
 31
0.0
  0
LINE
  5
21D
330
1F
100
AcDbEntity
  8
0
  6
Continuous
 62
     7
370
    15
100
AcDbLine
 10
29.6547366965
 20
39.5685955416
 30
0.0
 11
29.700546034
 21
39.5950342495
 31
0.0
  0
LINE
  5
21E
330
1F
100
AcDbEntity
  8
0
  6
Continuous
 62
     7
370
    15
100
AcDbLine
 10
29.5373569058
 20
39.5685955416
 30
0.0
 11
29.4915478617
 21
39.5950342495
 31
0.0
  0
LINE
  5
21F
330
1F
100
AcDbEntity
  8
0
  6
Continuous
 62
     7
370
    15
100
AcDbLine
 10
29.4886204289
 20
39.5966493242
 30
0.0
 11
29.5373569058
 21
39.501125841
 31
0.0
  0
LINE
  5
220
330
1F
100
AcDbEntity
  8
0
  6
Continuous
 62
     7
370
    15
100
AcDbLine
 10
29.5373569058
 20
39.501125841
 30
0.0
 11
29.5220691358
 21
39.4923027696
 31
0.0
  0
LINE
  5
221
330
1F
100
AcDbEntity
  8
0
  6
Continuous
 62
     7
370
    15
100
AcDbLine
 10
29.6700244666
 20
39.4923027696
 30
0.0
 11
29.6547366965
 21
39.501125841
 31
0.0
  0
LINE
  5
222
330
1F
100
AcDbEntity
  8
0
  6
Continuous
 62
     7
370
    15
100
AcDbLine
 10
29.7034734669
 20
39.5966493242
 30
0.0
 11
29.6547366965
 21
39.501125841
 31
0.0
  0
LINE
  5
223
330
1F
100
AcDbEntity
  8
0
  6
Continuous
 62
     7
370
    15
100
AcDbLine
 10
36.4036022531
 20
40.9106988375
 30
0.0
 11
36.4065299792
 21
40.9124626304
 31
0.0
  0
LINE
  5
224
330
1F
100
AcDbEntity
  8
0
  6
Continuous
 62
     7
370
    15
100
AcDbLine
 10
36.4036022531
 20
40.9106988375
 30
0.0
 11
36.443200329
 21
40.8878449148
 31
0.0
  0
LINE
  5
225
330
1F
100
AcDbEntity
  8
0
  6
Continuous
 62
     7
370
    15
100
AcDbLine
 10
36.443200329
 20
40.8878449148
 30
0.0
 11
36.4461277618
 21
40.8896090011
 31
0.0
  0
ARC
  5
226
330
1F
100
AcDbEntity
  8
0
  6
Continuous
 62
     7
370
    15
100
AcDbCircle
 10
36.550626848
 20
41.1555218065
 30
0.0
 40
0.2857090811695527
100
AcDbArc
 50
248.5460404783
 51
291.4539595217
  0
LINE
  5
227
330
1F
100
AcDbEntity
  8
0
  6
Continuous
 62
     7
370
    15
100
AcDbLine
 10
36.658053367
 20
40.8878449148
 30
0.0
 11
36.6551259341
 21
40.8896090011
 31
0.0
  0
LINE
  5
228
330
1F
100
AcDbEntity
  8
0
  6
Continuous
 62
     7
370
    15
100
AcDbLine
 10
36.658053367
 20
40.8878449148
 30
0.0
 11
36.6976514428
 21
40.9106988375
 31
0.0
  0
LINE
  5
229
330
1F
100
AcDbEntity
  8
0
  6
Continuous
 62
     7
370
    15
100
AcDbLine
 10
36.6976514428
 20
40.9106988375
 30
0.0
 11
36.69472401
 21
40.9124626304
 31
0.0
  0
ARC
  5
22A
330
1F
100
AcDbEntity
  8
0
  6
Continuous
 62
     7
370
    15
100
AcDbCircle
 10
36.6560994692
 20
40.9727736665
 30
0.0
 40
0.0716189654628522
100
AcDbArc
 50
302.6364105616
 51
57.3638681029
  0
LINE
  5
22B
330
1F
100
AcDbEntity
  8
0
  6
Continuous
 62
     7
370
    15
100
AcDbLine
 10
36.6947237167
 20
41.0330848903
 30
0.0
 11
36.6976511495
 21
41.0347002583
 31
0.0
  0
LINE
  5
22C
330
1F
100
AcDbEntity
  8
0
  6
Continuous
 62
     7
370
    15
100
AcDbLine
 10
36.6976511495
 20
41.0347002583
 30
0.0
 11
36.658053367
 21
41.0575540343
 31
0.0
  0
LINE
  5
22D
330
1F
100
AcDbEntity
  8
0
  6
Continuous
 62
     7
370
    15
100
AcDbLine
 10
36.6551259341
 20
41.0559386663
 30
0.0
 11
36.658053367
 21
41.0575540343
 31
0.0
  0
ARC
  5
22E
330
1F
100
AcDbEntity
  8
0
  6
Continuous
 62
     7
370
    15
100
AcDbCircle
 10
36.5506266613
 20
40.790024422
 30
0.0
 40
0.2857104886921414
100
AcDbArc
 50
68.5461111946
 51
111.4538083904
  0
LINE
  5
22F
330
1F
100
AcDbEntity
  8
0
  6
Continuous
 62
     7
370
    15
100
AcDbLine
 10
36.4461277618
 20
41.055938813
 30
0.0
 11
36.443200329
 21
41.0575540343
 31
0.0
  0
LINE
  5
230
330
1F
100
AcDbEntity
  8
0
  6
Continuous
 62
     7
370
    15
100
AcDbLine
 10
36.443200329
 20
41.0575540343
 30
0.0
 11
36.4036022531
 21
41.0347002583
 31
0.0
  0
LINE
  5
231
330
1F
100
AcDbEntity
  8
0
  6
Continuous
 62
     7
370
    15
100
AcDbLine
 10
36.4065296859
 20
41.0330848903
 30
0.0
 11
36.4036022531
 21
41.0347002583
 31
0.0
  0
ARC
  5
232
330
1F
100
AcDbEntity
  8
0
  6
Continuous
 62
     7
370
    15
100
AcDbCircle
 10
36.4451541037
 20
40.9727738543
 30
0.0
 40
0.0716188991649739
100
AcDbArc
 50
122.6363277424
 51
237.363950922
  0
LINE
  5
233
330
1F
100
AcDbEntity
  8
0
  6
Continuous
 62
     7
370
    15
100
AcDbLine
 10
36.4461277618
 20
40.8896090011
 30
0.0
 11
36.4919370993
 21
40.9160474157
 31
0.0
  0
ARC
  5
234
330
1F
100
AcDbEntity
  8
0
  6
Continuous
 62
     7
370
    15
100
AcDbCircle
 10
36.550626848
 20
40.8027469975
 30
0.0
 40
0.1275988689682207
100
AcDbArc
 50
62.6157907139
 51
117.3842092861
  0
LINE
  5
235
330
1F
100
AcDbEntity
  8
0
  6
Continuous
 62
     7
370
    15
100
AcDbLine
 10
36.6551259341
 20
40.8896090011
 30
0.0
 11
36.6093165966
 21
40.9160474157
 31
0.0
  0
LINE
  5
236
330
1F
100
AcDbEntity
  8
0
  6
Continuous
 62
     7
370
    15
100
AcDbLine
 10
36.4065299792
 20
40.9124626304
 30
0.0
 11
36.4523390234
 21
40.9389013383
 31
0.0
  0
LINE
  5
237
330
1F
100
AcDbEntity
  8
0
  6
Continuous
 62
     7
370
    15
100
AcDbLine
 10
36.69472401
 20
40.9124626304
 30
0.0
 11
36.6489146725
 21
40.9389013383
 31
0.0
  0
ARC
  5
238
330
1F
100
AcDbEntity
  8
0
  6
Continuous
 62
     7
370
    15
100
AcDbCircle
 10
36.6617624097
 20
40.972773907
 30
0.0
 40
0.0362272723292284
100
AcDbArc
 50
110.7715470079
 51
249.2284529921
  0
LINE
  5
239
330
1F
100
AcDbEntity
  8
0
  6
Continuous
 62
     7
370
    15
100
AcDbLine
 10
36.6489146725
 20
41.0066464757
 30
0.0
 11
36.6947237167
 21
41.0330848903
 31
0.0
  0
LINE
  5
23A
330
1F
100
AcDbEntity
  8
0
  6
Continuous
 62
     7
370
    15
100
AcDbLine
 10
36.4523390234
 20
41.0066464757
 30
0.0
 11
36.4065296859
 21
41.0330848903
 31
0.0
  0
ARC
  5
23B
330
1F
100
AcDbEntity
  8
0
  6
Continuous
 62
     7
370
    15
100
AcDbCircle
 10
36.4394912862
 20
40.972773907
 30
0.0
 40
0.0362272723292309
100
AcDbArc
 50
290.7715470079
 51
69.2284529921
  0
LINE
  5
23C
330
1F
100
AcDbEntity
  8
0
  6
Continuous
 62
     7
370
    15
100
AcDbLine
 10
36.6093165966
 20
41.0295001051
 30
0.0
 11
36.6551259341
 21
41.0559386663
 31
0.0
  0
ARC
  5
23D
330
1F
100
AcDbEntity
  8
0
  6
Continuous
 62
     7
370
    15
100
AcDbCircle
 10
36.5506269895
 20
41.1428015237
 30
0.0
 40
0.1275996921694438
100
AcDbArc
 50
242.615910597
 51
297.3839462216
  0
LINE
  5
23E
330
1F
100
AcDbEntity
  8
0
  6
Continuous
 62
     7
370
    15
100
AcDbLine
 10
36.4919370993
 20
41.0295002517
 30
0.0
 11
36.4461277618
 21
41.055938813
 31
0.0
  0
LINE
  5
23F
330
1F
100
AcDbEntity
  8
0
  6
Continuous
 62
     7
370
    15
100
AcDbLine
 10
36.4919370993
 20
40.9160474157
 30
0.0
 11
36.4919370993
 21
40.9620306978
 31
0.0
  0
LINE
  5
240
330
1F
100
AcDbEntity
  8
0
  6
Continuous
 62
     7
370
    15
100
AcDbLine
 10
36.4919370993
 20
41.0295002517
 30
0.0
 11
36.4919370993
 21
40.9620306978
 31
0.0
  0
LINE
  5
241
330
1F
100
AcDbEntity
  8
0
  6
Continuous
 62
     7
370
    15
100
AcDbLine
 10
36.6093165966
 20
40.9620304045
 30
0.0
 11
36.6093165966
 21
41.0295001051
 31
0.0
  0
LINE
  5
242
330
1F
100
AcDbEntity
  8
0
  6
Continuous
 62
     7
370
    15
100
AcDbLine
 10
36.6093165966
 20
40.9160474157
 30
0.0
 11
36.6093165966
 21
40.9620304045
 31
0.0
  0
LINE
  5
243
330
1F
100
AcDbEntity
  8
0
  6
Continuous
 62
     7
370
    15
100
AcDbLine
 10
36.443200329
 20
41.0575540343
 30
0.0
 11
36.4919370993
 21
40.9620306978
 31
0.0
  0
LINE
  5
244
330
1F
100
AcDbEntity
  8
0
  6
Continuous
 62
     7
370
    15
100
AcDbLine
 10
36.4919370993
 20
40.9620306978
 30
0.0
 11
36.4766490359
 21
40.9532073331
 31
0.0
  0
LINE
  5
245
330
1F
100
AcDbEntity
  8
0
  6
Continuous
 62
     7
370
    15
100
AcDbLine
 10
36.6246043667
 20
40.9532070398
 30
0.0
 11
36.6093165966
 21
40.9620304045
 31
0.0
  0
LINE
  5
246
330
1F
100
AcDbEntity
  8
0
  6
Continuous
 62
     7
370
    15
100
AcDbLine
 10
36.658053367
 20
41.0575540343
 30
0.0
 11
36.6093165966
 21
40.9620304045
 31
0.0
  0
LWPOLYLINE
  5
247
330
1F
100
AcDbEntity
  8
0
  6
Continuous
 62
     7
370
    15
100
AcDbPolyline
 90
       43
 70
   128
 43
0.0
 10
32.6643179896
 20
37.6983669333
 10
32.8093249145
 20
37.7703882346
 10
32.9341133396
 20
37.8540782012
 10
33.0358958971
 20
37.9475677345
 10
33.11239884
 20
38.0487683254
 10
33.1619132647
 20
38.1554189867
 10
33.1833330606
 20
38.2651378792
 10
33.1761798065
 20
38.3754739379
 10
33.1406132941
 20
38.483962018
 10
33.0774278973
 20
38.5881789208
 10
32.9880351566
 20
38.6857970731
 10
32.874431989
 20
38.7746349801
 10
32.7391560651
 20
38.8527088516
 10
32.5852292699
 20
38.9182745475
 10
32.4160900905
 20
38.9698671781
 10
32.2355166165
 20
39.0063342502
 10
32.0475427213
 20
39.0268611864
 10
31.8563674231
 20
39.0309898054
 10
31.6662613126
 20
39.0186274148
 10
31.4814709273
 20
38.9900503316
 10
31.3061242996
 20
38.945897135
 10
31.1441382642
 20
38.887153707
 10
30.999131486
 20
38.815132699
 10
30.8743430609
 20
38.7314427324
 10
30.7725605033
 20
38.6379531991
 10
30.6960574138
 20
38.5367526082
 10
30.6465433191
 20
38.4301019469
 10
30.6251231932
 20
38.3203830544
 10
30.6322766306
 20
38.2100469956
 10
30.6678431797
 20
38.1015589156
 10
30.7310285031
 20
37.9973417195
 10
30.8204213904
 20
37.8997238605
 10
30.9340245581
 20
37.8108859534
 10
31.0693004087
 20
37.732812082
 10
31.2232272039
 20
37.6672463861
 10
31.3923662366
 20
37.6156537555
 10
31.5729397106
 20
37.5791869767
 10
31.7609136058
 20
37.5586597472
 10
31.952088904
 20
37.5545314215
 10
32.1421951612
 20
37.5668935187
 10
32.3269853998
 20
37.5954703086
 10
32.5023321009
 20
37.6396240919
 10
32.6643179896
 20
37.6983669333
  0
LWPOLYLINE
  5
248
330
1F
100
AcDbEntity
  8
0
  6
Continuous
 62
     7
370
    15
100
AcDbPolyline
 90
        3
 70
   128
 43
0.0
 10
33.1805126565
 20
38.1238167918
 10
33.1833330606
 20
38.1524411011
 10
33.1842282302
 20
38.180063982
  0
LINE
  5
249
330
1F
100
AcDbEntity
  8
0
  6
Continuous
 62
     7
370
    15
100
AcDbLine
 10
30.6242282435
 20
38.180063982
 30
0.0
 11
30.6279435606
 21
38.1238167918
 31
0.0
  0
LINE
  5
24A
330
1F
100
AcDbEntity
  8
0
  6
Continuous
 62
     7
370
    15
100
AcDbLine
 10
31.3951964306
 20
38.66326904
 30
0.0
 11
32.5461960008
 21
37.9989749806
 31
0.0
  0
LINE
  5
24B
330
1F
100
AcDbEntity
  8
0
  6
Continuous
 62
     7
370
    15
100
AcDbLine
 10
31.2622604729
 20
38.5865456596
 30
0.0
 11
31.3951964306
 21
38.66326904
 31
0.0
  0
LINE
  5
24C
330
1F
100
AcDbEntity
  8
0
  6
Continuous
 62
     7
370
    15
100
AcDbLine
 10
31.2622604729
 20
38.5865456596
 30
0.0
 11
32.4132600432
 21
37.9222516003
 31
0.0
  0
LINE
  5
24D
330
1F
100
AcDbEntity
  8
0
  6
Continuous
 62
     7
370
    15
100
AcDbLine
 10
32.4132600432
 20
37.9222516003
 30
0.0
 11
32.5461960008
 21
37.9989749806
 31
0.0
  0
ARC
  5
24E
330
1F
100
AcDbEntity
  8
0
  6
Continuous
 62
     7
370
    15
100
AcDbCircle
 10
32.4419012282
 20
38.7223013425
 30
0.0
 40
0.7308066949662414
100
AcDbArc
 50
254.5984262914
 51
278.2047996336
  0
ARC
  5
24F
330
1F
100
AcDbEntity
  8
0
  6
Continuous
 62
     7
370
    15
100
AcDbCircle
 10
33.1775789777
 20
39.9968509216
 30
0.0
 40
2.226056643355161
100
AcDbArc
 50
216.8039030422
 51
228.1910500785
  0
LWPOLYLINE
  5
250
330
1F
100
AcDbEntity
  8
0
  6
Continuous
 62
     7
370
    15
100
AcDbPolyline
 90
       55
 70
   128
 43
0.0
 10
36.2145657702
 20
40.5831695545
 10
36.0536087362
 20
40.6875554152
 10
35.8727426656
 20
40.7804509554
 10
35.6744136367
 20
40.8606001362
 10
35.4613037119
 20
40.9269188101
 10
35.2362945646
 20
40.9785099741
 10
35.0024293462
 20
41.0146760897
 10
34.7628705936
 20
41.0349281757
 10
34.5208579893
 20
41.0389924088
 10
34.279664289
 20
41.0268136428
 10
34.0425511748
 20
40.9985567292
 10
33.8127251464
 20
40.9546035836
 10
33.5932943876
 20
40.8955489325
 10
33.3872262652
 20
40.8221909266
 10
33.1973074091
 20
40.7355219011
 10
33.0261061568
 20
40.6367140026
 10
32.8759378716
 20
40.5271033488
 10
32.7488330933
 20
40.408172136
 10
32.6465108086
 20
40.2815286924
 10
32.5703548751
 20
40.148885478
 10
32.5213948806
 20
40.0120370856
 10
32.5002931644
 20
39.8728332537
 10
32.5073349897
 20
39.7331565739
 10
32.542425171
 20
39.5948966777
 10
32.6050892471
 20
39.4599223703
 10
32.6944795678
 20
39.3300593372
 10
32.8093874671
 20
39.207064038
 10
32.9482589561
 20
39.0925993603
 10
33.1092161001
 20
38.9882134995
 10
33.2900820974
 20
38.8953179593
 10
33.4884111629
 20
38.8151687786
 10
33.7015211977
 20
38.748850398
 10
33.9265302167
 20
38.6972589407
 10
34.1603954168
 20
38.6610928251
 10
34.399954206
 20
38.6408407391
 10
34.6419668103
 20
38.6367763594
 10
34.883160584
 20
38.6489551253
 10
35.1202736248
 20
38.6772121856
 10
35.3500996899
 20
38.7211653312
 10
35.569530435
 20
38.7802199823
 10
35.7755985345
 20
38.8535779882
 10
35.9655173539
 20
38.9402470136
 10
36.1367186428
 20
39.0390549122
 10
36.2868868547
 20
39.148665566
 10
36.4139917064
 20
39.2675967787
 10
36.516313991
 20
39.3942402224
 10
36.5924700712
 20
39.5268831434
 10
36.6414300657
 20
39.6637321225
 10
36.6625316352
 20
39.8029356611
 10
36.6554896632
 20
39.9426120476
 10
36.6203994819
 20
40.080872237
 10
36.5577356992
 20
40.2158465445
 10
36.4683451585
 20
40.3457095776
 10
36.3534372592
 20
40.4687048768
 10
36.2145657702
 20
40.5831695545
  0
LWPOLYLINE
  5
251
330
1F
100
AcDbEntity
  8
0
  6
Continuous
 62
     7
370
    15
100
AcDbPolyline
 90
       12
 70
   128
 43
0.0
 10
36.0677509062
 20
40.6793847096
 10
36.2274922342
 20
40.5760076105
 10
36.3657744234
 20
40.462794865
 10
36.4807949613
 20
40.3412225094
 10
36.571054052
 20
40.2128756988
 10
36.6353751489
 20
40.0794272937
 10
36.6729196219
 20
39.9426167408
 10
36.6831981965
 20
39.8042283662
 10
36.6660765276
 20
39.6660655623
 10
36.6217781327
 20
39.5299299616
 10
36.5508805784
 20
39.397595917
 10
36.4618828065
 20
39.2794543484
  0
LWPOLYLINE
  5
252
330
1F
100
AcDbEntity
  8
0
  6
Continuous
 62
     7
370
    15
100
AcDbPolyline
 90
       13
 70
   128
 43
0.0
 10
32.7009419932
 20
39.2794543484
 10
32.6337237497
 20
39.3653099699
 10
32.5563074507
 20
39.4964217087
 10
32.5052915067
 20
39.6317717718
 10
32.48134097
 20
39.7695957796
 10
32.4847680171
 20
39.9080973796
 10
32.5155281351
 20
40.0454705393
 10
32.5732201953
 20
40.1799247728
 10
32.6570920264
 20
40.3097068469
 10
32.7660503877
 20
40.4331254211
 10
32.8986746823
 20
40.5485707008
 10
33.0532361334
 20
40.65453849
 10
33.0942826359
 20
40.6789277016
  0
LINE
  5
253
330
1F
100
AcDbEntity
  8
0
  6
Continuous
 62
     7
370
    15
100
AcDbLine
 10
36.6797524496
 20
39.6699624506
 30
0.0
 11
36.6834123273
 21
39.7415205839
 31
0.0
  0
LINE
  5
254
330
1F
100
AcDbEntity
  8
0
  6
Continuous
 62
     7
370
    15
100
AcDbLine
 10
32.479412399
 20
39.7415208773
 30
0.0
 11
32.48307235
 21
39.6699624506
 31
0.0
  0
LINE
  5
255
330
1F
100
AcDbEntity
  8
0
  6
Continuous
 62
     7
370
    15
100
AcDbLine
 10
33.7922811768
 20
40.3700509764
 30
0.0
 11
35.5034795714
 21
39.3824410254
 31
0.0
  0
LINE
  5
256
330
1F
100
AcDbEntity
  8
0
  6
Continuous
 62
     7
370
    15
100
AcDbLine
 10
33.6593451558
 20
40.2933275961
 30
0.0
 11
33.7922811768
 21
40.3700509764
 31
0.0
  0
LINE
  5
257
330
1F
100
AcDbEntity
  8
0
  6
Continuous
 62
     7
370
    15
100
AcDbLine
 10
33.6593451558
 20
40.2933275961
 30
0.0
 11
35.3705436137
 21
39.305717645
 31
0.0
  0
LINE
  5
258
330
1F
100
AcDbEntity
  8
0
  6
Continuous
 62
     7
370
    15
100
AcDbLine
 10
35.3705436137
 20
39.305717645
 30
0.0
 11
35.5034795714
 21
39.3824410254
 31
0.0
  0
LWPOLYLINE
  5
259
330
1F
100
AcDbEntity
  8
0
  6
Continuous
 62
     7
370
    15
100
AcDbPolyline
 90
        3
 70
   128
 43
0.0
 10
35.5034795714
 20
39.3824410254
 10
35.2977696277
 20
39.4108556038
 10
35.0935055074
 20
39.4656088646
  0
LWPOLYLINE
  5
25A
330
1F
100
AcDbEntity
  8
0
  6
Continuous
 62
     7
370
    15
100
AcDbPolyline
 90
        3
 70
   128
 43
0.0
 10
34.2022552499
 20
39.9799896158
 10
33.9979912395
 20
40.1610164312
 10
33.7922811768
 20
40.3700509764
  0
LINE
  5
25B
330
1F
100
AcDbEntity
  8
0
  6
Continuous
 62
     7
370
    15
100
AcDbLine
 10
33.1835384648
 20
38.1313166518
 30
0.0
 11
33.1842282302
 21
38.1555644784
 31
0.0
  0
LINE
  5
25C
330
1F
100
AcDbEntity
  8
0
  6
Continuous
 62
     7
370
    15
100
AcDbLine
 10
30.6242282435
 20
38.1555644784
 30
0.0
 11
30.6249178622
 21
38.1313166518
 31
0.0
  0
LINE
  5
25D
330
1F
100
AcDbEntity
  8
0
  6
Continuous
 62
     7
370
    15
100
AcDbLine
 10
33.1805126565
 20
38.1238167918
 30
0.0
 11
33.1842282302
 21
38.180063982
 31
0.0
  0
LWPOLYLINE
  5
25E
330
1F
100
AcDbEntity
  8
0
  6
Continuous
 62
     7
370
    15
100
AcDbPolyline
 90
        3
 70
   128
 43
0.0
 10
30.6242282435
 20
38.180063982
 10
30.6251231932
 20
38.1524411011
 10
30.6279435606
 20
38.1238167918
  0
LWPOLYLINE
  5
25F
330
1F
100
AcDbEntity
  8
0
  6
Continuous
 62
     7
370
    15
100
AcDbPolyline
 90
      110
 70
   128
 43
0.0
 10
39.8235384257
 20
35.7913098704
 10
39.4971408096
 20
35.5917469491
 10
39.1513640573
 20
35.403368112
 10
38.7873580224
 20
35.226799325
 10
38.406330344
 20
35.0626272482
 10
38.0095479144
 20
34.9113968886
 10
37.5983283715
 20
34.7736116003
 10
37.1740371663
 20
34.6497278047
 10
36.7380849224
 20
34.5401579238
 10
36.2919189299
 20
34.4452656867
 10
35.8370218249
 20
34.3653661297
 10
35.3749048433
 20
34.3007250098
 10
34.9071023941
 20
34.2515570445
 10
34.4351689059
 20
34.2180247385
 10
33.960672099
 20
34.2002407306
 10
33.4851880352
 20
34.1982631001
 10
33.0102963328
 20
34.2120994736
 10
32.5375746671
 20
34.2417023316
 10
32.0685931048
 20
34.2869748753
 10
31.6049097413
 20
34.347766333
 10
31.1480647788
 20
34.4238737205
 10
30.6995759065
 20
34.5150459473
 10
30.2609332404
 20
34.6209785369
 10
29.833593457
 20
34.7413206667
 10
29.4189762734
 20
34.875671648
 10
29.0184582869
 20
35.0235856192
 10
28.6333712154
 20
35.1845721328
 10
28.2649939776
 20
35.3580949816
 10
27.914550346
 20
35.5435786522
 10
27.5832036671
 20
35.7404065651
 10
27.2720551015
 20
35.9479245945
 10
26.9821383439
 20
36.1654440017
 10
26.71441669
 20
36.3922420217
 10
26.4697789294
 20
36.6275653833
 10
26.2490381728
 20
36.8706326553
 10
26.0529277449
 20
37.120634834
 10
25.8820982517
 20
37.3767429687
 10
25.7371181665
 20
37.6381064027
 10
25.6184691372
 20
37.9038557061
 10
25.5265448124
 20
38.173109129
 10
25.4616502554
 20
38.4449720151
 10
25.4240019437
 20
38.7185409081
 10
25.4137236624
 20
38.992907072
 10
25.4308511979
 20
39.2671594238
 10
25.4753264708
 20
39.5403868808
 10
25.5470016428
 20
39.8116815868
 10
25.6456397033
 20
40.0801424321
 10
25.7709121228
 20
40.3448776939
 10
25.9224029594
 20
40.6050076755
 10
26.099608859
 20
40.8596685203
 10
26.3019419883
 20
41.1080142647
 10
26.5287282751
 20
41.3492199183
 10
26.7792162081
 20
41.5824841036
 10
27.0525733169
 20
41.8070319896
 10
27.3478908654
 20
42.0221177849
 10
27.6641885448
 20
42.2270267911
 10
28.0004150607
 20
42.4210784094
 10
28.3554539993
 20
42.6036280473
 10
28.7281255875
 20
42.7740691717
 10
29.1171922663
 20
42.9318357658
 10
29.5213613306
 20
43.0764037591
 10
29.9392902093
 20
43.207292457
 10
30.3695902785
 20
43.3240678964
 10
30.8108327279
 20
43.4263413232
 10
31.2615513478
 20
43.5137736001
 10
31.7202492756
 20
43.5860739521
 10
32.1854022221
 20
43.6430023553
 10
32.6554655119
 20
43.6843693391
 10
33.128877493
 20
43.7100382759
 10
33.604065376
 20
43.7199231284
 10
34.0794502852
 20
43.7139913003
 10
34.5534538395
 20
43.6922627013
 10
35.0245012512
 20
43.6548091423
 10
35.4910272752
 20
43.6017554627
 10
35.9514826893
 20
43.5332775366
 10
36.4043379246
 20
43.449603041
 10
36.8480877583
 20
43.351009821
 10
37.281258941
 20
43.2378254093
 10
37.7024126891
 20
43.110426036
 10
38.1101495255
 20
42.9692346371
 10
38.5031145593
 20
42.8147202287
 10
38.8800033521
 20
42.647396175
 10
39.2395630918
 20
42.4678183362
 10
39.5806002188
 20
42.276583272
 10
39.9019813062
 20
42.0743261152
 10
40.2026392196
 20
41.8617191045
 10
40.4815742906
 20
41.639467992
 10
40.7378601833
 20
41.408311089
 10
40.9706456542
 20
41.1690167734
 10
41.1791580721
 20
40.9223795292
 10
41.3627045918
 20
40.6692190671
 10
41.5206745002
 20
40.4103759239
 10
41.6525439102
 20
40.1467101431
 10
41.7578745867
 20
39.8790973146
 10
41.8363168805
 20
39.6084268148
 10
41.8876091413
 20
39.3355979932
 10
41.9115824111
 20
39.0615163594
 10
41.9081563173
 20
38.7870929962
 10
41.8773425933
 20
38.5132392798
 10
41.8192427311
 20
38.240865413
 10
41.7340509153
 20
37.9708757319
 10
41.6220487425
 20
37.7041666529
 10
41.483609915
 20
37.4416252058
 10
41.3191932011
 20
37.1841225805
 10
41.1293453675
 20
36.9325147138
 10
40.9146964872
 20
36.6876370093
 10
40.6759599384
 20
36.450303751
 10
40.4139282988
 20
36.2213028231
 10
40.1294733448
 20
36.0013945368
 10
39.8235384257
 20
35.7913098704
  0
LWPOLYLINE
  5
260
330
1F
100
AcDbEntity
  8
0
  6
Continuous
 62
     7
370
    15
100
AcDbPolyline
 90
       97
 70
   128
 43
0.0
 10
28.8629720031
 20
41.6843960197
 10
29.1485947035
 20
41.8604001464
 10
29.453551074
 20
42.0252458555
 10
29.7765352095
 20
42.1782275415
 10
30.1161637661
 20
42.3186899789
 10
30.4709830005
 20
42.4460315478
 10
30.8394725837
 20
42.559707168
 10
31.2200555738
 20
42.659229985
 10
31.6111012031
 20
42.7441740103
 10
32.0109363175
 20
42.8141750017
 10
32.4178475768
 20
42.8689336891
 10
32.8300930412
 20
42.9082152253
 10
33.2459073777
 20
42.9318517523
 10
33.6635098535
 20
42.9397418878
 10
34.0811123293
 20
42.9318517523
 10
34.4969266658
 20
42.9082152253
 10
34.9091721302
 20
42.8689336891
 10
35.3160833895
 20
42.8141750017
 10
35.7159185039
 20
42.7441740103
 10
36.1069641332
 20
42.659229985
 10
36.4875471233
 20
42.559707168
 10
36.8560367065
 20
42.4460315478
 10
37.2108559409
 20
42.3186899789
 10
37.5504844975
 20
42.1782275415
 10
37.873468633
 20
42.0252458555
 10
38.1784250035
 20
41.8604001464
 10
38.464047704
 20
41.6843960197
 10
38.7291138419
 20
41.4979873331
 10
38.9724885237
 20
41.3019722375
 10
39.1931289615
 20
41.0971900964
 10
39.3900906329
 20
40.8845179666
 10
39.5625305075
 20
40.664866344
 10
39.7097105673
 20
40.4391762312
 10
39.8309983928
 20
40.2084135637
 10
39.9258771368
 20
39.97356657
 10
39.9939390705
 20
39.7356410785
 10
40.0348932107
 20
39.4956558242
 10
40.0485641461
 20
39.2546386351
 10
40.0348932107
 20
39.0136211527
 10
39.9939390705
 20
38.7736358983
 10
39.9258771368
 20
38.5357107002
 10
39.8309983928
 20
38.3008637065
 10
39.7097105673
 20
38.070101039
 10
39.5625305075
 20
37.8444106328
 10
39.3900906329
 20
37.6247593036
 10
39.1931289615
 20
37.4120868804
 10
38.9724885237
 20
37.2073050327
 10
38.7291138419
 20
37.0112896438
 10
38.464047704
 20
36.8248808105
 10
38.1784250035
 20
36.6488769771
 10
37.873468633
 20
36.4840314147
 10
37.5504844975
 20
36.3310492886
 10
37.2108559409
 20
36.1905870713
 10
36.8560367065
 20
36.0632455023
 10
36.4875471233
 20
35.9495695889
 10
36.1069641332
 20
35.8500468452
 10
35.7159185039
 20
35.7651031865
 10
35.3160833895
 20
35.6951023418
 10
34.9091721302
 20
35.6403435077
 10
34.4969266658
 20
35.6010619349
 10
34.0811123293
 20
35.5774254079
 10
33.6635098535
 20
35.5695354191
 10
33.2459073777
 20
35.5774254079
 10
32.8300930412
 20
35.6010619349
 10
32.4178475768
 20
35.6403435077
 10
32.0109363175
 20
35.6951023418
 10
31.6111012031
 20
35.7651031865
 10
31.2200555738
 20
35.8500468452
 10
30.8394725837
 20
35.9495695889
 10
30.4709830005
 20
36.0632455023
 10
30.1161637661
 20
36.1905870713
 10
29.7765352095
 20
36.3310492886
 10
29.453551074
 20
36.4840314147
 10
29.1485947035
 20
36.6488769771
 10
28.8629720031
 20
36.8248808105
 10
28.5979058651
 20
37.0112896438
 10
28.3545311833
 20
37.2073050327
 10
28.1338907455
 20
37.4120868804
 10
27.9369290741
 20
37.6247593036
 10
27.7644891995
 20
37.8444106328
 10
27.6173091397
 20
38.070101039
 10
27.4960213142
 20
38.3008637065
 10
27.4011425702
 20
38.5357107002
 10
27.3330806365
 20
38.7736358983
 10
27.2921264963
 20
39.0136211527
 10
27.2784555609
 20
39.2546386351
 10
27.2921264963
 20
39.4956558242
 10
27.3330806365
 20
39.7356410785
 10
27.4011425702
 20
39.97356657
 10
27.4960213142
 20
40.2084135637
 10
27.6173091397
 20
40.4391762312
 10
27.7644891995
 20
40.664866344
 10
27.9369290741
 20
40.8845179666
 10
28.1338907455
 20
41.0971900964
 10
28.3545311833
 20
41.3019722375
 10
28.5979058651
 20
41.4979873331
 10
28.8629720031
 20
41.6843960197
  0
LWPOLYLINE
  5
261
330
1F
100
AcDbEntity
  8
0
  6
Continuous
 62
     7
370
    15
100
AcDbPolyline
 90
       42
 70
   128
 43
0.0
 10
39.4971408096
 20
35.4774169099
 10
39.1513640573
 20
35.2890380727
 10
38.7873580224
 20
35.1124692858
 10
38.406330344
 20
34.948297209
 10
38.0095479144
 20
34.797067436
 10
37.5983283715
 20
34.659281561
 10
37.1740371663
 20
34.5353983522
 10
36.7380849224
 20
34.4258284713
 10
36.2919189299
 20
34.3309362341
 10
35.8370218249
 20
34.2510366771
 10
35.3749048433
 20
34.1863949705
 10
34.9071023941
 20
34.1372270052
 10
34.4351689059
 20
34.1036952859
 10
33.960672099
 20
34.0859106913
 10
33.4851880352
 20
34.0839336475
 10
33.0102963328
 20
34.0977694344
 10
32.5375746671
 20
34.127372879
 10
32.0685931048
 20
34.1726454227
 10
31.6049097413
 20
34.2334362938
 10
31.1480647788
 20
34.3095442679
 10
30.6995759065
 20
34.400715908
 10
30.2609332404
 20
34.5066490843
 10
29.833593457
 20
34.6269906274
 10
29.4189762734
 20
34.7613416087
 10
29.0184582869
 20
34.9092561667
 10
28.6333712154
 20
35.0702420936
 10
28.2649939776
 20
35.2437649424
 10
27.914550346
 20
35.429248613
 10
27.5832036671
 20
35.6260765259
 10
27.2720551015
 20
35.8335951419
 10
26.9821383439
 20
36.0511145491
 10
26.71441669
 20
36.2779125692
 10
26.4697789294
 20
36.5132359307
 10
26.2490381728
 20
36.7563026161
 10
26.0529277449
 20
37.0063053814
 10
25.8820982517
 20
37.2624135161
 10
25.7371181665
 20
37.5237763635
 10
25.6184691372
 20
37.7895262535
 10
25.5265448124
 20
38.0587790898
 10
25.4616502554
 20
38.3306419758
 10
25.4240019437
 20
38.6042108689
 10
25.4135101182
 20
38.8442688691
  0
LWPOLYLINE
  5
262
330
1F
100
AcDbEntity
  8
0
  6
Continuous
 62
     7
370
    15
100
AcDbPolyline
 90
       15
 70
   128
 43
0.0
 10
41.9135095888
 20
38.8442688691
 10
41.9081563173
 20
38.6727632503
 10
41.8773425933
 20
38.3989098272
 10
41.8192427311
 20
38.1265353737
 10
41.7340509153
 20
37.8565456926
 10
41.6220487425
 20
37.5898372004
 10
41.483609915
 20
37.3272951666
 10
41.3191932011
 20
37.0697925413
 10
41.1293453675
 20
36.8181852612
 10
40.9146964872
 20
36.5733075567
 10
40.6759599384
 20
36.3359742984
 10
40.4139282988
 20
36.1069727839
 10
40.1294733448
 20
35.8870644976
 10
39.8235384257
 20
35.6769804178
 10
39.4971408096
 20
35.4774169099
  0
LWPOLYLINE
  5
263
330
1F
100
AcDbEntity
  8
0
  6
Continuous
 62
     7
370
    15
100
AcDbPolyline
 90
       91
 70
   128
 43
0.0
 10
37.3517543399
 20
36.8659200164
 10
37.6387354514
 20
37.0203723122
 10
37.9063497465
 20
37.1860022388
 10
38.1532936671
 20
37.3620019657
 10
38.3783633871
 20
37.5475161426
 10
38.5804630258
 20
37.7416383801
 10
38.7586075812
 20
37.9434247423
 10
38.9119293833
 20
38.1518919874
 10
39.0396816142
 20
38.3660234338
 10
39.141241241
 20
38.5847771734
 10
39.216114296
 20
38.8070863653
 10
39.2639352902
 20
39.0318686219
 10
39.2844719063
 20
39.2580283559
 10
39.2776238254
 20
39.4844641135
 10
39.2434239005
 20
39.7100723872
 10
39.1820393297
 20
39.9337543632
 10
39.0937693094
 20
40.1544203207
 10
38.9790438613
 20
40.3709949122
 10
38.8384208992
 20
40.5824227364
 10
38.6725868149
 20
40.7876744987
 10
38.4823488525
 20
40.9857499438
 10
38.2686339347
 20
41.175683723
 10
38.0324830894
 20
41.3565508203
 10
37.7750473433
 20
41.5274700725
 10
37.497580682
 20
41.6876087159
 10
37.2014347698
 20
41.8361864928
 10
36.8880524966
 20
41.9724796117
 10
36.5589603517
 20
42.0958242668
 10
36.2157619697
 20
42.2056191318
 10
35.8601291846
 20
42.3013295395
 10
35.4937949899
 20
42.3824893152
 10
35.1185435648
 20
42.448702537
 10
34.7362033817
 20
42.4996474218
 10
34.3486371589
 20
42.5350751525
 10
33.9577330246
 20
42.5548132512
 10
33.5653956436
 20
42.5587657989
 10
33.1735361337
 20
42.5469132158
 10
32.7840637796
 20
42.5193134346
 10
32.398875876
 20
42.4761008005
 10
32.0198491479
 20
42.4174860709
 10
31.6488301806
 20
42.343754656
 10
31.2876266199
 20
42.2552657383
 10
30.9379980055
 20
42.1524502927
 10
30.6016482911
 20
42.0358095468
 10
30.280214991
 20
41.9059116074
 10
29.9752653671
 20
41.7633891871
 10
29.6882842557
 20
41.6089368914
 10
29.4206699605
 20
41.4433071114
 10
29.1737260399
 20
41.2673067979
 10
28.9486563199
 20
41.0817932076
 10
28.7465566812
 20
40.8876703835
 10
28.5684121258
 20
40.6858840212
 10
28.4150903237
 20
40.4774170695
 10
28.2873380928
 20
40.2632853298
 10
28.1857784661
 20
40.0445318835
 10
28.110905411
 20
39.8222226916
 10
28.0630844168
 20
39.597440435
 10
28.0425478007
 20
39.371280701
 10
28.0493958816
 20
39.1448449434
 10
28.0835958065
 20
38.9192366697
 10
28.1449803774
 20
38.6955546937
 10
28.2332503977
 20
38.4748887362
 10
28.3479758457
 20
38.258314438
 10
28.4885988079
 20
38.0468863205
 10
28.6544328921
 20
37.8416345582
 10
28.8446708545
 20
37.6435594064
 10
29.0583857723
 20
37.4536253339
 10
29.2945366176
 20
37.2727580899
 10
29.5519723637
 20
37.1018388378
 10
29.829439025
 20
36.9417006343
 10
30.1255849373
 20
36.7931225641
 10
30.4389672104
 20
36.6568291519
 10
30.7680593553
 20
36.5334850834
 10
31.1112577373
 20
36.4236899251
 10
31.4668905224
 20
36.3279792974
 10
31.8332247171
 20
36.246819595
 10
32.2084761422
 20
36.1806062266
 10
32.5908163254
 20
36.1296618551
 10
32.9783825482
 20
36.094234051
 10
33.3692866824
 20
36.074495879
 10
33.7616240634
 20
36.0705435514
 10
34.1534835733
 20
36.0823958411
 10
34.5429559274
 20
36.1099958423
 10
34.928143831
 20
36.1532080364
 10
35.3071705591
 20
36.211822986
 10
35.6781895264
 20
36.2855544009
 10
36.0393930871
 20
36.3740432453
 10
36.3890217015
 20
36.4768589109
 10
36.725371416
 20
36.5934998035
 10
37.0468047161
 20
36.7233974495
 10
37.3517543399
 20
36.8659200164
  0
LWPOLYLINE
  5
264
330
1F
100
AcDbEntity
  8
0
  6
Continuous
 62
     7
370
    15
100
AcDbPolyline
 90
       44
 70
   128
 43
0.0
 10
31.1214682594
 20
38.9069787046
 10
30.976504014
 20
38.834725086
 10
30.8513128469
 20
38.7510597591
 10
30.7485625939
 20
38.6577658769
 10
30.6704432563
 20
38.5568316296
 10
30.6186200683
 20
38.4504085923
 10
30.5941974171
 20
38.3407647922
 10
30.5976956701
 20
38.2302368957
 10
30.6290406146
 20
38.1211809289
 10
30.6875637519
 20
38.0159212382
 10
30.7720178429
 20
37.9167006244
 10
30.8806033085
 20
37.8256351697
 10
31.0110054821
 20
37.7446643718
 10
31.1604450625
 20
37.6755147706
 10
31.325737073
 20
37.6196594692
 10
31.5033587678
 20
37.5782899737
 10
31.6895242838
 20
37.5522868608
 10
31.880265747
 20
37.5422056973
 10
32.0715178977
 20
37.5482600273
 10
32.2592047695
 20
37.5703213725
 10
32.4393257087
 20
37.6079192315
 10
32.6080421264
 20
37.6602528136
 10
32.761757944
 20
37.7262062917
 10
32.897196886
 20
37.8043746153
 10
33.0114725126
 20
37.8930910838
 10
33.1021490851
 20
37.9904648923
 10
33.1672941458
 20
38.094420438
 10
33.2055191809
 20
38.20274308
 10
33.2160093564
 20
38.3131231382
 10
33.1985411915
 20
38.4232086932
 10
33.153487032
 20
38.530653692
 10
33.0818070567
 20
38.6331669344
 10
32.9850291114
 20
38.728564579
 10
32.8652157088
 20
38.8148129693
 10
32.7249205428
 20
38.8900738066
 10
32.5671337456
 20
38.9527434559
 10
32.3952181983
 20
39.0014857995
 10
32.2128381051
 20
39.035262156
 10
32.023880528
 20
39.0533526937
 10
31.832372887
 20
39.0553716837
 10
31.6423965749
 20
39.0412760065
 10
31.4580007184
 20
39.0113666187
 10
31.2831154987
 20
38.9662803396
 10
31.1214682594
 20
38.9069787046
  0
LWPOLYLINE
  5
265
330
1F
100
AcDbEntity
  8
0
  6
Continuous
 62
     7
370
    15
100
AcDbPolyline
 90
       56
 70
   128
 43
0.0
 10
33.2629980269
 20
40.8025800598
 10
33.0823460872
 20
40.7095965206
 10
32.9212366683
 20
40.6053341517
 10
32.7817702328
 20
40.4911519508
 10
32.6657649129
 20
40.3685385672
 10
32.5747328978
 20
40.2390926493
 10
32.5098610739
 20
40.1045014307
 10
32.4719951113
 20
39.9665196114
 10
32.4616285377
 20
39.8269458904
 10
32.4788967249
 20
39.6876000868
 10
32.5235743221
 20
39.5502987929
 10
32.5950789961
 20
39.4168313214
 10
32.6924785443
 20
39.2889385855
 10
32.8145033613
 20
39.1682869926
 10
32.9595623522
 20
39.0564499646
 10
33.1257647489
 20
38.9548853512
 10
33.310943723
 20
38.8649172439
 10
33.5126852242
 20
38.7877180823
 10
33.7283592194
 20
38.7242948683
 10
33.9551540494
 20
38.6754742056
 10
34.1901131135
 20
38.6418923269
 10
34.4301733503
 20
38.6239871738
 10
34.6722051676
 20
38.6219925301
 10
34.913053472
 20
38.6359336224
 10
35.149578313
 20
38.665629466
 10
35.3786962795
 20
38.7106925721
 10
35.5974202461
 20
38.7705354008
 10
35.8028990458
 20
38.8443779878
 10
35.9924539893
 20
38.9312576241
 10
36.1636137721
 20
39.030041763
 10
36.3141471798
 20
39.1394423925
 10
36.4420918351
 20
39.2580336359
 10
36.5457795706
 20
39.3842690576
 10
36.623858722
 20
39.51650337
 10
36.6753117276
 20
39.6530123797
 10
36.6994674485
 20
39.7920170406
 10
36.6960108485
 20
39.9317042802
 10
36.6649873935
 20
40.0702539864
 10
36.6068012924
 20
40.2058595398
 10
36.5222110962
 20
40.3367530411
 10
36.412320019
 20
40.4612284831
 10
36.2785598042
 20
40.5776625781
 10
36.122674885
 20
40.6845376368
 10
35.9466971579
 20
40.780460342
 10
35.7529210498
 20
40.8641808149
 10
35.5438722781
 20
40.9346066946
 10
35.322276318
 20
40.9908204452
 10
35.0910223228
 20
41.0320888885
 10
34.8531248443
 20
41.0578744973
 10
34.6116849668
 20
41.0678406755
 10
34.3698504138
 20
41.0618576246
 10
34.1307739323
 20
41.0400035171
 10
33.8975723363
 20
41.0025630296
 10
33.6732855575
 20
40.9500244099
 10
33.4608376531
 20
40.8830724366
 10
33.2629980269
 20
40.8025800598
  0
LWPOLYLINE
  5
266
330
1F
100
AcDbEntity
  8
0
  6
Continuous
 62
     7
370
    15
100
AcDbPolyline
 90
       23
 70
   128
 43
0.0
 10
29.4223190614
 20
39.7036593146
 10
29.3397205756
 20
39.6679730869
 10
29.2778883832
 20
39.6203016909
 10
29.2418310931
 20
39.5645074021
 10
29.2344705648
 20
39.505110435
 10
29.2564025515
 20
39.4469222805
 10
29.3058506469
 20
39.3946576309
 10
29.3788088441
 20
39.3525501173
 10
29.4693659579
 20
39.3240114604
 10
29.5701866866
 20
39.3113536866
 10
29.673101791
 20
39.3156016908
 10
29.7697748343
 20
39.3364119838
 10
29.8523730268
 20
39.3720982115
 10
29.9142055125
 20
39.4197696075
 10
29.9502628026
 20
39.4755636029
 10
29.9576233309
 20
39.5349608635
 10
29.9356910509
 20
39.5931490179
 10
29.8862432488
 20
39.6454136675
 10
29.8132850516
 20
39.6875211811
 10
29.7227276444
 20
39.7160595447
 10
29.6219072091
 20
39.7287176118
 10
29.5189918113
 20
39.7244696076
 10
29.4223190614
 20
39.7036593146
  0
LWPOLYLINE
  5
267
330
1F
100
AcDbEntity
  8
0
  6
Continuous
 62
     7
370
    15
100
AcDbPolyline
 90
       23
 70
   128
 43
0.0
 10
34.546540346
 20
37.2220894486
 10
34.4639418602
 20
37.1864035142
 10
34.4021094478
 20
37.1387321182
 10
34.3660523043
 20
37.0829378294
 10
34.3586916294
 20
37.0235408623
 10
34.380623616
 20
36.9653530011
 10
34.4300717115
 20
36.9130880582
 10
34.503029762
 20
36.8709805446
 10
34.5935871692
 20
36.8424418877
 10
34.6944076778
 20
36.8297841139
 10
34.7973230023
 20
36.8340321181
 10
34.8939956788
 20
36.8548421177
 10
34.9765941646
 20
36.8905286388
 10
35.0384266504
 20
36.9382000348
 10
35.0744837938
 20
36.9939943236
 10
35.0818444688
 20
37.0533912908
 10
35.0599121888
 20
37.1115791519
 10
35.0104640934
 20
37.1638440948
 10
34.9375060429
 20
37.2059516084
 10
34.8469486357
 20
37.2344902654
 10
34.7461284203
 20
37.2471480391
 10
34.6432130226
 20
37.2429000349
 10
34.546540346
 20
37.2220894486
  0
LWPOLYLINE
  5
268
330
1F
100
AcDbEntity
  8
0
  6
Continuous
 62
     7
370
    15
100
AcDbPolyline
 90
       23
 70
   128
 43
0.0
 10
36.3768992549
 20
41.1645640248
 10
36.2943007691
 20
41.1288776504
 10
36.2324682833
 20
41.0812064011
 10
36.1964112865
 20
41.0254121123
 10
36.1890504649
 20
40.9660149985
 10
36.2109824516
 20
40.9078271373
 10
36.260430547
 20
40.8555621944
 10
36.3333887442
 20
40.8134549742
 10
36.4239461514
 20
40.7849163172
 10
36.5247662934
 20
40.7722582501
 10
36.6276816911
 20
40.7765062543
 10
36.724354441
 20
40.7973165473
 10
36.8069529269
 20
40.833002775
 10
36.8687854126
 20
40.880674171
 10
36.9048424094
 20
40.9364684598
 10
36.912203231
 20
40.995865427
 10
36.8902712444
 20
41.0540534348
 10
36.8408231489
 20
41.106318231
 10
36.7678649517
 20
41.1484255979
 10
36.6773075445
 20
41.1769642549
 10
36.5764874025
 20
41.189622322
 10
36.4735720048
 20
41.1853741711
 10
36.3768992549
 20
41.1645640248
  0
ARC
  5
269
330
1F
100
AcDbEntity
  8
0
  6
Continuous
 62
     7
370
    15
100
AcDbCircle
 10
34.5468597181
 20
36.9990180139
 30
0.0
 40
0.1348167740979498
100
AcDbArc
 50
110.6583181145
 51
241.6338136523
  0
LWPOLYLINE
  5
26A
330
1F
100
AcDbEntity
  8
0
  6
Continuous
 62
     7
370
    15
100
AcDbPolyline
 90
       12
 70
   128
 43
0.0
 10
34.9577285026
 20
36.8803882226
 10
34.9717049411
 20
36.8905339188
 10
35.0152314383
 20
36.9380656897
 10
35.0325494916
 20
36.9908903061
 10
35.0221198521
 20
37.0443139023
 10
34.9848692957
 20
37.093589813
 10
34.9241077576
 20
37.1343403823
 10
34.8452342688
 20
37.1629429852
 10
34.7552569949
 20
37.1768573845
 10
34.6621706436
 20
37.1748474877
 10
34.5742466059
 20
37.1570910528
 10
34.4992971384
 20
37.1251661949
  0
LWPOLYLINE
  5
26B
330
1F
100
AcDbEntity
  8
0
  6
Continuous
 62
     7
370
    15
100
AcDbPolyline
 90
        3
 70
   128
 43
0.0
 10
34.449100025
 20
36.9860122291
 10
34.4439819308
 20
36.9806460511
 10
34.4203344773
 20
36.9470022798
  0
LINE
  5
26C
330
1F
100
AcDbEntity
  8
0
  6
Continuous
 62
     7
370
    15
100
AcDbLine
 10
35.0202014742
 20
36.9470022798
 30
0.0
 11
34.9864789438
 21
36.9908316401
 31
0.0
  0
LWPOLYLINE
  5
26D
330
1F
100
AcDbEntity
  8
0
  6
Continuous
 62
     7
370
    15
100
AcDbPolyline
 90
        3
 70
   128
 43
0.0
 10
30.6254364696
 20
38.3248522294
 10
30.6186200683
 20
38.3066798527
 10
30.5981503315
 20
38.2274291415
  0
LWPOLYLINE
  5
26E
330
1F
100
AcDbEntity
  8
0
  6
Continuous
 62
     7
370
    15
100
AcDbPolyline
 90
        3
 70
   128
 43
0.0
 10
33.210306069
 20
38.2274291415
 10
33.1985411915
 20
38.2794799535
 10
33.1830198575
 20
38.3248522294
  0
LWPOLYLINE
  5
26F
330
1F
100
AcDbEntity
  8
0
  6
Continuous
 62
     7
370
    15
100
AcDbPolyline
 90
        3
 70
   128
 43
0.0
 10
32.4808137094
 20
39.8658420278
 10
32.4719951113
 20
39.8227905784
 10
32.4650722313
 20
39.7725531321
  0
LWPOLYLINE
  5
270
330
1F
100
AcDbEntity
  8
0
  6
Continuous
 62
     7
370
    15
100
AcDbPolyline
 90
        3
 70
   128
 43
0.0
 10
36.6977523483
 20
39.7725531321
 10
36.6960108485
 20
39.7879755406
 10
36.6820110902
 20
39.8658420278
  0
LWPOLYLINE
  5
271
330
1F
100
AcDbEntity
  8
0
  6
Continuous
 62
     7
370
    15
100
AcDbPolyline
 90
        7
 70
   128
 43
0.0
 10
29.3750759272
 20
39.6067357676
 10
29.3197609395
 20
39.5634789873
 10
29.2889950283
 20
39.5127343735
 10
29.2855120285
 20
39.4590098208
 10
29.30962111
 20
39.4070798607
 10
29.3591806708
 20
39.3615582799
 10
29.3602011657
 20
39.3608774611
  0
LWPOLYLINE
  5
272
330
1F
100
AcDbEntity
  8
0
  6
Continuous
 62
     7
370
    15
100
AcDbPolyline
 90
       12
 70
   128
 43
0.0
 10
29.833507218
 20
39.3619580887
 10
29.8474838032
 20
39.3721034915
 10
29.8910104471
 20
39.419634969
 10
29.9083283537
 20
39.4724595855
 10
29.8978987142
 20
39.5258837683
 10
29.8606481578
 20
39.5751596791
 10
29.7998869131
 20
39.6159096617
 10
29.7210131309
 20
39.6445128512
 10
29.6310359303
 20
39.6584272505
 10
29.5379494323
 20
39.6564170604
 10
29.4500255414
 20
39.6386606255
 10
29.3750759272
 20
39.6067357676
  0
LWPOLYLINE
  5
273
330
1F
100
AcDbEntity
  8
0
  6
Continuous
 62
     7
370
    15
100
AcDbPolyline
 90
        3
 70
   128
 43
0.0
 10
29.3248789604
 20
39.4675820952
 10
29.3197609395
 20
39.4622156238
 10
29.2961135594
 20
39.4285718525
  0
LINE
  5
274
330
1F
100
AcDbEntity
  8
0
  6
Continuous
 62
     7
370
    15
100
AcDbLine
 10
29.8959803363
 20
39.4285718525
 30
0.0
 11
29.8622579526
 21
39.4724015061
 31
0.0
  0
ARC
  5
275
330
1F
100
AcDbEntity
  8
0
  6
Continuous
 62
     7
370
    15
100
AcDbCircle
 10
36.3772191286
 20
40.9414921116
 30
0.0
 40
0.1348172018648806
100
AcDbArc
 50
110.6585773138
 51
241.633704967
  0
LWPOLYLINE
  5
276
330
1F
100
AcDbEntity
  8
0
  6
Continuous
 62
     7
370
    15
100
AcDbPolyline
 90
       12
 70
   128
 43
0.0
 10
36.7880871181
 20
40.8228626522
 10
36.8020637033
 20
40.833008055
 10
36.8455903472
 20
40.8805395325
 10
36.8629082538
 20
40.9333644423
 10
36.8524786143
 20
40.9867883318
 10
36.8152283513
 20
41.0360643892
 10
36.7544665198
 20
41.0768142252
 10
36.675593031
 20
41.1054172681
 10
36.5856158304
 20
41.1193319607
 10
36.4925296258
 20
41.1173217706
 10
36.4046054415
 20
41.0995653357
 10
36.3296558273
 20
41.0676404778
  0
LWPOLYLINE
  5
277
330
1F
100
AcDbEntity
  8
0
  6
Continuous
 62
     7
370
    15
100
AcDbPolyline
 90
        3
 70
   128
 43
0.0
 10
36.2794588605
 20
40.9284866587
 10
36.2743408396
 20
40.9231201873
 10
36.2506934595
 20
40.889476416
  0
LINE
  5
278
330
1F
100
AcDbEntity
  8
0
  6
Continuous
 62
     7
370
    15
100
AcDbLine
 10
36.8505602364
 20
40.889476416
 30
0.0
 11
36.8168378527
 21
40.9333060696
 31
0.0
  0
LWPOLYLINE
  5
279
330
1F
100
AcDbEntity
  8
0
  6
Continuous
 62
     8
370
    15
100
AcDbPolyline
 90
        8
 70
   128
 43
0.0
 10
33.1162892384
 20
49.0350776773
 10
33.0833448023
 20
49.067075281
 10
33.0629382047
 20
49.1239496106
 10
33.0629385347
 20
49.1965329321
 10
33.0833456089
 20
49.2769628297
 10
33.1219481597
 20
49.356520364
 10
33.1745629719
 20
49.4265857412
 10
33.1965503612
 20
49.4486025002
  0
LWPOLYLINE
  5
27A
330
1F
100
AcDbEntity
  8
0
  6
Continuous
 62
     8
370
    15
100
AcDbPolyline
 90
        3
 70
   128
 43
0.0
 10
31.4779519946
 20
45.8658611684
 10
31.4740259199
 20
45.8758622528
 10
31.4735337123
 20
45.88505316
  0
LWPOLYLINE
  5
27B
330
1F
100
AcDbEntity
  8
0
  6
Continuous
 62
     8
370
    15
100
AcDbPolyline
 90
        6
 70
   128
 43
0.0
 10
31.5666675831
 20
45.8157736136
 10
31.5681506593
 20
45.8161876489
 10
31.571953682
 20
45.819200734
 10
31.5750757393
 20
45.8248147759
 10
31.5773711928
 20
45.832768564
 10
31.5787335637
 20
45.8426917693
  0
LWPOLYLINE
  5
27C
330
1F
100
AcDbEntity
  8
0
  6
Continuous
 62
     8
370
    15
100
AcDbPolyline
 90
        3
 70
   128
 43
0.0
 10
31.4779519946
 20
45.4512416381
 10
31.4740259199
 20
45.4612425759
 10
31.4735337123
 20
45.470433483
  0
LWPOLYLINE
  5
27D
330
1F
100
AcDbEntity
  8
0
  6
Continuous
 62
     8
370
    15
100
AcDbPolyline
 90
        6
 70
   128
 43
0.0
 10
31.5666675831
 20
45.4011540834
 10
31.5681506593
 20
45.4015679719
 10
31.571953682
 20
45.4045801771
 10
31.5750757393
 20
45.4101950989
 10
31.5773711928
 20
45.418148887
 10
31.5787335637
 20
45.4280722391
  0
LWPOLYLINE
  5
27E
330
1F
100
AcDbEntity
  8
0
  6
Continuous
 62
     8
370
    15
100
AcDbPolyline
 90
        4
 70
   128
 43
0.0
 10
32.0543476827
 20
46.2991100834
 10
32.0629101304
 20
46.3136504488
 10
32.0696754923
 20
46.3189823072
 10
32.0704814163
 20
46.3181325303
  0
LWPOLYLINE
  5
27F
330
1F
100
AcDbEntity
  8
0
  6
Continuous
 62
     8
370
    15
100
AcDbPolyline
 90
        3
 70
   128
 43
0.0
 10
32.1149713557
 20
46.2364917668
 10
32.11777031
 20
46.243397927
 10
32.1182547444
 20
46.2477066506
  0
LWPOLYLINE
  5
280
330
1F
100
AcDbEntity
  8
0
  6
Continuous
 62
     8
370
    15
100
AcDbPolyline
 90
        4
 70
   128
 43
0.0
 10
32.0543476827
 20
45.8844905531
 10
32.0629101304
 20
45.8990307718
 10
32.0696754923
 20
45.9043627769
 10
32.0704814163
 20
45.9035128534
  0
LWPOLYLINE
  5
281
330
1F
100
AcDbEntity
  8
0
  6
Continuous
 62
     8
370
    15
100
AcDbPolyline
 90
        3
 70
   128
 43
0.0
 10
32.1149713557
 20
45.8218723832
 10
32.11777031
 20
45.8287782501
 10
32.1182547444
 20
45.8330871203
  0
LWPOLYLINE
  5
282
330
1F
100
AcDbEntity
  8
0
  6
Continuous
 62
     8
370
    15
100
AcDbPolyline
 90
        8
 70
   128
 43
0.0
 10
30.4288270875
 20
46.7604421141
 10
30.4223879086
 20
46.7620507355
 10
30.4120389348
 20
46.7658751713
 10
30.4032575162
 20
46.7708362607
 10
30.3964114886
 20
46.7767260326
 10
30.391788022
 20
46.7832972101
 10
30.3895810075
 20
46.7902743561
 10
30.3893988496
 20
46.7930278443
  0
ARC
  5
283
330
1F
100
AcDbEntity
  8
0
  6
Continuous
 62
     8
370
    15
100
AcDbCircle
 10
30.4369380467
 20
46.8446695861
 30
0.0
 40
0.034890564651831
100
AcDbArc
 50
103.4429449217
 51
148.3489202101
  0
LWPOLYLINE
  5
284
330
1F
100
AcDbEntity
  8
0
  6
Continuous
 62
     8
370
    15
100
AcDbPolyline
 90
        8
 70
   128
 43
0.0
 10
30.4288270875
 20
46.7106877822
 10
30.4223879086
 20
46.7122961103
 10
30.4120389348
 20
46.7161205461
 10
30.4032575162
 20
46.7210819288
 10
30.3964114886
 20
46.7269717007
 10
30.391788022
 20
46.7335428782
 10
30.3895810075
 20
46.7405197309
 10
30.3893988496
 20
46.7432171931
  0
ARC
  5
285
330
1F
100
AcDbEntity
  8
0
  6
Continuous
 62
     8
370
    15
100
AcDbCircle
 10
30.4374377761
 20
46.4293526355
 30
0.0
 40
0.0356865226004507
100
AcDbArc
 50
103.9629889781
 51
147.6114449591
  0
ARC
  5
286
330
1F
100
AcDbEntity
  8
0
  6
Continuous
 62
     8
370
    15
100
AcDbCircle
 10
30.4318642397
 20
46.3896406326
 30
0.0
 40
0.0439240573548066
100
AcDbArc
 50
194.8072289
 51
266.0350893292
  0
ARC
  5
287
330
1F
100
AcDbEntity
  8
0
  6
Continuous
 62
     8
370
    15
100
AcDbCircle
 10
30.4318817775
 20
46.3399301724
 30
0.0
 40
0.0439684538272341
100
AcDbArc
 50
194.9361122113
 51
266.0161904398
  0
LWPOLYLINE
  5
288
330
1F
100
AcDbEntity
  8
0
  6
Continuous
 62
     8
370
    15
100
AcDbPolyline
 90
        3
 70
   128
 43
0.0
 10
34.4502781847
 20
36.9565149699
 10
34.4560145451
 20
36.9231897549
 10
34.4844225236
 20
36.8793075951
  0
LWPOLYLINE
  5
289
330
1F
100
AcDbEntity
  8
0
  6
Continuous
 62
     8
370
    15
100
AcDbPolyline
 90
        3
 70
   128
 43
0.0
 10
34.9566227954
 20
36.879837349
 10
34.979043323
 20
36.9107050457
 10
34.9902609934
 20
36.9562820659
  0
LINE
  5
28A
330
1F
100
AcDbEntity
  8
0
  6
Continuous
 62
     8
370
    15
100
AcDbLine
 10
34.6219801878
 20
36.9964272021
 30
0.0
 11
34.6219801878
 21
36.9507193568
 31
0.0
  0
LINE
  5
28B
330
1F
100
AcDbEntity
  8
0
  6
Continuous
 62
     8
370
    15
100
AcDbLine
 10
34.818555837
 20
36.9507193568
 30
0.0
 11
34.818555837
 21
36.9964272021
 31
0.0
  0
LWPOLYLINE
  5
28C
330
1F
100
AcDbEntity
  8
0
  6
Continuous
 62
     8
370
    15
100
AcDbPolyline
 90
        3
 70
   128
 43
0.0
 10
29.3260569735
 20
39.4380845426
 10
29.3317933339
 20
39.4047596209
 10
29.3602011657
 20
39.3608774611
  0
LWPOLYLINE
  5
28D
330
1F
100
AcDbEntity
  8
0
  6
Continuous
 62
     8
370
    15
100
AcDbPolyline
 90
        3
 70
   128
 43
0.0
 10
29.8324016575
 20
39.361407215
 10
29.8548220385
 20
39.3922746184
 10
29.8660398555
 20
39.4378519319
  0
LINE
  5
28E
330
1F
100
AcDbEntity
  8
0
  6
Continuous
 62
     8
370
    15
100
AcDbLine
 10
29.4977591233
 20
39.4779967748
 30
0.0
 11
29.4977591233
 21
39.4322892229
 31
0.0
  0
LINE
  5
28F
330
1F
100
AcDbEntity
  8
0
  6
Continuous
 62
     8
370
    15
100
AcDbLine
 10
29.6943347724
 20
39.4322892229
 30
0.0
 11
29.6943347724
 21
39.4779967748
 31
0.0
  0
LWPOLYLINE
  5
290
330
1F
100
AcDbEntity
  8
0
  6
Continuous
 62
     8
370
    15
100
AcDbPolyline
 90
        3
 70
   128
 43
0.0
 10
36.2806368736
 20
40.8989893994
 10
36.286373234
 20
40.8656641844
 10
36.3147813591
 20
40.8217820247
  0
LWPOLYLINE
  5
291
330
1F
100
AcDbEntity
  8
0
  6
Continuous
 62
     8
370
    15
100
AcDbPolyline
 90
        3
 70
   128
 43
0.0
 10
36.7869815576
 20
40.8223117785
 10
36.8094022319
 20
40.8531791819
 10
36.820620049
 20
40.8987564954
  0
LINE
  5
292
330
1F
100
AcDbEntity
  8
0
  6
Continuous
 62
     8
370
    15
100
AcDbLine
 10
36.4523390234
 20
40.9389013383
 30
0.0
 11
36.4523390234
 21
40.8931937864
 31
0.0
  0
LINE
  5
293
330
1F
100
AcDbEntity
  8
0
  6
Continuous
 62
     8
370
    15
100
AcDbLine
 10
36.6489146725
 20
40.8931937864
 30
0.0
 11
36.6489146725
 21
40.9389013383
 31
0.0
  0
ENDSEC
  0
SECTION
  2
OBJECTS
  0
DICTIONARY
  5
C
330
0
100
AcDbDictionary
281
     1
  3
ACAD_GROUP
350
D
  3
ACAD_LAYOUT
350
1A
  3
ACAD_MLINESTYLE
350
17
  3
ACAD_PLOTSETTINGS
350
19
  3
ACAD_PLOTSTYLENAME
350
E
  0
DICTIONARY
  5
D
102
{ACAD_REACTORS
330
C
102
}
330
C
100
AcDbDictionary
281
     1
  0
DICTIONARY
  5
1A
102
{ACAD_REACTORS
330
C
102
}
330
C
100
AcDbDictionary
281
     1
  3
Layout1
350
1E
  3
Layout2
350
26
  3
Model
350
22
  0
DICTIONARY
  5
17
102
{ACAD_REACTORS
330
C
102
}
330
C
100
AcDbDictionary
281
     1
  3
Standard
350
18
  0
DICTIONARY
  5
19
102
{ACAD_REACTORS
330
C
102
}
330
C
100
AcDbDictionary
281
     1
  0
ACDBDICTIONARYWDFLT
  5
E
102
{ACAD_REACTORS
330
C
102
}
330
C
100
AcDbDictionary
281
     1
  3
Normal
350
F
100
AcDbDictionaryWithDefault
340
F
  0
LAYOUT
  5
1E
102
{ACAD_REACTORS
330
1A
102
}
330
1A
100
AcDbPlotSettings
  1

  2
none_device
  4

  6

 40
0.0
 41
0.0
 42
0.0
 43
0.0
 44
0.0
 45
0.0
 46
0.0
 47
0.0
 48
0.0
 49
0.0
140
0.0
141
0.0
142
1.0
143
1.0
 70
   688
 72
     0
 73
     0
 74
     5
  7

 75
    16
147
1.0
148
0.0
149
0.0
100
AcDbLayout
  1
Layout1
 70
     1
 71
     1
 10
0.0
 20
0.0
 11
12.0
 21
9.0
 12
0.0
 22
0.0
 32
0.0
 14
1.0000000000E+20
 24
1.0000000000E+20
 34
1.0000000000E+20
 15
-1.0000000000E+20
 25
-1.0000000000E+20
 35
-1.0000000000E+20
146
0.0
 13
0.0
 23
0.0
 33
0.0
 16
1.0
 26
0.0
 36
0.0
 17
0.0
 27
1.0
 37
0.0
 76
     0
330
1B
  0
LAYOUT
  5
26
102
{ACAD_REACTORS
330
1A
102
}
330
1A
100
AcDbPlotSettings
  1

  2
none_device
  4

  6

 40
0.0
 41
0.0
 42
0.0
 43
0.0
 44
0.0
 45
0.0
 46
0.0
 47
0.0
 48
0.0
 49
0.0
140
0.0
141
0.0
142
1.0
143
1.0
 70
   688
 72
     0
 73
     0
 74
     5
  7

 75
    16
147
1.0
148
0.0
149
0.0
100
AcDbLayout
  1
Layout2
 70
     1
 71
     2
 10
0.0
 20
0.0
 11
0.0
 21
0.0
 12
0.0
 22
0.0
 32
0.0
 14
0.0
 24
0.0
 34
0.0
 15
0.0
 25
0.0
 35
0.0
146
0.0
 13
0.0
 23
0.0
 33
0.0
 16
1.0
 26
0.0
 36
0.0
 17
0.0
 27
1.0
 37
0.0
 76
     0
330
23
  0
LAYOUT
  5
22
102
{ACAD_REACTORS
330
1A
102
}
330
1A
100
AcDbPlotSettings
  1

  2
none_device
  4

  6

 40
0.0
 41
0.0
 42
0.0
 43
0.0
 44
0.0
 45
0.0
 46
0.0
 47
0.0
 48
0.0
 49
0.0
140
0.0
141
0.0
142
1.0
143
1.0
 70
  1712
 72
     0
 73
     0
 74
     0
  7

 75
     0
147
1.0
148
0.0
149
0.0
100
AcDbLayout
  1
Model
 70
     1
 71
     0
 10
0.0
 20
0.0
 11
44.0
 21
60.0
 12
0.0
 22
0.0
 32
0.0
 14
0.0
 24
0.0
 34
0.0
 15
44.0
 25
60.0
 35
0.0
146
0.0
 13
0.0
 23
0.0
 33
0.0
 16
1.0
 26
0.0
 36
0.0
 17
0.0
 27
1.0
 37
0.0
 76
     0
330
1F
331
29
  0
MLINESTYLE
  5
18
102
{ACAD_REACTORS
330
17
102
}
330
17
100
AcDbMlineStyle
  2
Standard
 70
     0
  3

 62
   256
 51
90.0
 52
90.0
 71
     2
 49
0.5
 62
   256
  6
BYLAYER
 49
-0.5
 62
   256
  6
BYLAYER
  0
ACDBPLACEHOLDER
  5
F
102
{ACAD_REACTORS
330
E
102
}
330
E
  0
ENDSEC
  0
EOF
