  0
SECTION
  2
HEADER
  9
$ACADVER
  1
AC1012
  9
$DWGCODEPAGE
  3
ansi_1252
  9
$INSBASE
 10
0.0
 20
0.0
 30
0.0
  9
$EXTMIN
 10
0.0
 20
0.0
 30
0.0
  9
$EXTMAX
 10
34.0
 20
22.0
 30
0.0
  9
$LIMMIN
 10
0.0
 20
0.0
  9
$LIMMAX
 10
12.0
 20
9.0
  9
$ORTHOMODE
 70
         0
  9
$REGENMODE
 70
         1
  9
$FILLMODE
 70
         1
  9
$QTEXTMODE
 70
         0
  9
$MIRRTEXT
 70
         1
  9
$DRAGMODE
 70
         2
  9
$LTSCALE
 40
1.0
  9
$OSMODE
 70
         0
  9
$ATTMODE
 70
         1
  9
$TEXTSIZE
 40
0.2
  9
$TRACEWID
 40
0.05
  9
$TEXTSTYLE
  7
STANDARD
  9
$CLAYER
  8
0
  9
$CELTYPE
  6
CONTINUOUS
  9
$CECOLOR
 62
       256
  9
$CELTSCALE
 40
1.0
  9
$DELOBJ
 70
         1
  9
$DISPSILH
 70
         0
  9
$DIMSCALE
 40
1.0
  9
$DIMASZ
 40
0.18
  9
$DIMEXO
 40
0.0625
  9
$DIMDLI
 40
0.38
  9
$DIMRND
 40
0.0
  9
$DIMDLE
 40
0.0
  9
$DIMEXE
 40
0.18
  9
$DIMTP
 40
0.0
  9
$DIMTM
 40
0.0
  9
$DIMTXT
 40
0.18
  9
$DIMCEN
 40
0.09
  9
$DIMTSZ
 40
0.0
  9
$DIMTOL
 70
         0
  9
$DIMLIM
 70
         0
  9
$DIMTIH
 70
         1
  9
$DIMTOH
 70
         1
  9
$DIMSE1
 70
         0
  9
$DIMSE2
 70
         0
  9
$DIMTAD
 70
         0
  9
$DIMZIN
 70
         0
  9
$DIMBLK
  1

  9
$DIMASO
 70
         1
  9
$DIMSHO
 70
         1
  9
$DIMPOST
  1

  9
$DIMAPOST
  1

  9
$DIMALT
 70
         0
  9
$DIMALTD
 70
         2
  9
$DIMALTF
 40
25.4
  9
$DIMLFAC
 40
1.0
  9
$DIMTOFL
 70
         0
  9
$DIMTVP
 40
0.0
  9
$DIMTIX
 70
         0
  9
$DIMSOXD
 70
         0
  9
$DIMSAH
 70
         0
  9
$DIMBLK1
  1

  9
$DIMBLK2
  1

  9
$DIMSTYLE
  2
STANDARD
  9
$DIMCLRD
 70
         0
  9
$DIMCLRE
 70
         0
  9
$DIMCLRT
 70
         0
  9
$DIMTFAC
 40
1.0
  9
$DIMGAP
 40
0.09
  9
$DIMJUST
 70
         0
  9
$DIMSD1
 70
         0
  9
$DIMSD2
 70
         0
  9
$DIMTOLJ
 70
         1
  9
$DIMTZIN
 70
         0
  9
$DIMALTZ
 70
         0
  9
$DIMALTTZ
 70
         0
  9
$DIMFIT
 70
         3
  9
$DIMUPT
 70
         0
  9
$DIMUNIT
 70
         2
  9
$DIMDEC
 70
         4
  9
$DIMTDEC
 70
         4
  9
$DIMALTU
 70
         2
  9
$DIMALTTD
 70
         2
  9
$DIMTXSTY
  7
STANDARD
  9
$DIMAUNIT
 70
         0
  9
$LUNITS
 70
         2
  9
$LUPREC
 70
         4
  9
$SKETCHINC
 40
0.1
  9
$FILLETRAD
 40
0.0
  9
$AUNITS
 70
         0
  9
$AUPREC
 70
         0
  9
$MENU
  1
acad
  9
$ELEVATION
 40
0.0
  9
$PELEVATION
 40
0.0
  9
$THICKNESS
 40
0.0
  9
$LIMCHECK
 70
         0
  9
$BLIPMODE
 70
         1
  9
$CHAMFERA
 40
0.0
  9
$CHAMFERB
 40
0.0
  9
$CHAMFERC
 40
0.0
  9
$CHAMFERD
 40
0.0
  9
$SKPOLY
 70
         0
  9
$TDCREATE
 40
0.000000000
  9
$TDUPDATE
 40
0.000000000
  9
$TDINDWG
 40
0.0000000000
  9
$TDUSRTIMER
 40
0.0000000000
  9
$USRTIMER
 70
         1
  9
$ANGBASE
 50
0.0
  9
$ANGDIR
 70
         0
  9
$PDMODE
 70
         0
  9
$PDSIZE
 40
0.0
  9
$PLINEWID
 40
0.0
  9
$COORDS
 70
         0
  9
$SPLFRAME
 70
         0
  9
$SPLINETYPE
 70
         6
  9
$SPLINESEGS
 70
         8
  9
$ATTDIA
 70
         0
  9
$ATTREQ
 70
         1
  9
$HANDLING
 70
         1
  9
$HANDSEED
  5
27A
  9
$SURFTAB1
 70
         6
  9
$SURFTAB2
 70
         6
  9
$SURFTYPE
 70
         6
  9
$SURFU
 70
         6
  9
$SURFV
 70
         6
  9
$UCSNAME
  2

  9
$UCSORG
 10
0.0
 20
0.0
 30
0.0
  9
$UCSXDIR
 10
1.0
 20
0.0
 30
0.0
  9
$UCSYDIR
 10
0.0
 20
1.0
 30
0.0
  9
$PUCSNAME
  2

  9
$PUCSORG
 10
0.0
 20
0.0
 30
0.0
  9
$PUCSXDIR
 10
1.0
 20
0.0
 30
0.0
  9
$PUCSYDIR
 10
0.0
 20
1.0
 30
0.0
  9
$USERI1
 70
         0
  9
$USERI2
 70
         0
  9
$USERI3
 70
         0
  9
$USERI4
 70
         0
  9
$USERI5
 70
         0
  9
$USERR1
 40
0.0
  9
$USERR2
 40
0.0
  9
$USERR3
 40
0.0
  9
$USERR4
 40
0.0
  9
$USERR5
 40
0.0
  9
$WORLDVIEW
 70
         1
  9
$SHADEDGE
 70
         3
  9
$SHADEDIF
 70
        70
  9
$TILEMODE
 70
         1
  9
$MAXACTVP
 70
        16
  9
$PINSBASE
 10
0.0
 20
0.0
 30
0.0
  9
$PLIMCHECK
 70
         0
  9
$PEXTMIN
 10
1.0000000000E+20
 20
1.0000000000E+20
 30
1.0000000000E+20
  9
$PEXTMAX
 10
-1.0000000000E+20
 20
-1.0000000000E+20
 30
-1.0000000000E+20
  9
$PLIMMIN
 10
0.0
 20
0.0
  9
$PLIMMAX
 10
12.0
 20
9.0
  9
$UNITMODE
 70
         0
  9
$VISRETAIN
 70
         0
  9
$PLINEGEN
 70
         1
  9
$PSLTSCALE
 70
         0
  9
$TREEDEPTH
 70
      3020
  9
$PICKSTYLE
 70
         1
  9
$CMLSTYLE
  2
STANDARD
  9
$CMLJUST
 70
         0
  9
$CMLSCALE
 40
1.0
  9
$SAVEIMAGES
 70
         0
  0
ENDSEC
  0
SECTION
  2
CLASSES
  0
CLASS
  1
LWPOLYLINE
  2
AcDbPolyline
  3
"AutoCAD"
 90
        0
280
         0
281
         1
  0
CLASS
  1
IMAGE
  2
AcDbRasterImage
  3
ISM
 90
      127
280
         0
281
         1
  0
CLASS
  1
OLE2FRAME
  2
AcDbOle2Frame
  3
""
 90
        0
280
         0
281
         1
  0
CLASS
  1
HATCH
  2
AcDbHatch
  3
"ACAD_SEDONA"
 90
        0
280
         0
281
         1
  0
CLASS
  1
DICTIONARYVAR
  2
AcDbDictionaryVar
  3
"AutoCAD"
 90
        0
280
         0
281
         0
  0
CLASS
  1
RASTERVARIABLES
  2
AcDbRasterVariables
  3
ISM
 90
        0
280
         0
281
         0
  0
CLASS
  1
IMAGEDEF
  2
AcDbRasterImageDef
  3
ISM
 90
        0
280
         0
281
         0
  0
CLASS
  1
IMAGEDEF_REACTOR
  2
AcDbRasterImageDefReactor
  3
ISM
 90
        1
280
         0
281
         0
  0
CLASS
  1
IDBUFFER
  2
AcDbIdBuffer
  3
"Acad"
 90
        0
280
         0
281
         0
  0
CLASS
  1
SPATIAL_FILTER
  2
AcDbSpatialFilter
  3
"Acad"
 90
        0
280
         0
281
         0
  0
CLASS
  1
XRECORD
  2
AcDbXrecord
  3
"<Built In>"
 90
        0
280
         0
281
         0
  0
CLASS
  1
SORTENTSTABLE
  2
AcDbSortentsTable
  3
"AutoCAD"
 90
        0
280
         0
281
         0
  0
CLASS
  1
LAYER_INDEX
  2
AcDbLayerIndex
  3
"Acad"
 90
        0
280
         0
281
         0
  0
CLASS
  1
SPATIAL_INDEX
  2
AcDbSpatialIndex
  3
"Acad"
 90
        0
280
         0
281
         0
  0
CLASS
  1
OBJECT_PTR
  2
CAseDLPNTableRecord
  3
"ASE-LPNTableRecord"
 90
        1
280
         0
281
         0
  0
CLASS
  1
LAYOUT
  2
AcDbLayout
  3
"AutoCAD 2000"
 90
        1
280
         0
281
         0
  0
CLASS
  1
PLOTSETTINGS
  2
AcDbPlotSettings
  3
"AutoCAD 2000"
 90
        1
280
         0
281
         0
  0
CLASS
  1
ACDBDICTIONARYWDFLT
  2
AcDbDictionaryWithDefault
  3
"AutoCAD 2000"
 90
        1
280
         0
281
         0
  0
CLASS
  1
ACDBPLACEHOLDER
  2
AcDbPlaceHolder
  3
"AutoCAD 2000"
 90
        1
280
         0
281
         0
  0
CLASS
  1
VBA_PROJECT
  2
AcDbVbaProject
  3
"acadvba"
 90
        1
280
         0
281
         0
  0
CLASS
  1
WIPEOUT
  2
AcDbWipeout
  3
WipeOut|AutoCAD Express Tool|expresstools@autodesk.com
 90
      127
280
         0
281
         1
  0
CLASS
  1
WIPEOUTVARIABLES
  2
AcDbWipeoutVariables
  3
WipeOut|AutoCAD Express Tool|expresstools@autodesk.com
 90
        0
280
         0
281
         0
  0
CLASS
  1
RTEXT
  2
RText
  3
RText|AutoCAD Express Tool|expresstools@autodesk.com
 90
        0
280
         0
281
         1
  0
CLASS
  1
ARCALIGNEDTEXT
  2
AcDbArcAlignedText
  3
ATEXT|AutoCAD Express Tool|expresstools@autodesk.com
 90
        0
280
         0
281
         1
  0
ENDSEC
  0
SECTION
  2
TABLES
  0
TABLE
  2
VPORT
  5
7
100
AcDbSymbolTable
 70
         1
  0
VPORT
  5
15
100
AcDbSymbolTableRecord
100
AcDbViewportTableRecord
  2
*ACTIVE
 70
         0
 10
0.0
 20
0.0
 11
1.0
 21
1.0
 12
17.0
 22
11.0
 13
0.0
 23
0.0
 14
1.0
 24
1.0
 15
0.0
 25
0.0
 16
0.0
 26
0.0
 36
1.0
 17
0.0
 27
0.0
 37
0.0
 40
22.0
 41
1.604229
 42
50.0
 43
0.0
 44
0.0
 50
0.0
 51
0.0
 71
         0
 72
       100
 73
         1
 74
         1
 75
         0
 76
         0
 77
         0
 78
         0
  0
ENDTAB
  0
TABLE
  2
LTYPE
  5
4
100
AcDbSymbolTable
 70
         7
  0
LTYPE
  5
11
100
AcDbSymbolTableRecord
100
AcDbLinetypeTableRecord
  2
BYBLOCK
 70
        64
  3

 72
        65
 73
         0
 40
0.0
  0
LTYPE
  5
12
100
AcDbSymbolTableRecord
100
AcDbLinetypeTableRecord
  2
BYLAYER
 70
        64
  3

 72
        65
 73
         0
 40
0.0
  0
LTYPE
  5
13
100
AcDbSymbolTableRecord
100
AcDbLinetypeTableRecord
  2
CONTINUOUS
 70
         0
  3
Solid line
 72
        65
 73
         0
 40
0.0
  0
LTYPE
  5
21
100
AcDbSymbolTableRecord
100
AcDbLinetypeTableRecord
  2
HIDDEN2
 70
        64
  3
_ _ _ _ _ _ _ _ _ _ _ _ _ _ _ _ _ _ _ _ _ _ _ _
 72
        65
 73
         2
 40
0.1875
 49
0.125
 74
         0
 49
-0.0625
 74
         0
  0
LTYPE
  5
22
100
AcDbSymbolTableRecord
100
AcDbLinetypeTableRecord
  2
CENTER2
 70
        64
  3
___ _ ___ _ ___ _ ___ _ ___ _ ___ _ ___ _ ___ _
 72
        65
 73
         4
 40
1.125
 49
0.75
 74
         0
 49
-0.125
 74
         0
 49
0.125
 74
         0
 49
-0.125
 74
         0
  0
LTYPE
  5
23
100
AcDbSymbolTableRecord
100
AcDbLinetypeTableRecord
  2
PHANTOM2
 70
        64
  3
___ _ _ ___ _ _ ___ _ _ ___ _ _ ___ _ _ ___ _ _
 72
        65
 73
         6
 40
1.25
 49
0.625
 74
         0
 49
-0.125
 74
         0
 49
0.125
 74
         0
 49
-0.125
 74
         0
 49
0.125
 74
         0
 49
-0.125
 74
         0
  0
LTYPE
  5
24
100
AcDbSymbolTableRecord
100
AcDbLinetypeTableRecord
  2
DOT2
 70
        64
  3
...............................................
 72
        65
 73
         2
 40
0.125
 49
0.0
 74
         0
 49
-0.125
 74
         0
  0
ENDTAB
  0
TABLE
  2
LAYER
  5
2
100
AcDbSymbolTable
 70
         3
  0
LAYER
  5
14
100
AcDbSymbolTableRecord
100
AcDbLayerTableRecord
  2
0
 70
         0
 62
         7
  6
CONTINUOUS
  0
LAYER
  5
26
100
AcDbSymbolTableRecord
100
AcDbLayerTableRecord
  2
DEFAULT
 70
         0
 62
         7
  6
CONTINUOUS
  0
LAYER
  5
28
100
AcDbSymbolTableRecord
100
AcDbLayerTableRecord
  2
1_000_022
 70
         0
 62
         7
  6
CONTINUOUS
  0
ENDTAB
  0
TABLE
  2
STYLE
  5
3
100
AcDbSymbolTable
 70
         2
  0
STYLE
  5
17
100
AcDbSymbolTableRecord
100
AcDbTextStyleTableRecord
  2
STANDARD
 70
         0
 40
0.0
 41
1.0
 50
0.0
 71
         0
 42
0.2
  3
txt
  4

  0
STYLE
  5
29
100
AcDbSymbolTableRecord
100
AcDbTextStyleTableRecord
  2
ARIAL_TTF
 70
         0
 40
0.0
 41
1.0
 50
0.0
 71
         0
 42
0.2
  3
arial.ttf
  4

1001
ACAD
1000
Arial
1071
        2
  0
ENDTAB
  0
TABLE
  2
VIEW
  5
5
100
AcDbSymbolTable
 70
         0
  0
ENDTAB
  0
TABLE
  2
UCS
  5
6
100
AcDbSymbolTable
 70
         0
  0
ENDTAB
  0
TABLE
  2
APPID
  5
8
100
AcDbSymbolTable
 70
         1
  0
APPID
  5
16
100
AcDbSymbolTableRecord
100
AcDbRegAppTableRecord
  2
ACAD
 70
         0
  0
ENDTAB
  0
TABLE
  2
DIMSTYLE
  5
9
100
AcDbSymbolTable
 70
         1
  0
DIMSTYLE
105
18
100
AcDbSymbolTableRecord
100
AcDbDimStyleTableRecord
  2
STANDARD
 70
         0
  3

  4

  5

  6

  7

 40
1.0
 41
0.18
 42
0.0625
 43
0.38
 44
0.18
 45
0.0
 46
0.0
 47
0.0
 48
0.0
 71
         0
 72
         0
 73
         1
 74
         1
 75
         0
 76
         0
 77
         0
 78
         0
140
0.18
141
0.09
142
0.0
143
25.4
144
1.0
145
0.0
146
1.0
147
0.09
170
         0
171
         2
172
         0
173
         0
174
         0
175
         0
176
         0
177
         0
178
         0
270
         2
271
         4
272
         4
273
         2
274
         2
275
         0
280
         0
281
         0
282
         0
283
         1
284
         0
285
         0
286
         0
287
         0
288
         0
340
17
  0
ENDTAB
  0
TABLE
  2
BLOCK_RECORD
  5
1
100
AcDbSymbolTable
 70
         0
  0
BLOCK_RECORD
  5
A
100
AcDbSymbolTableRecord
100
AcDbBlockTableRecord
  2
*MODEL_SPACE
  0
BLOCK_RECORD
  5
B
100
AcDbSymbolTableRecord
100
AcDbBlockTableRecord
  2
*PAPER_SPACE
  0
ENDTAB
  0
ENDSEC
  0
SECTION
  2
BLOCKS
  0
BLOCK
  5
D
100
AcDbEntity
  8
0
100
AcDbBlockBegin
  2
*MODEL_SPACE
 70
         0
 10
0.0
 20
0.0
 30
0.0
  3
*MODEL_SPACE
  1

  0
ENDBLK
  5
E
100
AcDbEntity
  8
0
100
AcDbBlockEnd
  0
BLOCK
  5
F
100
AcDbEntity
 67
         1
  8
0
100
AcDbBlockBegin
  2
*PAPER_SPACE
 70
         0
 10
0.0
 20
0.0
 30
0.0
  3
*PAPER_SPACE
  1

  0
ENDBLK
  5
10
100
AcDbEntity
 67
         1
  8
0
100
AcDbBlockEnd
  0
ENDSEC
  0
SECTION
  2
ENTITIES
  0
LINE
  5
2A
100
AcDbEntity
  8
1_000_022
  6
CONTINUOUS
 62
         7
100
AcDbLine
 10
15.3565241629
 20
17.013912669
 30
0.0
 11
15.3565241629
 21
17.0619511448
 31
0.0
  0
ARC
  5
2B
100
AcDbEntity
  8
1_000_022
  6
CONTINUOUS
 62
         7
100
AcDbCircle
 10
15.4165241629
 20
17.013912669
 30
0.0
 40
0.06
100
AcDbArc
 50
180.0
 51
270.0
  0
LINE
  5
2C
100
AcDbEntity
  8
1_000_022
  6
CONTINUOUS
 62
         7
100
AcDbLine
 10
15.4165241629
 20
16.953912669
 30
0.0
 11
15.8765241629
 21
16.953912669
 31
0.0
  0
LINE
  5
2D
100
AcDbEntity
  8
1_000_022
  6
CONTINUOUS
 62
         7
100
AcDbLine
 10
15.3565241629
 20
17.113912669
 30
0.0
 11
15.3565241629
 21
17.358912669
 31
0.0
  0
ARC
  5
2E
100
AcDbEntity
  8
1_000_022
  6
CONTINUOUS
 62
         7
100
AcDbCircle
 10
15.2765241629
 20
17.358912669
 30
0.0
 40
0.08
100
AcDbArc
 50
0.0
 51
90.0
  0
LINE
  5
2F
100
AcDbEntity
  8
1_000_022
  6
CONTINUOUS
 62
         7
100
AcDbLine
 10
15.3565241629
 20
13.628912669
 30
0.0
 11
15.3565241629
 21
13.873912669
 31
0.0
  0
ARC
  5
30
100
AcDbEntity
  8
1_000_022
  6
CONTINUOUS
 62
         7
100
AcDbCircle
 10
15.2765241629
 20
13.628912669
 30
0.0
 40
0.08
100
AcDbArc
 50
270.0
 51
360.0
  0
LINE
  5
31
100
AcDbEntity
  8
1_000_022
  6
CONTINUOUS
 62
         7
100
AcDbLine
 10
14.4165241629
 20
17.358912669
 30
0.0
 11
14.4165241629
 21
17.113912669
 31
0.0
  0
LINE
  5
32
100
AcDbEntity
  8
1_000_022
  6
CONTINUOUS
 62
         7
100
AcDbLine
 10
14.4165241629
 20
13.873912669
 30
0.0
 11
14.4165241629
 21
13.628912669
 31
0.0
  0
LINE
  5
33
100
AcDbEntity
  8
1_000_022
  6
CONTINUOUS
 62
         7
100
AcDbLine
 10
14.4965241629
 20
13.548912669
 30
0.0
 11
15.2765241629
 21
13.548912669
 31
0.0
  0
LINE
  5
34
100
AcDbEntity
  8
1_000_022
  6
CONTINUOUS
 62
         7
100
AcDbLine
 10
15.2765241629
 20
17.438912669
 30
0.0
 11
14.4965241629
 21
17.438912669
 31
0.0
  0
ARC
  5
35
100
AcDbEntity
  8
1_000_022
  6
CONTINUOUS
 62
         7
100
AcDbCircle
 10
14.4965241629
 20
13.628912669
 30
0.0
 40
0.08
100
AcDbArc
 50
180.0
 51
270.0
  0
ARC
  5
36
100
AcDbEntity
  8
1_000_022
  6
CONTINUOUS
 62
         7
100
AcDbCircle
 10
14.4965241629
 20
17.358912669
 30
0.0
 40
0.08
100
AcDbArc
 50
90.0
 51
180.0
  0
LINE
  5
37
100
AcDbEntity
  8
1_000_022
  6
CONTINUOUS
 62
         7
100
AcDbLine
 10
15.4165241629
 20
16.953912669
 30
0.0
 11
15.3494421236
 21
16.953912669
 31
0.0
  0
LINE
  5
38
100
AcDbEntity
  8
1_000_022
  6
CONTINUOUS
 62
         7
100
AcDbLine
 10
14.4236062022
 20
16.953912669
 30
0.0
 11
14.3565241629
 21
16.953912669
 31
0.0
  0
ARC
  5
39
100
AcDbEntity
  8
1_000_022
  6
CONTINUOUS
 62
         7
100
AcDbCircle
 10
19.6690241629
 20
17.113912669
 30
0.0
 40
0.03
100
AcDbArc
 50
270.0
 51
360.0
  0
POLYLINE
  5
3A
100
AcDbEntity
  8
1_000_022
  6
CONTINUOUS
 62
         7
100
AcDb2dPolyline
 66
         1
 10
0.0
 20
0.0
 30
0.0
 70
         4
  0
VERTEX
  5
3B
100
AcDbEntity
  8
1_000_022
  6
CONTINUOUS
 62
         7
100
AcDbVertex
100
AcDb2dVertex
 10
19.6990241629
 20
17.2186306416
 30
0.0
 70
         8
  0
VERTEX
  5
3C
100
AcDbEntity
  8
1_000_022
  6
CONTINUOUS
 62
         7
100
AcDbVertex
100
AcDb2dVertex
 10
19.7002233842
 20
17.2290866293
 30
0.0
 70
         8
  0
VERTEX
  5
3D
100
AcDbEntity
  8
1_000_022
  6
CONTINUOUS
 62
         7
100
AcDbVertex
100
AcDb2dVertex
 10
19.7052346669
 20
17.2367680392
 30
0.0
 70
         8
  0
VERTEX
  5
3E
100
AcDbEntity
  8
1_000_022
  6
CONTINUOUS
 62
         7
100
AcDbVertex
100
AcDb2dVertex
 10
19.7152635155
 20
17.2354446002
 30
0.0
 70
         8
  0
VERTEX
  5
3F
100
AcDbEntity
  8
1_000_022
  6
CONTINUOUS
 62
         7
100
AcDbVertex
100
AcDb2dVertex
 10
19.722358347
 20
17.230402559
 30
0.0
 70
         8
  0
VERTEX
  5
40
100
AcDbEntity
  8
1_000_022
  6
CONTINUOUS
 62
         7
100
AcDbVertex
100
AcDb2dVertex
 10
19.7290241629
 20
17.2242728124
 30
0.0
 70
         8
  0
SEQEND
  5
41
100
AcDbEntity
  8
1_000_022
  6
CONTINUOUS
 62
         7
  0
POLYLINE
  5
42
100
AcDbEntity
  8
1_000_022
  6
CONTINUOUS
 62
         7
100
AcDb2dPolyline
 66
         1
 10
0.0
 20
0.0
 30
0.0
 70
         4
  0
VERTEX
  5
43
100
AcDbEntity
  8
1_000_022
  6
CONTINUOUS
 62
         7
100
AcDbVertex
100
AcDb2dVertex
 10
19.9190241629
 20
17.2242728124
 30
0.0
 70
         8
  0
VERTEX
  5
44
100
AcDbEntity
  8
1_000_022
  6
CONTINUOUS
 62
         7
100
AcDbVertex
100
AcDb2dVertex
 10
19.9296405801
 20
17.2334558803
 30
0.0
 70
         8
  0
VERTEX
  5
45
100
AcDbEntity
  8
1_000_022
  6
CONTINUOUS
 62
         7
100
AcDbVertex
100
AcDb2dVertex
 10
19.9407263715
 20
17.2374815395
 30
0.0
 70
         8
  0
VERTEX
  5
46
100
AcDbEntity
  8
1_000_022
  6
CONTINUOUS
 62
         7
100
AcDbVertex
100
AcDb2dVertex
 10
19.9472244419
 20
17.2309204074
 30
0.0
 70
         8
  0
VERTEX
  5
47
100
AcDbEntity
  8
1_000_022
  6
CONTINUOUS
 62
         7
100
AcDbVertex
100
AcDb2dVertex
 10
19.9485934547
 20
17.2250927124
 30
0.0
 70
         8
  0
VERTEX
  5
48
100
AcDbEntity
  8
1_000_022
  6
CONTINUOUS
 62
         7
100
AcDbVertex
100
AcDb2dVertex
 10
19.9490241629
 20
17.2186306416
 30
0.0
 70
         8
  0
SEQEND
  5
49
100
AcDbEntity
  8
1_000_022
  6
CONTINUOUS
 62
         7
  0
LINE
  5
4A
100
AcDbEntity
  8
1_000_022
  6
CONTINUOUS
 62
         7
100
AcDbLine
 10
19.9490241629
 20
17.113912669
 30
0.0
 11
19.9490241629
 21
17.1989843736
 31
0.0
  0
LINE
  5
4B
100
AcDbEntity
  8
1_000_022
  6
CONTINUOUS
 62
         7
100
AcDbLine
 10
13.8675241629
 20
13.903912669
 30
0.0
 11
13.9190241629
 21
13.903912669
 31
0.0
  0
LINE
  5
4C
100
AcDbEntity
  8
1_000_022
  6
CONTINUOUS
 62
         7
100
AcDbLine
 10
13.6875241629
 20
16.903912669
 30
0.0
 11
13.6875241629
 21
14.083912669
 31
0.0
  0
ARC
  5
4D
100
AcDbEntity
  8
1_000_022
  6
CONTINUOUS
 62
         7
100
AcDbCircle
 10
13.8675241629
 20
14.083912669
 30
0.0
 40
0.18
100
AcDbArc
 50
180.0
 51
270.0
  0
ARC
  5
4E
100
AcDbEntity
  8
1_000_022
  6
CONTINUOUS
 62
         7
100
AcDbCircle
 10
13.8675241629
 20
16.903912669
 30
0.0
 40
0.18
100
AcDbArc
 50
90.0
 51
180.0
  0
LINE
  5
4F
100
AcDbEntity
  8
1_000_022
  6
CONTINUOUS
 62
         7
100
AcDbLine
 10
13.9190241629
 20
17.083912669
 30
0.0
 11
13.8675241629
 21
17.083912669
 31
0.0
  0
LINE
  5
50
100
AcDbEntity
  8
1_000_022
  6
CONTINUOUS
 62
         7
100
AcDbLine
 10
14.3865241629
 20
17.083912669
 30
0.0
 11
14.2290241629
 21
17.083912669
 31
0.0
  0
LINE
  5
51
100
AcDbEntity
  8
1_000_022
  6
CONTINUOUS
 62
         7
100
AcDbLine
 10
14.2290241629
 20
13.903912669
 30
0.0
 11
14.3865241629
 21
13.903912669
 31
0.0
  0
LINE
  5
52
100
AcDbEntity
  8
1_000_022
  6
CONTINUOUS
 62
         7
100
AcDbLine
 10
14.4165241629
 20
13.9258741932
 30
0.0
 11
14.4165241629
 21
13.873912669
 31
0.0
  0
ARC
  5
53
100
AcDbEntity
  8
1_000_022
  6
CONTINUOUS
 62
         7
100
AcDbCircle
 10
14.2290241629
 20
13.873912669
 30
0.0
 40
0.03
100
AcDbArc
 50
90.0
 51
180.0
  0
ARC
  5
54
100
AcDbEntity
  8
1_000_022
  6
CONTINUOUS
 62
         7
100
AcDbCircle
 10
14.2290241629
 20
17.113912669
 30
0.0
 40
0.03
100
AcDbArc
 50
180.0
 51
270.0
  0
LINE
  5
55
100
AcDbEntity
  8
1_000_022
  6
CONTINUOUS
 62
         7
100
AcDbLine
 10
13.9490241629
 20
17.1989843736
 30
0.0
 11
13.9490241629
 21
17.113912669
 31
0.0
  0
POLYLINE
  5
56
100
AcDbEntity
  8
1_000_022
  6
CONTINUOUS
 62
         7
100
AcDb2dPolyline
 66
         1
 10
0.0
 20
0.0
 30
0.0
 70
         4
  0
VERTEX
  5
57
100
AcDbEntity
  8
1_000_022
  6
CONTINUOUS
 62
         7
100
AcDbVertex
100
AcDb2dVertex
 10
14.1690241629
 20
17.2242728124
 30
0.0
 70
         8
  0
VERTEX
  5
58
100
AcDbEntity
  8
1_000_022
  6
CONTINUOUS
 62
         7
100
AcDbVertex
100
AcDb2dVertex
 10
14.1796405801
 20
17.2334558803
 30
0.0
 70
         8
  0
VERTEX
  5
59
100
AcDbEntity
  8
1_000_022
  6
CONTINUOUS
 62
         7
100
AcDbVertex
100
AcDb2dVertex
 10
14.1907263715
 20
17.2374815395
 30
0.0
 70
         8
  0
VERTEX
  5
5A
100
AcDbEntity
  8
1_000_022
  6
CONTINUOUS
 62
         7
100
AcDbVertex
100
AcDb2dVertex
 10
14.1972244419
 20
17.2309204074
 30
0.0
 70
         8
  0
VERTEX
  5
5B
100
AcDbEntity
  8
1_000_022
  6
CONTINUOUS
 62
         7
100
AcDbVertex
100
AcDb2dVertex
 10
14.1985934547
 20
17.2250927124
 30
0.0
 70
         8
  0
VERTEX
  5
5C
100
AcDbEntity
  8
1_000_022
  6
CONTINUOUS
 62
         7
100
AcDbVertex
100
AcDb2dVertex
 10
14.1990241629
 20
17.2186306416
 30
0.0
 70
         8
  0
SEQEND
  5
5D
100
AcDbEntity
  8
1_000_022
  6
CONTINUOUS
 62
         7
  0
LINE
  5
5E
100
AcDbEntity
  8
1_000_022
  6
CONTINUOUS
 62
         7
100
AcDbLine
 10
14.1990241629
 20
17.113912669
 30
0.0
 11
14.1990241629
 21
17.1989843736
 31
0.0
  0
POLYLINE
  5
5F
100
AcDbEntity
  8
1_000_022
  6
CONTINUOUS
 62
         7
100
AcDb2dPolyline
 66
         1
 10
0.0
 20
0.0
 30
0.0
 70
         4
  0
VERTEX
  5
60
100
AcDbEntity
  8
1_000_022
  6
CONTINUOUS
 62
         7
100
AcDbVertex
100
AcDb2dVertex
 10
13.9490241629
 20
17.2186306416
 30
0.0
 70
         8
  0
VERTEX
  5
61
100
AcDbEntity
  8
1_000_022
  6
CONTINUOUS
 62
         7
100
AcDbVertex
100
AcDb2dVertex
 10
13.9502233842
 20
17.2290866293
 30
0.0
 70
         8
  0
VERTEX
  5
62
100
AcDbEntity
  8
1_000_022
  6
CONTINUOUS
 62
         7
100
AcDbVertex
100
AcDb2dVertex
 10
13.9552346669
 20
17.2367680392
 30
0.0
 70
         8
  0
VERTEX
  5
63
100
AcDbEntity
  8
1_000_022
  6
CONTINUOUS
 62
         7
100
AcDbVertex
100
AcDb2dVertex
 10
13.9652635155
 20
17.2354446002
 30
0.0
 70
         8
  0
VERTEX
  5
64
100
AcDbEntity
  8
1_000_022
  6
CONTINUOUS
 62
         7
100
AcDbVertex
100
AcDb2dVertex
 10
13.972358347
 20
17.230402559
 30
0.0
 70
         8
  0
VERTEX
  5
65
100
AcDbEntity
  8
1_000_022
  6
CONTINUOUS
 62
         7
100
AcDbVertex
100
AcDb2dVertex
 10
13.9790241629
 20
17.2242728124
 30
0.0
 70
         8
  0
SEQEND
  5
66
100
AcDbEntity
  8
1_000_022
  6
CONTINUOUS
 62
         7
  0
ARC
  5
67
100
AcDbEntity
  8
1_000_022
  6
CONTINUOUS
 62
         7
100
AcDbCircle
 10
13.9190241629
 20
17.113912669
 30
0.0
 40
0.03
100
AcDbArc
 50
270.0
 51
360.0
  0
ARC
  5
68
100
AcDbEntity
  8
1_000_022
  6
CONTINUOUS
 62
         7
100
AcDbCircle
 10
14.3865241629
 20
13.873912669
 30
0.0
 40
0.03
100
AcDbArc
 50
0.0
 51
90.0
  0
ARC
  5
69
100
AcDbEntity
  8
1_000_022
  6
CONTINUOUS
 62
         7
100
AcDbCircle
 10
14.3865241629
 20
17.113912669
 30
0.0
 40
0.03
100
AcDbArc
 50
270.0
 51
360.0
  0
ARC
  5
6A
100
AcDbEntity
  8
1_000_022
  6
CONTINUOUS
 62
         7
100
AcDbCircle
 10
14.0740241629
 20
17.319912669
 30
0.0
 40
0.1348034947
100
AcDbArc
 50
225.1923047289
 51
314.8076952711
  0
LINE
  5
6B
100
AcDbEntity
  8
1_000_022
  6
CONTINUOUS
 62
         7
100
AcDbLine
 10
14.1990241629
 20
13.7888409644
 30
0.0
 11
14.1990241629
 21
13.873912669
 31
0.0
  0
LINE
  5
6C
100
AcDbEntity
  8
1_000_022
  6
CONTINUOUS
 62
         7
100
AcDbLine
 10
15.9055241629
 20
17.083912669
 30
0.0
 11
15.3865241629
 21
17.083912669
 31
0.0
  0
ARC
  5
6D
100
AcDbEntity
  8
1_000_022
  6
CONTINUOUS
 62
         7
100
AcDbCircle
 10
15.9055241629
 20
16.903912669
 30
0.0
 40
0.18
100
AcDbArc
 50
0.0
 51
90.0
  0
LINE
  5
6E
100
AcDbEntity
  8
1_000_022
  6
CONTINUOUS
 62
         7
100
AcDbLine
 10
15.3865241629
 20
13.903912669
 30
0.0
 11
15.9055241629
 21
13.903912669
 31
0.0
  0
LINE
  5
6F
100
AcDbEntity
  8
1_000_022
  6
CONTINUOUS
 62
         7
100
AcDbLine
 10
16.0855241629
 20
14.083912669
 30
0.0
 11
16.0855241629
 21
16.903912669
 31
0.0
  0
ARC
  5
70
100
AcDbEntity
  8
1_000_022
  6
CONTINUOUS
 62
         7
100
AcDbCircle
 10
15.9055241629
 20
14.083912669
 30
0.0
 40
0.18
100
AcDbArc
 50
270.0
 51
360.0
  0
LINE
  5
71
100
AcDbEntity
  8
1_000_022
  6
CONTINUOUS
 62
         7
100
AcDbLine
 10
15.3565241629
 20
17.0619511448
 30
0.0
 11
15.3565241629
 21
17.113912669
 31
0.0
  0
LINE
  5
72
100
AcDbEntity
  8
1_000_022
  6
CONTINUOUS
 62
         7
100
AcDbLine
 10
15.3565241629
 20
13.873912669
 30
0.0
 11
15.3565241629
 21
13.9258741932
 31
0.0
  0
ARC
  5
73
100
AcDbEntity
  8
1_000_022
  6
CONTINUOUS
 62
         7
100
AcDbCircle
 10
13.9190241629
 20
13.873912669
 30
0.0
 40
0.03
100
AcDbArc
 50
0.0
 51
90.0
  0
ARC
  5
74
100
AcDbEntity
  8
1_000_022
  6
CONTINUOUS
 62
         7
100
AcDbCircle
 10
15.3865241629
 20
13.873912669
 30
0.0
 40
0.03
100
AcDbArc
 50
90.0
 51
180.0
  0
ARC
  5
75
100
AcDbEntity
  8
1_000_022
  6
CONTINUOUS
 62
         7
100
AcDbCircle
 10
15.3865241629
 20
17.113912669
 30
0.0
 40
0.03
100
AcDbArc
 50
180.0
 51
270.0
  0
CIRCLE
  5
76
100
AcDbEntity
  8
1_000_022
  6
CONTINUOUS
 62
         7
100
AcDbCircle
 10
17.6258186286
 20
16.6630418866
 30
0.0
 40
0.125
  0
ARC
  5
77
100
AcDbEntity
  8
1_000_022
  6
CONTINUOUS
 62
         7
100
AcDbCircle
 10
19.9790241629
 20
17.113912669
 30
0.0
 40
0.03
100
AcDbArc
 50
180.0
 51
270.0
  0
CIRCLE
  5
78
100
AcDbEntity
  8
1_000_022
  6
CONTINUOUS
 62
         7
100
AcDbCircle
 10
14.0740241629
 20
13.667912669
 30
0.0
 40
0.1
  0
CIRCLE
  5
79
100
AcDbEntity
  8
1_000_022
  6
CONTINUOUS
 62
         7
100
AcDbCircle
 10
19.8240241629
 20
13.667912669
 30
0.0
 40
0.1
  0
CIRCLE
  5
7A
100
AcDbEntity
  8
1_000_022
  6
CONTINUOUS
 62
         7
100
AcDbCircle
 10
19.8240241629
 20
17.319912669
 30
0.0
 40
0.1
  0
CIRCLE
  5
7B
100
AcDbEntity
  8
1_000_022
  6
CONTINUOUS
 62
         7
100
AcDbCircle
 10
14.0740241629
 20
17.319912669
 30
0.0
 40
0.1
  0
LINE
  5
7C
100
AcDbEntity
  8
1_000_022
  6
CONTINUOUS
 62
         7
100
AcDbLine
 10
14.4236062022
 20
14.033912669
 30
0.0
 11
15.3494421236
 21
14.033912669
 31
0.0
  0
LINE
  5
7D
100
AcDbEntity
  8
1_000_022
  6
CONTINUOUS
 62
         7
100
AcDbLine
 10
18.5486062022
 20
14.033912669
 30
0.0
 11
19.4744421236
 21
14.033912669
 31
0.0
  0
LINE
  5
7E
100
AcDbEntity
  8
1_000_022
  6
CONTINUOUS
 62
         7
100
AcDbLine
 10
19.4744421236
 20
16.953912669
 30
0.0
 11
18.5486062022
 21
16.953912669
 31
0.0
  0
LINE
  5
7F
100
AcDbEntity
  8
1_000_022
  6
CONTINUOUS
 62
         7
100
AcDbLine
 10
15.3494421236
 20
16.953912669
 30
0.0
 11
14.4236062022
 21
16.953912669
 31
0.0
  0
LINE
  5
80
100
AcDbEntity
  8
1_000_022
  6
CONTINUOUS
 62
         7
100
AcDbLine
 10
21.5415241629
 20
18.283912669
 30
0.0
 11
21.5415241629
 21
12.703912669
 31
0.0
  0
ARC
  5
81
100
AcDbEntity
  8
1_000_022
  6
CONTINUOUS
 62
         7
100
AcDbCircle
 10
21.2915241629
 20
12.703912669
 30
0.0
 40
0.25
100
AcDbArc
 50
270.0
 51
360.0
  0
ARC
  5
82
100
AcDbEntity
  8
1_000_022
  6
CONTINUOUS
 62
         7
100
AcDbCircle
 10
12.6065241629
 20
18.283912669
 30
0.0
 40
0.25
100
AcDbArc
 50
90.0
 51
180.0
  0
LINE
  5
83
100
AcDbEntity
  8
1_000_022
  6
CONTINUOUS
 62
         7
100
AcDbLine
 10
12.3565241629
 20
12.703912669
 30
0.0
 11
12.3565241629
 21
18.283912669
 31
0.0
  0
ARC
  5
84
100
AcDbEntity
  8
1_000_022
  6
CONTINUOUS
 62
         7
100
AcDbCircle
 10
12.6065241629
 20
12.703912669
 30
0.0
 40
0.25
100
AcDbArc
 50
180.0
 51
270.0
  0
ARC
  5
85
100
AcDbEntity
  8
1_000_022
  6
CONTINUOUS
 62
         7
100
AcDbCircle
 10
21.2915241629
 20
18.283912669
 30
0.0
 40
0.25
100
AcDbArc
 50
0.0
 51
90.0
  0
LINE
  5
86
100
AcDbEntity
  8
1_000_022
  6
CONTINUOUS
 62
         7
100
AcDbLine
 10
12.6065241629
 20
18.533912669
 30
0.0
 11
21.2915241629
 21
18.533912669
 31
0.0
  0
LINE
  5
87
100
AcDbEntity
  8
1_000_022
  6
CONTINUOUS
 62
         7
100
AcDbLine
 10
21.2915241629
 20
12.453912669
 30
0.0
 11
12.6065241629
 21
12.453912669
 31
0.0
  0
ARC
  5
88
100
AcDbEntity
  8
1_000_022
  6
CONTINUOUS
 62
         7
100
AcDbCircle
 10
17.6665241629
 20
17.319912669
 30
0.0
 40
0.172
100
AcDbArc
 50
270.0
 51
360.0
  0
LINE
  5
89
100
AcDbEntity
  8
1_000_022
  6
CONTINUOUS
 62
         7
100
AcDbLine
 10
16.4895241629
 20
13.457912669
 30
0.0
 11
16.4895241629
 21
17.529912669
 31
0.0
  0
ARC
  5
8A
100
AcDbEntity
  8
1_000_022
  6
CONTINUOUS
 62
         7
100
AcDbCircle
 10
16.4095241629
 20
13.457912669
 30
0.0
 40
0.08
100
AcDbArc
 50
270.0
 51
360.0
  0
LINE
  5
8B
100
AcDbEntity
  8
1_000_022
  6
CONTINUOUS
 62
         7
100
AcDbLine
 10
13.3635241629
 20
13.377912669
 30
0.0
 11
16.4095241629
 21
13.377912669
 31
0.0
  0
LINE
  5
8C
100
AcDbEntity
  8
1_000_022
  6
CONTINUOUS
 62
         7
100
AcDbLine
 10
16.4095241629
 20
17.609912669
 30
0.0
 11
13.3635241629
 21
17.609912669
 31
0.0
  0
ARC
  5
8D
100
AcDbEntity
  8
1_000_022
  6
CONTINUOUS
 62
         7
100
AcDbCircle
 10
16.4095241629
 20
17.529912669
 30
0.0
 40
0.08
100
AcDbArc
 50
0.0
 51
90.0
  0
ARC
  5
8E
100
AcDbEntity
  8
1_000_022
  6
CONTINUOUS
 62
         7
100
AcDbCircle
 10
13.3635241629
 20
13.457912669
 30
0.0
 40
0.08
100
AcDbArc
 50
180.0
 51
270.0
  0
ARC
  5
8F
100
AcDbEntity
  8
1_000_022
  6
CONTINUOUS
 62
         7
100
AcDbCircle
 10
13.3635241629
 20
17.529912669
 30
0.0
 40
0.08
100
AcDbArc
 50
90.0
 51
180.0
  0
LINE
  5
90
100
AcDbEntity
  8
1_000_022
  6
CONTINUOUS
 62
         7
100
AcDbLine
 10
13.2835241629
 20
17.529912669
 30
0.0
 11
13.2835241629
 21
13.457912669
 31
0.0
  0
LINE
  5
91
100
AcDbEntity
  8
1_000_022
  6
CONTINUOUS
 62
         7
100
AcDbLine
 10
14.4165241629
 20
13.973912669
 30
0.0
 11
14.4165241629
 21
13.9258741932
 31
0.0
  0
ARC
  5
92
100
AcDbEntity
  8
1_000_022
  6
CONTINUOUS
 62
         7
100
AcDbCircle
 10
14.3565241629
 20
13.973912669
 30
0.0
 40
0.06
100
AcDbArc
 50
0.0
 51
90.0
  0
LINE
  5
93
100
AcDbEntity
  8
1_000_022
  6
CONTINUOUS
 62
         7
100
AcDbLine
 10
15.3494421236
 20
14.033912669
 30
0.0
 11
15.4165241629
 21
14.033912669
 31
0.0
  0
LINE
  5
94
100
AcDbEntity
  8
1_000_022
  6
CONTINUOUS
 62
         7
100
AcDbLine
 10
14.3565241629
 20
14.033912669
 30
0.0
 11
14.4236062022
 21
14.033912669
 31
0.0
  0
ARC
  5
95
100
AcDbEntity
  8
1_000_022
  6
CONTINUOUS
 62
         7
100
AcDbCircle
 10
15.9995241629
 20
17.549912669
 30
0.0
 40
0.06
100
AcDbArc
 50
0.0
 51
90.0
  0
ARC
  5
96
100
AcDbEntity
  8
1_000_022
  6
CONTINUOUS
 62
         7
100
AcDbCircle
 10
16.2315241629
 20
17.319912669
 30
0.0
 40
0.172
100
AcDbArc
 50
180.0
 51
270.0
  0
LINE
  5
97
100
AcDbEntity
  8
1_000_022
  6
CONTINUOUS
 62
         7
100
AcDbLine
 10
16.0595241629
 20
17.319912669
 30
0.0
 11
16.0595241629
 21
17.549912669
 31
0.0
  0
LINE
  5
98
100
AcDbEntity
  8
1_000_022
  6
CONTINUOUS
 62
         7
100
AcDbLine
 10
16.4295241629
 20
17.147912669
 30
0.0
 11
16.2315241629
 21
17.147912669
 31
0.0
  0
ARC
  5
99
100
AcDbEntity
  8
1_000_022
  6
CONTINUOUS
 62
         7
100
AcDbCircle
 10
16.4295241629
 20
17.087912669
 30
0.0
 40
0.06
100
AcDbArc
 50
0.0
 51
90.0
  0
ARC
  5
9A
100
AcDbEntity
  8
1_000_022
  6
CONTINUOUS
 62
         7
100
AcDbCircle
 10
13.3435241629
 20
13.899912669
 30
0.0
 40
0.06
100
AcDbArc
 50
180.0
 51
270.0
  0
LINE
  5
9B
100
AcDbEntity
  8
1_000_022
  6
CONTINUOUS
 62
         7
100
AcDbLine
 10
13.3435241629
 20
13.839912669
 30
0.0
 11
13.5415241629
 21
13.839912669
 31
0.0
  0
ARC
  5
9C
100
AcDbEntity
  8
1_000_022
  6
CONTINUOUS
 62
         7
100
AcDbCircle
 10
13.5415241629
 20
13.667912669
 30
0.0
 40
0.172
100
AcDbArc
 50
0.0
 51
90.0
  0
LINE
  5
9D
100
AcDbEntity
  8
1_000_022
  6
CONTINUOUS
 62
         7
100
AcDbLine
 10
13.7135241629
 20
13.667912669
 30
0.0
 11
13.7135241629
 21
13.437912669
 31
0.0
  0
ARC
  5
9E
100
AcDbEntity
  8
1_000_022
  6
CONTINUOUS
 62
         7
100
AcDbCircle
 10
13.7735241629
 20
13.437912669
 30
0.0
 40
0.06
100
AcDbArc
 50
180.0
 51
270.0
  0
LINE
  5
9F
100
AcDbEntity
  8
1_000_022
  6
CONTINUOUS
 62
         7
100
AcDbLine
 10
13.7135241629
 20
17.549912669
 30
0.0
 11
13.7135241629
 21
17.319912669
 31
0.0
  0
ARC
  5
A0
100
AcDbEntity
  8
1_000_022
  6
CONTINUOUS
 62
         7
100
AcDbCircle
 10
13.3435241629
 20
17.087912669
 30
0.0
 40
0.06
100
AcDbArc
 50
90.0
 51
180.0
  0
ARC
  5
A1
100
AcDbEntity
  8
1_000_022
  6
CONTINUOUS
 62
         7
100
AcDbCircle
 10
13.7735241629
 20
17.549912669
 30
0.0
 40
0.06
100
AcDbArc
 50
90.0
 51
180.0
  0
LINE
  5
A2
100
AcDbEntity
  8
1_000_022
  6
CONTINUOUS
 62
         7
100
AcDbLine
 10
13.5415241629
 20
17.147912669
 30
0.0
 11
13.3435241629
 21
17.147912669
 31
0.0
  0
ARC
  5
A3
100
AcDbEntity
  8
1_000_022
  6
CONTINUOUS
 62
         7
100
AcDbCircle
 10
13.5415241629
 20
17.319912669
 30
0.0
 40
0.172
100
AcDbArc
 50
270.0
 51
360.0
  0
ARC
  5
A4
100
AcDbEntity
  8
1_000_022
  6
CONTINUOUS
 62
         7
100
AcDbCircle
 10
15.9995241629
 20
13.437912669
 30
0.0
 40
0.06
100
AcDbArc
 50
270.0
 51
360.0
  0
LINE
  5
A5
100
AcDbEntity
  8
1_000_022
  6
CONTINUOUS
 62
         7
100
AcDbLine
 10
16.2315241629
 20
13.839912669
 30
0.0
 11
16.4295241629
 21
13.839912669
 31
0.0
  0
ARC
  5
A6
100
AcDbEntity
  8
1_000_022
  6
CONTINUOUS
 62
         7
100
AcDbCircle
 10
16.2315241629
 20
13.667912669
 30
0.0
 40
0.172
100
AcDbArc
 50
90.0
 51
180.0
  0
LINE
  5
A7
100
AcDbEntity
  8
1_000_022
  6
CONTINUOUS
 62
         7
100
AcDbLine
 10
16.0595241629
 20
13.437912669
 30
0.0
 11
16.0595241629
 21
13.667912669
 31
0.0
  0
ARC
  5
A8
100
AcDbEntity
  8
1_000_022
  6
CONTINUOUS
 62
         7
100
AcDbCircle
 10
16.4295241629
 20
13.899912669
 30
0.0
 40
0.06
100
AcDbArc
 50
270.0
 51
360.0
  0
LINE
  5
A9
100
AcDbEntity
  8
1_000_022
  6
CONTINUOUS
 62
         7
100
AcDbLine
 10
15.3565241629
 20
13.9258741932
 30
0.0
 11
15.3565241629
 21
13.973912669
 31
0.0
  0
ARC
  5
AA
100
AcDbEntity
  8
1_000_022
  6
CONTINUOUS
 62
         7
100
AcDbCircle
 10
15.4165241629
 20
13.973912669
 30
0.0
 40
0.06
100
AcDbArc
 50
90.0
 51
180.0
  0
ARC
  5
AB
100
AcDbEntity
  8
1_000_022
  6
CONTINUOUS
 62
         7
100
AcDbCircle
 10
15.8765241629
 20
16.828912669
 30
0.0
 40
0.125
100
AcDbArc
 50
0.0
 51
90.0
  0
LINE
  5
AC
100
AcDbEntity
  8
1_000_022
  6
CONTINUOUS
 62
         7
100
AcDbLine
 10
16.0015241629
 20
16.828912669
 30
0.0
 11
16.0015241629
 21
14.158912669
 31
0.0
  0
LINE
  5
AD
100
AcDbEntity
  8
1_000_022
  6
CONTINUOUS
 62
         7
100
AcDbLine
 10
13.8965241629
 20
16.953912669
 30
0.0
 11
14.3565241629
 21
16.953912669
 31
0.0
  0
ARC
  5
AE
100
AcDbEntity
  8
1_000_022
  6
CONTINUOUS
 62
         7
100
AcDbCircle
 10
15.8765241629
 20
14.158912669
 30
0.0
 40
0.125
100
AcDbArc
 50
270.0
 51
360.0
  0
LINE
  5
AF
100
AcDbEntity
  8
1_000_022
  6
CONTINUOUS
 62
         7
100
AcDbLine
 10
15.8765241629
 20
14.033912669
 30
0.0
 11
15.4165241629
 21
14.033912669
 31
0.0
  0
LINE
  5
B0
100
AcDbEntity
  8
1_000_022
  6
CONTINUOUS
 62
         7
100
AcDbLine
 10
14.3565241629
 20
14.033912669
 30
0.0
 11
13.8965241629
 21
14.033912669
 31
0.0
  0
ARC
  5
B1
100
AcDbEntity
  8
1_000_022
  6
CONTINUOUS
 62
         7
100
AcDbCircle
 10
13.8965241629
 20
14.158912669
 30
0.0
 40
0.125
100
AcDbArc
 50
180.0
 51
270.0
  0
LINE
  5
B2
100
AcDbEntity
  8
1_000_022
  6
CONTINUOUS
 62
         7
100
AcDbLine
 10
13.7715241629
 20
14.158912669
 30
0.0
 11
13.7715241629
 21
16.828912669
 31
0.0
  0
ARC
  5
B3
100
AcDbEntity
  8
1_000_022
  6
CONTINUOUS
 62
         7
100
AcDbCircle
 10
13.8965241629
 20
16.828912669
 30
0.0
 40
0.125
100
AcDbArc
 50
90.0
 51
180.0
  0
LINE
  5
B4
100
AcDbEntity
  8
1_000_022
  6
CONTINUOUS
 62
         7
100
AcDbLine
 10
14.4165241629
 20
17.0619511448
 30
0.0
 11
14.4165241629
 21
17.013912669
 31
0.0
  0
ARC
  5
B5
100
AcDbEntity
  8
1_000_022
  6
CONTINUOUS
 62
         7
100
AcDbCircle
 10
14.3565241629
 20
17.013912669
 30
0.0
 40
0.06
100
AcDbArc
 50
270.0
 51
360.0
  0
ARC
  5
B6
100
AcDbEntity
  8
1_000_022
  6
CONTINUOUS
 62
         7
100
AcDbCircle
 10
19.9790241629
 20
13.873912669
 30
0.0
 40
0.03
100
AcDbArc
 50
90.0
 51
180.0
  0
ARC
  5
B7
100
AcDbEntity
  8
1_000_022
  6
CONTINUOUS
 62
         7
100
AcDbCircle
 10
19.8240241629
 20
17.319912669
 30
0.0
 40
0.1348034947
100
AcDbArc
 50
225.1923047289
 51
314.8076952711
  0
ARC
  5
B8
100
AcDbEntity
  8
1_000_022
  6
CONTINUOUS
 62
         7
100
AcDbCircle
 10
19.8240241629
 20
13.667912669
 30
0.0
 40
0.1348034947
100
AcDbArc
 50
45.1923047289
 51
134.8076952711
  0
LINE
  5
B9
100
AcDbEntity
  8
1_000_022
  6
CONTINUOUS
 62
         7
100
AcDbLine
 10
19.6990241629
 20
13.873912669
 30
0.0
 11
19.6990241629
 21
13.7888409644
 31
0.0
  0
POLYLINE
  5
BA
100
AcDbEntity
  8
1_000_022
  6
CONTINUOUS
 62
         7
100
AcDb2dPolyline
 66
         1
 10
0.0
 20
0.0
 30
0.0
 70
         4
  0
VERTEX
  5
BB
100
AcDbEntity
  8
1_000_022
  6
CONTINUOUS
 62
         7
100
AcDbVertex
100
AcDb2dVertex
 10
19.9490241629
 20
13.7691946964
 30
0.0
 70
         8
  0
VERTEX
  5
BC
100
AcDbEntity
  8
1_000_022
  6
CONTINUOUS
 62
         7
100
AcDbVertex
100
AcDb2dVertex
 10
19.9478249416
 20
13.7587387087
 30
0.0
 70
         8
  0
VERTEX
  5
BD
100
AcDbEntity
  8
1_000_022
  6
CONTINUOUS
 62
         7
100
AcDbVertex
100
AcDb2dVertex
 10
19.9428136589
 20
13.7510572988
 30
0.0
 70
         8
  0
VERTEX
  5
BE
100
AcDbEntity
  8
1_000_022
  6
CONTINUOUS
 62
         7
100
AcDbVertex
100
AcDb2dVertex
 10
19.9327848103
 20
13.7523807379
 30
0.0
 70
         8
  0
VERTEX
  5
BF
100
AcDbEntity
  8
1_000_022
  6
CONTINUOUS
 62
         7
100
AcDbVertex
100
AcDb2dVertex
 10
19.9256899788
 20
13.757422779
 30
0.0
 70
         8
  0
VERTEX
  5
C0
100
AcDbEntity
  8
1_000_022
  6
CONTINUOUS
 62
         7
100
AcDbVertex
100
AcDb2dVertex
 10
19.9190241629
 20
13.7635525256
 30
0.0
 70
         8
  0
SEQEND
  5
C1
100
AcDbEntity
  8
1_000_022
  6
CONTINUOUS
 62
         7
  0
POLYLINE
  5
C2
100
AcDbEntity
  8
1_000_022
  6
CONTINUOUS
 62
         7
100
AcDb2dPolyline
 66
         1
 10
0.0
 20
0.0
 30
0.0
 70
         4
  0
VERTEX
  5
C3
100
AcDbEntity
  8
1_000_022
  6
CONTINUOUS
 62
         7
100
AcDbVertex
100
AcDb2dVertex
 10
19.7290241629
 20
13.7635525256
 30
0.0
 70
         8
  0
VERTEX
  5
C4
100
AcDbEntity
  8
1_000_022
  6
CONTINUOUS
 62
         7
100
AcDbVertex
100
AcDb2dVertex
 10
19.7184077457
 20
13.7543694577
 30
0.0
 70
         8
  0
VERTEX
  5
C5
100
AcDbEntity
  8
1_000_022
  6
CONTINUOUS
 62
         7
100
AcDbVertex
100
AcDb2dVertex
 10
19.7073219543
 20
13.7503437986
 30
0.0
 70
         8
  0
VERTEX
  5
C6
100
AcDbEntity
  8
1_000_022
  6
CONTINUOUS
 62
         7
100
AcDbVertex
100
AcDb2dVertex
 10
19.7008238839
 20
13.7569049306
 30
0.0
 70
         8
  0
VERTEX
  5
C7
100
AcDbEntity
  8
1_000_022
  6
CONTINUOUS
 62
         7
100
AcDbVertex
100
AcDb2dVertex
 10
19.6994548711
 20
13.7627326257
 30
0.0
 70
         8
  0
VERTEX
  5
C8
100
AcDbEntity
  8
1_000_022
  6
CONTINUOUS
 62
         7
100
AcDbVertex
100
AcDb2dVertex
 10
19.6990241629
 20
13.7691946964
 30
0.0
 70
         8
  0
SEQEND
  5
C9
100
AcDbEntity
  8
1_000_022
  6
CONTINUOUS
 62
         7
  0
LINE
  5
CA
100
AcDbEntity
  8
1_000_022
  6
CONTINUOUS
 62
         7
100
AcDbLine
 10
19.4815241629
 20
13.873912669
 30
0.0
 11
19.4815241629
 21
13.9258741932
 31
0.0
  0
LINE
  5
CB
100
AcDbEntity
  8
1_000_022
  6
CONTINUOUS
 62
         7
100
AcDbLine
 10
19.4815241629
 20
17.0619511448
 30
0.0
 11
19.4815241629
 21
17.113912669
 31
0.0
  0
LINE
  5
CC
100
AcDbEntity
  8
1_000_022
  6
CONTINUOUS
 62
         7
100
AcDbLine
 10
18.4815241629
 20
14.033912669
 30
0.0
 11
18.5486062022
 21
14.033912669
 31
0.0
  0
LINE
  5
CD
100
AcDbEntity
  8
1_000_022
  6
CONTINUOUS
 62
         7
100
AcDbLine
 10
19.5415241629
 20
16.953912669
 30
0.0
 11
19.4744421236
 21
16.953912669
 31
0.0
  0
LINE
  5
CE
100
AcDbEntity
  8
1_000_022
  6
CONTINUOUS
 62
         7
100
AcDbLine
 10
18.5486062022
 20
16.953912669
 30
0.0
 11
18.4815241629
 21
16.953912669
 31
0.0
  0
LINE
  5
CF
100
AcDbEntity
  8
1_000_022
  6
CONTINUOUS
 62
         7
100
AcDbLine
 10
19.4744421236
 20
14.033912669
 30
0.0
 11
19.5415241629
 21
14.033912669
 31
0.0
  0
ARC
  5
D0
100
AcDbEntity
  8
1_000_022
  6
CONTINUOUS
 62
         7
100
AcDbCircle
 10
18.0215241629
 20
16.828912669
 30
0.0
 40
0.125
100
AcDbArc
 50
90.0
 51
180.0
  0
LINE
  5
D1
100
AcDbEntity
  8
1_000_022
  6
CONTINUOUS
 62
         7
100
AcDbLine
 10
18.0215241629
 20
16.953912669
 30
0.0
 11
18.4815241629
 21
16.953912669
 31
0.0
  0
ARC
  5
D2
100
AcDbEntity
  8
1_000_022
  6
CONTINUOUS
 62
         7
100
AcDbCircle
 10
18.4815241629
 20
17.013912669
 30
0.0
 40
0.06
100
AcDbArc
 50
270.0
 51
360.0
  0
LINE
  5
D3
100
AcDbEntity
  8
1_000_022
  6
CONTINUOUS
 62
         7
100
AcDbLine
 10
19.5415241629
 20
16.953912669
 30
0.0
 11
20.0015241629
 21
16.953912669
 31
0.0
  0
ARC
  5
D4
100
AcDbEntity
  8
1_000_022
  6
CONTINUOUS
 62
         7
100
AcDbCircle
 10
20.0015241629
 20
16.828912669
 30
0.0
 40
0.125
100
AcDbArc
 50
0.0
 51
90.0
  0
LINE
  5
D5
100
AcDbEntity
  8
1_000_022
  6
CONTINUOUS
 62
         7
100
AcDbLine
 10
20.1265241629
 20
16.828912669
 30
0.0
 11
20.1265241629
 21
14.158912669
 31
0.0
  0
ARC
  5
D6
100
AcDbEntity
  8
1_000_022
  6
CONTINUOUS
 62
         7
100
AcDbCircle
 10
20.0015241629
 20
14.158912669
 30
0.0
 40
0.125
100
AcDbArc
 50
270.0
 51
360.0
  0
LINE
  5
D7
100
AcDbEntity
  8
1_000_022
  6
CONTINUOUS
 62
         7
100
AcDbLine
 10
18.5415241629
 20
13.973912669
 30
0.0
 11
18.5415241629
 21
13.9258741932
 31
0.0
  0
ARC
  5
D8
100
AcDbEntity
  8
1_000_022
  6
CONTINUOUS
 62
         7
100
AcDbCircle
 10
18.4815241629
 20
13.973912669
 30
0.0
 40
0.06
100
AcDbArc
 50
0.0
 51
90.0
  0
LINE
  5
D9
100
AcDbEntity
  8
1_000_022
  6
CONTINUOUS
 62
         7
100
AcDbLine
 10
18.4815241629
 20
14.033912669
 30
0.0
 11
18.0215241629
 21
14.033912669
 31
0.0
  0
LINE
  5
DA
100
AcDbEntity
  8
1_000_022
  6
CONTINUOUS
 62
         7
100
AcDbLine
 10
19.4815241629
 20
13.9258741932
 30
0.0
 11
19.4815241629
 21
13.973912669
 31
0.0
  0
LINE
  5
DB
100
AcDbEntity
  8
1_000_022
  6
CONTINUOUS
 62
         7
100
AcDbLine
 10
19.4815241629
 20
17.013912669
 30
0.0
 11
19.4815241629
 21
17.0619511448
 31
0.0
  0
LINE
  5
DC
100
AcDbEntity
  8
1_000_022
  6
CONTINUOUS
 62
         7
100
AcDbLine
 10
20.0015241629
 20
14.033912669
 30
0.0
 11
19.5415241629
 21
14.033912669
 31
0.0
  0
ARC
  5
DD
100
AcDbEntity
  8
1_000_022
  6
CONTINUOUS
 62
         7
100
AcDbCircle
 10
19.5415241629
 20
13.973912669
 30
0.0
 40
0.06
100
AcDbArc
 50
90.0
 51
180.0
  0
LINE
  5
DE
100
AcDbEntity
  8
1_000_022
  6
CONTINUOUS
 62
         7
100
AcDbLine
 10
18.5415241629
 20
17.0619511448
 30
0.0
 11
18.5415241629
 21
17.013912669
 31
0.0
  0
ARC
  5
DF
100
AcDbEntity
  8
1_000_022
  6
CONTINUOUS
 62
         7
100
AcDbCircle
 10
18.0215241629
 20
14.158912669
 30
0.0
 40
0.125
100
AcDbArc
 50
180.0
 51
270.0
  0
LINE
  5
E0
100
AcDbEntity
  8
1_000_022
  6
CONTINUOUS
 62
         7
100
AcDbLine
 10
17.8965241629
 20
14.158912669
 30
0.0
 11
17.8965241629
 21
16.828912669
 31
0.0
  0
POLYLINE
  5
E1
100
AcDbEntity
  8
1_000_022
  6
CONTINUOUS
 62
         7
100
AcDb2dPolyline
 66
         1
 10
0.0
 20
0.0
 30
0.0
 70
         4
  0
VERTEX
  5
E2
100
AcDbEntity
  8
1_000_022
  6
CONTINUOUS
 62
         7
100
AcDbVertex
100
AcDb2dVertex
 10
13.9790241629
 20
13.7635525256
 30
0.0
 70
         8
  0
VERTEX
  5
E3
100
AcDbEntity
  8
1_000_022
  6
CONTINUOUS
 62
         7
100
AcDbVertex
100
AcDb2dVertex
 10
13.9684077457
 20
13.7543694577
 30
0.0
 70
         8
  0
VERTEX
  5
E4
100
AcDbEntity
  8
1_000_022
  6
CONTINUOUS
 62
         7
100
AcDbVertex
100
AcDb2dVertex
 10
13.9573219543
 20
13.7503437986
 30
0.0
 70
         8
  0
VERTEX
  5
E5
100
AcDbEntity
  8
1_000_022
  6
CONTINUOUS
 62
         7
100
AcDbVertex
100
AcDb2dVertex
 10
13.9508238839
 20
13.7569049306
 30
0.0
 70
         8
  0
VERTEX
  5
E6
100
AcDbEntity
  8
1_000_022
  6
CONTINUOUS
 62
         7
100
AcDbVertex
100
AcDb2dVertex
 10
13.9494548711
 20
13.7627326257
 30
0.0
 70
         8
  0
VERTEX
  5
E7
100
AcDbEntity
  8
1_000_022
  6
CONTINUOUS
 62
         7
100
AcDbVertex
100
AcDb2dVertex
 10
13.9490241629
 20
13.7691946964
 30
0.0
 70
         8
  0
SEQEND
  5
E8
100
AcDbEntity
  8
1_000_022
  6
CONTINUOUS
 62
         7
  0
LINE
  5
E9
100
AcDbEntity
  8
1_000_022
  6
CONTINUOUS
 62
         7
100
AcDbLine
 10
13.9490241629
 20
13.873912669
 30
0.0
 11
13.9490241629
 21
13.7888409644
 31
0.0
  0
POLYLINE
  5
EA
100
AcDbEntity
  8
1_000_022
  6
CONTINUOUS
 62
         7
100
AcDb2dPolyline
 66
         1
 10
0.0
 20
0.0
 30
0.0
 70
         4
  0
VERTEX
  5
EB
100
AcDbEntity
  8
1_000_022
  6
CONTINUOUS
 62
         7
100
AcDbVertex
100
AcDb2dVertex
 10
14.1990241629
 20
13.7691946964
 30
0.0
 70
         8
  0
VERTEX
  5
EC
100
AcDbEntity
  8
1_000_022
  6
CONTINUOUS
 62
         7
100
AcDbVertex
100
AcDb2dVertex
 10
14.1978249416
 20
13.7587387087
 30
0.0
 70
         8
  0
VERTEX
  5
ED
100
AcDbEntity
  8
1_000_022
  6
CONTINUOUS
 62
         7
100
AcDbVertex
100
AcDb2dVertex
 10
14.1928136589
 20
13.7510572988
 30
0.0
 70
         8
  0
VERTEX
  5
EE
100
AcDbEntity
  8
1_000_022
  6
CONTINUOUS
 62
         7
100
AcDbVertex
100
AcDb2dVertex
 10
14.1827848103
 20
13.7523807379
 30
0.0
 70
         8
  0
VERTEX
  5
EF
100
AcDbEntity
  8
1_000_022
  6
CONTINUOUS
 62
         7
100
AcDbVertex
100
AcDb2dVertex
 10
14.1756899788
 20
13.757422779
 30
0.0
 70
         8
  0
VERTEX
  5
F0
100
AcDbEntity
  8
1_000_022
  6
CONTINUOUS
 62
         7
100
AcDbVertex
100
AcDb2dVertex
 10
14.1690241629
 20
13.7635525256
 30
0.0
 70
         8
  0
SEQEND
  5
F1
100
AcDbEntity
  8
1_000_022
  6
CONTINUOUS
 62
         7
  0
LINE
  5
F2
100
AcDbEntity
  8
1_000_022
  6
CONTINUOUS
 62
         7
100
AcDbLine
 10
14.4165241629
 20
17.113912669
 30
0.0
 11
14.4165241629
 21
17.0619511448
 31
0.0
  0
LINE
  5
F3
100
AcDbEntity
  8
1_000_022
  6
CONTINUOUS
 62
         7
100
AcDbLine
 10
17.4885241629
 20
13.377912669
 30
0.0
 11
20.5345241629
 21
13.377912669
 31
0.0
  0
LINE
  5
F4
100
AcDbEntity
  8
1_000_022
  6
CONTINUOUS
 62
         7
100
AcDbLine
 10
20.5345241629
 20
17.609912669
 30
0.0
 11
17.4885241629
 21
17.609912669
 31
0.0
  0
ARC
  5
F5
100
AcDbEntity
  8
1_000_022
  6
CONTINUOUS
 62
         7
100
AcDbCircle
 10
17.4885241629
 20
17.529912669
 30
0.0
 40
0.08
100
AcDbArc
 50
90.0
 51
180.0
  0
LINE
  5
F6
100
AcDbEntity
  8
1_000_022
  6
CONTINUOUS
 62
         7
100
AcDbLine
 10
17.4085241629
 20
17.529912669
 30
0.0
 11
17.4085241629
 21
13.457912669
 31
0.0
  0
ARC
  5
F7
100
AcDbEntity
  8
1_000_022
  6
CONTINUOUS
 62
         7
100
AcDbCircle
 10
17.4885241629
 20
13.457912669
 30
0.0
 40
0.08
100
AcDbArc
 50
180.0
 51
270.0
  0
ARC
  5
F8
100
AcDbEntity
  8
1_000_022
  6
CONTINUOUS
 62
         7
100
AcDbCircle
 10
20.5345241629
 20
17.529912669
 30
0.0
 40
0.08
100
AcDbArc
 50
0.0
 51
90.0
  0
LINE
  5
F9
100
AcDbEntity
  8
1_000_022
  6
CONTINUOUS
 62
         7
100
AcDbLine
 10
20.6145241629
 20
13.457912669
 30
0.0
 11
20.6145241629
 21
17.529912669
 31
0.0
  0
ARC
  5
FA
100
AcDbEntity
  8
1_000_022
  6
CONTINUOUS
 62
         7
100
AcDbCircle
 10
20.5345241629
 20
13.457912669
 30
0.0
 40
0.08
100
AcDbArc
 50
270.0
 51
360.0
  0
LINE
  5
FB
100
AcDbEntity
  8
1_000_022
  6
CONTINUOUS
 62
         7
100
AcDbLine
 10
17.6665241629
 20
17.147912669
 30
0.0
 11
17.4685241629
 21
17.147912669
 31
0.0
  0
ARC
  5
FC
100
AcDbEntity
  8
1_000_022
  6
CONTINUOUS
 62
         7
100
AcDbCircle
 10
17.4685241629
 20
17.087912669
 30
0.0
 40
0.06
100
AcDbArc
 50
90.0
 51
180.0
  0
LINE
  5
FD
100
AcDbEntity
  8
1_000_022
  6
CONTINUOUS
 62
         7
100
AcDbLine
 10
17.8385241629
 20
17.549912669
 30
0.0
 11
17.8385241629
 21
17.319912669
 31
0.0
  0
ARC
  5
FE
100
AcDbEntity
  8
1_000_022
  6
CONTINUOUS
 62
         7
100
AcDbCircle
 10
17.8985241629
 20
17.549912669
 30
0.0
 40
0.06
100
AcDbArc
 50
90.0
 51
180.0
  0
ARC
  5
FF
100
AcDbEntity
  8
1_000_022
  6
CONTINUOUS
 62
         7
100
AcDbCircle
 10
20.1245241629
 20
17.549912669
 30
0.0
 40
0.06
100
AcDbArc
 50
0.0
 51
90.0
  0
LINE
  5
100
100
AcDbEntity
  8
1_000_022
  6
CONTINUOUS
 62
         7
100
AcDbLine
 10
20.5545241629
 20
17.147912669
 30
0.0
 11
20.3565241629
 21
17.147912669
 31
0.0
  0
ARC
  5
101
100
AcDbEntity
  8
1_000_022
  6
CONTINUOUS
 62
         7
100
AcDbCircle
 10
20.3565241629
 20
17.319912669
 30
0.0
 40
0.172
100
AcDbArc
 50
180.0
 51
270.0
  0
LINE
  5
102
100
AcDbEntity
  8
1_000_022
  6
CONTINUOUS
 62
         7
100
AcDbLine
 10
20.1845241629
 20
17.319912669
 30
0.0
 11
20.1845241629
 21
17.549912669
 31
0.0
  0
ARC
  5
103
100
AcDbEntity
  8
1_000_022
  6
CONTINUOUS
 62
         7
100
AcDbCircle
 10
20.5545241629
 20
17.087912669
 30
0.0
 40
0.06
100
AcDbArc
 50
0.0
 51
90.0
  0
LINE
  5
104
100
AcDbEntity
  8
1_000_022
  6
CONTINUOUS
 62
         7
100
AcDbLine
 10
20.1845241629
 20
13.437912669
 30
0.0
 11
20.1845241629
 21
13.667912669
 31
0.0
  0
ARC
  5
105
100
AcDbEntity
  8
1_000_022
  6
CONTINUOUS
 62
         7
100
AcDbCircle
 10
20.3565241629
 20
13.667912669
 30
0.0
 40
0.172
100
AcDbArc
 50
90.0
 51
180.0
  0
LINE
  5
106
100
AcDbEntity
  8
1_000_022
  6
CONTINUOUS
 62
         7
100
AcDbLine
 10
20.3565241629
 20
13.839912669
 30
0.0
 11
20.5545241629
 21
13.839912669
 31
0.0
  0
ARC
  5
107
100
AcDbEntity
  8
1_000_022
  6
CONTINUOUS
 62
         7
100
AcDbCircle
 10
20.1245241629
 20
13.437912669
 30
0.0
 40
0.06
100
AcDbArc
 50
270.0
 51
360.0
  0
ARC
  5
108
100
AcDbEntity
  8
1_000_022
  6
CONTINUOUS
 62
         7
100
AcDbCircle
 10
20.5545241629
 20
13.899912669
 30
0.0
 40
0.06
100
AcDbArc
 50
270.0
 51
360.0
  0
LINE
  5
109
100
AcDbEntity
  8
1_000_022
  6
CONTINUOUS
 62
         7
100
AcDbLine
 10
17.4685241629
 20
13.839912669
 30
0.0
 11
17.6665241629
 21
13.839912669
 31
0.0
  0
ARC
  5
10A
100
AcDbEntity
  8
1_000_022
  6
CONTINUOUS
 62
         7
100
AcDbCircle
 10
17.6665241629
 20
13.667912669
 30
0.0
 40
0.172
100
AcDbArc
 50
0.0
 51
90.0
  0
ARC
  5
10B
100
AcDbEntity
  8
1_000_022
  6
CONTINUOUS
 62
         7
100
AcDbCircle
 10
17.4685241629
 20
13.899912669
 30
0.0
 40
0.06
100
AcDbArc
 50
180.0
 51
270.0
  0
LINE
  5
10C
100
AcDbEntity
  8
1_000_022
  6
CONTINUOUS
 62
         7
100
AcDbLine
 10
17.8385241629
 20
13.667912669
 30
0.0
 11
17.8385241629
 21
13.437912669
 31
0.0
  0
ARC
  5
10D
100
AcDbEntity
  8
1_000_022
  6
CONTINUOUS
 62
         7
100
AcDbCircle
 10
17.8985241629
 20
13.437912669
 30
0.0
 40
0.06
100
AcDbArc
 50
180.0
 51
270.0
  0
ARC
  5
10E
100
AcDbEntity
  8
1_000_022
  6
CONTINUOUS
 62
         7
100
AcDbCircle
 10
14.0740241629
 20
13.667912669
 30
0.0
 40
0.1348034947
100
AcDbArc
 50
45.1923047289
 51
134.8076952711
  0
LINE
  5
10F
100
AcDbEntity
  8
1_000_022
  6
CONTINUOUS
 62
         7
100
AcDbLine
 10
18.5415241629
 20
17.113912669
 30
0.0
 11
18.5415241629
 21
17.0619511448
 31
0.0
  0
LINE
  5
110
100
AcDbEntity
  8
1_000_022
  6
CONTINUOUS
 62
         7
100
AcDbLine
 10
18.5415241629
 20
13.9258741932
 30
0.0
 11
18.5415241629
 21
13.873912669
 31
0.0
  0
LINE
  5
111
100
AcDbEntity
  8
1_000_022
  6
CONTINUOUS
 62
         7
100
AcDbLine
 10
19.5115241629
 20
13.903912669
 30
0.0
 11
19.6690241629
 21
13.903912669
 31
0.0
  0
LINE
  5
112
100
AcDbEntity
  8
1_000_022
  6
CONTINUOUS
 62
         7
100
AcDbLine
 10
19.9790241629
 20
13.903912669
 30
0.0
 11
20.0305241629
 21
13.903912669
 31
0.0
  0
ARC
  5
113
100
AcDbEntity
  8
1_000_022
  6
CONTINUOUS
 62
         7
100
AcDbCircle
 10
20.0305241629
 20
14.083912669
 30
0.0
 40
0.18
100
AcDbArc
 50
270.0
 51
360.0
  0
LINE
  5
114
100
AcDbEntity
  8
1_000_022
  6
CONTINUOUS
 62
         7
100
AcDbLine
 10
20.2105241629
 20
14.083912669
 30
0.0
 11
20.2105241629
 21
16.903912669
 31
0.0
  0
LINE
  5
115
100
AcDbEntity
  8
1_000_022
  6
CONTINUOUS
 62
         7
100
AcDbLine
 10
19.6690241629
 20
17.083912669
 30
0.0
 11
19.5115241629
 21
17.083912669
 31
0.0
  0
ARC
  5
116
100
AcDbEntity
  8
1_000_022
  6
CONTINUOUS
 62
         7
100
AcDbCircle
 10
20.0305241629
 20
16.903912669
 30
0.0
 40
0.18
100
AcDbArc
 50
0.0
 51
90.0
  0
LINE
  5
117
100
AcDbEntity
  8
1_000_022
  6
CONTINUOUS
 62
         7
100
AcDbLine
 10
20.0305241629
 20
17.083912669
 30
0.0
 11
19.9790241629
 21
17.083912669
 31
0.0
  0
ARC
  5
118
100
AcDbEntity
  8
1_000_022
  6
CONTINUOUS
 62
         7
100
AcDbCircle
 10
19.5115241629
 20
13.873912669
 30
0.0
 40
0.03
100
AcDbArc
 50
90.0
 51
180.0
  0
ARC
  5
119
100
AcDbEntity
  8
1_000_022
  6
CONTINUOUS
 62
         7
100
AcDbCircle
 10
19.5115241629
 20
17.113912669
 30
0.0
 40
0.03
100
AcDbArc
 50
180.0
 51
270.0
  0
ARC
  5
11A
100
AcDbEntity
  8
1_000_022
  6
CONTINUOUS
 62
         7
100
AcDbCircle
 10
18.5115241629
 20
17.113912669
 30
0.0
 40
0.03
100
AcDbArc
 50
270.0
 51
360.0
  0
ARC
  5
11B
100
AcDbEntity
  8
1_000_022
  6
CONTINUOUS
 62
         7
100
AcDbCircle
 10
18.5115241629
 20
13.873912669
 30
0.0
 40
0.03
100
AcDbArc
 50
0.0
 51
90.0
  0
ARC
  5
11C
100
AcDbEntity
  8
1_000_022
  6
CONTINUOUS
 62
         7
100
AcDbCircle
 10
19.5415241629
 20
17.013912669
 30
0.0
 40
0.06
100
AcDbArc
 50
180.0
 51
270.0
  0
LINE
  5
11D
100
AcDbEntity
  8
1_000_022
  6
CONTINUOUS
 62
         7
100
AcDbLine
 10
18.5115241629
 20
17.083912669
 30
0.0
 11
17.9925241629
 21
17.083912669
 31
0.0
  0
LINE
  5
11E
100
AcDbEntity
  8
1_000_022
  6
CONTINUOUS
 62
         7
100
AcDbLine
 10
17.9925241629
 20
13.903912669
 30
0.0
 11
18.5115241629
 21
13.903912669
 31
0.0
  0
ARC
  5
11F
100
AcDbEntity
  8
1_000_022
  6
CONTINUOUS
 62
         7
100
AcDbCircle
 10
17.9925241629
 20
14.083912669
 30
0.0
 40
0.18
100
AcDbArc
 50
180.0
 51
270.0
  0
ARC
  5
120
100
AcDbEntity
  8
1_000_022
  6
CONTINUOUS
 62
         7
100
AcDbCircle
 10
17.9925241629
 20
16.903912669
 30
0.0
 40
0.18
100
AcDbArc
 50
90.0
 51
180.0
  0
LINE
  5
121
100
AcDbEntity
  8
1_000_022
  6
CONTINUOUS
 62
         7
100
AcDbLine
 10
17.8125241629
 20
16.903912669
 30
0.0
 11
17.8125241629
 21
14.083912669
 31
0.0
  0
ARC
  5
122
100
AcDbEntity
  8
1_000_022
  6
CONTINUOUS
 62
         7
100
AcDbCircle
 10
18.6215241629
 20
17.358912669
 30
0.0
 40
0.08
100
AcDbArc
 50
90.0
 51
180.0
  0
ARC
  5
123
100
AcDbEntity
  8
1_000_022
  6
CONTINUOUS
 62
         7
100
AcDbCircle
 10
19.4015241629
 20
13.628912669
 30
0.0
 40
0.08
100
AcDbArc
 50
270.0
 51
360.0
  0
ARC
  5
124
100
AcDbEntity
  8
1_000_022
  6
CONTINUOUS
 62
         7
100
AcDbCircle
 10
19.4015241629
 20
17.358912669
 30
0.0
 40
0.08
100
AcDbArc
 50
0.0
 51
90.0
  0
LINE
  5
125
100
AcDbEntity
  8
1_000_022
  6
CONTINUOUS
 62
         7
100
AcDbLine
 10
19.4815241629
 20
13.628912669
 30
0.0
 11
19.4815241629
 21
13.873912669
 31
0.0
  0
LINE
  5
126
100
AcDbEntity
  8
1_000_022
  6
CONTINUOUS
 62
         7
100
AcDbLine
 10
19.4815241629
 20
17.113912669
 30
0.0
 11
19.4815241629
 21
17.358912669
 31
0.0
  0
LINE
  5
127
100
AcDbEntity
  8
1_000_022
  6
CONTINUOUS
 62
         7
100
AcDbLine
 10
19.4015241629
 20
17.438912669
 30
0.0
 11
18.6215241629
 21
17.438912669
 31
0.0
  0
LINE
  5
128
100
AcDbEntity
  8
1_000_022
  6
CONTINUOUS
 62
         7
100
AcDbLine
 10
18.6215241629
 20
13.548912669
 30
0.0
 11
19.4015241629
 21
13.548912669
 31
0.0
  0
LINE
  5
129
100
AcDbEntity
  8
1_000_022
  6
CONTINUOUS
 62
         7
100
AcDbLine
 10
18.5415241629
 20
13.873912669
 30
0.0
 11
18.5415241629
 21
13.628912669
 31
0.0
  0
LINE
  5
12A
100
AcDbEntity
  8
1_000_022
  6
CONTINUOUS
 62
         7
100
AcDbLine
 10
18.5415241629
 20
17.358912669
 30
0.0
 11
18.5415241629
 21
17.113912669
 31
0.0
  0
ARC
  5
12B
100
AcDbEntity
  8
1_000_022
  6
CONTINUOUS
 62
         7
100
AcDbCircle
 10
18.6215241629
 20
13.628912669
 30
0.0
 40
0.08
100
AcDbArc
 50
180.0
 51
270.0
  0
ARC
  5
12C
100
AcDbEntity
  8
1_000_022
  6
CONTINUOUS
 62
         7
100
AcDbCircle
 10
19.6690241629
 20
13.873912669
 30
0.0
 40
0.03
100
AcDbArc
 50
0.0
 51
90.0
  0
LINE
  5
12D
100
AcDbEntity
  8
1_000_022
  6
CONTINUOUS
 62
         7
100
AcDbLine
 10
19.9490241629
 20
13.7888409644
 30
0.0
 11
19.9490241629
 21
13.873912669
 31
0.0
  0
LINE
  5
12E
100
AcDbEntity
  8
1_000_022
  6
CONTINUOUS
 62
         7
100
AcDbLine
 10
19.6990241629
 20
17.1989843736
 30
0.0
 11
19.6990241629
 21
17.113912669
 31
0.0
  0
POLYLINE
  5
12F
100
AcDbEntity
  8
0
  6
CONTINUOUS
 62
       136
100
AcDb2dPolyline
 66
         1
 10
0.0
 20
0.0
 30
0.0
  0
VERTEX
  5
130
100
AcDbEntity
  8
0
  6
CONTINUOUS
 62
       136
100
AcDbVertex
100
AcDb2dVertex
 10
12.4815241614
 20
20.4044837324
 30
0.0
  0
VERTEX
  5
131
100
AcDbEntity
  8
0
  6
CONTINUOUS
 62
       136
100
AcDbVertex
100
AcDb2dVertex
 10
12.3565241629
 20
20.3836503993
 30
0.0
  0
VERTEX
  5
132
100
AcDbEntity
  8
0
  6
CONTINUOUS
 62
       136
100
AcDbVertex
100
AcDb2dVertex
 10
12.4815241614
 20
20.3628170663
 30
0.0
  0
VERTEX
  5
133
100
AcDbEntity
  8
0
  6
CONTINUOUS
 62
       136
100
AcDbVertex
100
AcDb2dVertex
 10
12.4815241614
 20
20.4044837324
 30
0.0
  0
SEQEND
  5
134
100
AcDbEntity
  8
0
  6
CONTINUOUS
 62
       136
  0
POLYLINE
  5
135
100
AcDbEntity
  8
0
  6
CONTINUOUS
 62
       136
100
AcDb2dPolyline
 66
         1
 10
0.0
 20
0.0
 30
0.0
  0
VERTEX
  5
136
100
AcDbEntity
  8
0
  6
CONTINUOUS
 62
       136
100
AcDbVertex
100
AcDb2dVertex
 10
21.4165241644
 20
20.4044837324
 30
0.0
  0
VERTEX
  5
137
100
AcDbEntity
  8
0
  6
CONTINUOUS
 62
       136
100
AcDbVertex
100
AcDb2dVertex
 10
21.5415241629
 20
20.3836503993
 30
0.0
  0
VERTEX
  5
138
100
AcDbEntity
  8
0
  6
CONTINUOUS
 62
       136
100
AcDbVertex
100
AcDb2dVertex
 10
21.4165241644
 20
20.3628170663
 30
0.0
  0
VERTEX
  5
139
100
AcDbEntity
  8
0
  6
CONTINUOUS
 62
       136
100
AcDbVertex
100
AcDb2dVertex
 10
21.4165241644
 20
20.4044837324
 30
0.0
  0
SEQEND
  5
13A
100
AcDbEntity
  8
0
  6
CONTINUOUS
 62
       136
  0
LINE
  5
13B
100
AcDbEntity
  8
0
  6
CONTINUOUS
 62
       136
100
AcDbLine
 10
12.3565241629
 20
18.3464126683
 30
0.0
 11
12.3565241629
 21
20.4461503986
 31
0.0
  0
LINE
  5
13C
100
AcDbEntity
  8
0
  6
CONTINUOUS
 62
       136
100
AcDbLine
 10
21.5415241629
 20
18.3464126683
 30
0.0
 11
21.5415241629
 21
20.4461503986
 31
0.0
  0
LINE
  5
13D
100
AcDbEntity
  8
0
  6
CONTINUOUS
 62
       136
100
AcDbLine
 10
12.3565241629
 20
20.3836503993
 30
0.0
 11
16.6607090273
 21
20.3836503993
 31
0.0
  0
LINE
  5
13E
100
AcDbEntity
  8
0
  6
CONTINUOUS
 62
       136
100
AcDbLine
 10
17.2373392986
 20
20.3836503993
 30
0.0
 11
21.5415241629
 21
20.3836503993
 31
0.0
  0
TEXT
  5
13F
100
AcDbEntity
  8
0
  6
CONTINUOUS
 62
       136
100
AcDbText
 10
16.7044589859
 20
20.3211503993
 30
0.0
 40
0.125
  1
9 3/16
  7
ARIAL_TTF
 11
16.7044589859
 21
20.4461503993
 31
0.0
100
AcDbText
 73
         3
  0
POLYLINE
  5
140
100
AcDbEntity
  8
0
  6
CONTINUOUS
 62
       136
100
AcDb2dPolyline
 66
         1
 10
0.0
 20
0.0
 30
0.0
  0
VERTEX
  5
141
100
AcDbEntity
  8
0
  6
CONTINUOUS
 62
       136
100
AcDbVertex
100
AcDb2dVertex
 10
20.4895241644
 20
19.8177150939
 30
0.0
  0
VERTEX
  5
142
100
AcDbEntity
  8
0
  6
CONTINUOUS
 62
       136
100
AcDbVertex
100
AcDb2dVertex
 10
20.6145241629
 20
19.7968817608
 30
0.0
  0
VERTEX
  5
143
100
AcDbEntity
  8
0
  6
CONTINUOUS
 62
       136
100
AcDbVertex
100
AcDb2dVertex
 10
20.4895241644
 20
19.7760484277
 30
0.0
  0
VERTEX
  5
144
100
AcDbEntity
  8
0
  6
CONTINUOUS
 62
       136
100
AcDbVertex
100
AcDb2dVertex
 10
20.4895241644
 20
19.8177150939
 30
0.0
  0
SEQEND
  5
145
100
AcDbEntity
  8
0
  6
CONTINUOUS
 62
       136
  0
POLYLINE
  5
146
100
AcDbEntity
  8
0
  6
CONTINUOUS
 62
       136
100
AcDb2dPolyline
 66
         1
 10
0.0
 20
0.0
 30
0.0
  0
VERTEX
  5
147
100
AcDbEntity
  8
0
  6
CONTINUOUS
 62
       136
100
AcDbVertex
100
AcDb2dVertex
 10
13.4085241614
 20
19.8177150939
 30
0.0
  0
VERTEX
  5
148
100
AcDbEntity
  8
0
  6
CONTINUOUS
 62
       136
100
AcDbVertex
100
AcDb2dVertex
 10
13.2835241629
 20
19.7968817608
 30
0.0
  0
VERTEX
  5
149
100
AcDbEntity
  8
0
  6
CONTINUOUS
 62
       136
100
AcDbVertex
100
AcDb2dVertex
 10
13.4085241614
 20
19.7760484277
 30
0.0
  0
VERTEX
  5
14A
100
AcDbEntity
  8
0
  6
CONTINUOUS
 62
       136
100
AcDbVertex
100
AcDb2dVertex
 10
13.4085241614
 20
19.8177150939
 30
0.0
  0
SEQEND
  5
14B
100
AcDbEntity
  8
0
  6
CONTINUOUS
 62
       136
  0
LINE
  5
14C
100
AcDbEntity
  8
0
  6
CONTINUOUS
 62
       136
100
AcDbLine
 10
20.6145241629
 20
17.5924126683
 30
0.0
 11
20.6145241629
 21
19.85938176
 31
0.0
  0
LINE
  5
14D
100
AcDbEntity
  8
0
  6
CONTINUOUS
 62
       136
100
AcDbLine
 10
13.2835241629
 20
17.5924126683
 30
0.0
 11
13.2835241629
 21
19.85938176
 31
0.0
  0
LINE
  5
14E
100
AcDbEntity
  8
0
  6
CONTINUOUS
 62
       136
100
AcDbLine
 10
20.6145241629
 20
19.7968817608
 30
0.0
 11
17.2373393631
 21
19.7968817608
 31
0.0
  0
LINE
  5
14F
100
AcDbEntity
  8
0
  6
CONTINUOUS
 62
       136
100
AcDbLine
 10
16.6607089627
 20
19.7968817608
 30
0.0
 11
13.2835241629
 21
19.7968817608
 31
0.0
  0
TEXT
  5
150
100
AcDbEntity
  8
0
  6
CONTINUOUS
 62
       136
100
AcDbText
 10
16.7044589697
 20
19.7343817608
 30
0.0
 40
0.125
  1
7 5/16
  7
ARIAL_TTF
 11
16.7044589697
 21
19.8593817608
 31
0.0
100
AcDbText
 73
         3
  0
POLYLINE
  5
151
100
AcDbEntity
  8
0
  6
CONTINUOUS
 62
       136
100
AcDb2dPolyline
 66
         1
 10
0.0
 20
0.0
 30
0.0
  0
VERTEX
  5
152
100
AcDbEntity
  8
0
  6
CONTINUOUS
 62
       136
100
AcDbVertex
100
AcDb2dVertex
 10
16.3645241644
 20
19.4265361461
 30
0.0
  0
VERTEX
  5
153
100
AcDbEntity
  8
0
  6
CONTINUOUS
 62
       136
100
AcDbVertex
100
AcDb2dVertex
 10
16.4895241629
 20
19.4057028131
 30
0.0
  0
VERTEX
  5
154
100
AcDbEntity
  8
0
  6
CONTINUOUS
 62
       136
100
AcDbVertex
100
AcDb2dVertex
 10
16.3645241644
 20
19.38486948
 30
0.0
  0
VERTEX
  5
155
100
AcDbEntity
  8
0
  6
CONTINUOUS
 62
       136
100
AcDbVertex
100
AcDb2dVertex
 10
16.3645241644
 20
19.4265361461
 30
0.0
  0
SEQEND
  5
156
100
AcDbEntity
  8
0
  6
CONTINUOUS
 62
       136
  0
POLYLINE
  5
157
100
AcDbEntity
  8
0
  6
CONTINUOUS
 62
       136
100
AcDb2dPolyline
 66
         1
 10
0.0
 20
0.0
 30
0.0
  0
VERTEX
  5
158
100
AcDbEntity
  8
0
  6
CONTINUOUS
 62
       136
100
AcDbVertex
100
AcDb2dVertex
 10
13.4085241614
 20
19.4265361461
 30
0.0
  0
VERTEX
  5
159
100
AcDbEntity
  8
0
  6
CONTINUOUS
 62
       136
100
AcDbVertex
100
AcDb2dVertex
 10
13.2835241629
 20
19.4057028131
 30
0.0
  0
VERTEX
  5
15A
100
AcDbEntity
  8
0
  6
CONTINUOUS
 62
       136
100
AcDbVertex
100
AcDb2dVertex
 10
13.4085241614
 20
19.38486948
 30
0.0
  0
VERTEX
  5
15B
100
AcDbEntity
  8
0
  6
CONTINUOUS
 62
       136
100
AcDbVertex
100
AcDb2dVertex
 10
13.4085241614
 20
19.4265361461
 30
0.0
  0
SEQEND
  5
15C
100
AcDbEntity
  8
0
  6
CONTINUOUS
 62
       136
  0
LINE
  5
15D
100
AcDbEntity
  8
0
  6
CONTINUOUS
 62
       136
100
AcDbLine
 10
16.4895241629
 20
17.5924126683
 30
0.0
 11
16.4895241629
 21
19.4682028123
 31
0.0
  0
LINE
  5
15E
100
AcDbEntity
  8
0
  6
CONTINUOUS
 62
       136
100
AcDbLine
 10
13.2835241629
 20
17.5924126683
 30
0.0
 11
13.2835241629
 21
19.4682028123
 31
0.0
  0
LINE
  5
15F
100
AcDbEntity
  8
0
  6
CONTINUOUS
 62
       136
100
AcDbLine
 10
16.4895241629
 20
19.4057028131
 30
0.0
 11
15.1748392969
 21
19.4057028131
 31
0.0
  0
LINE
  5
160
100
AcDbEntity
  8
0
  6
CONTINUOUS
 62
       136
100
AcDbLine
 10
14.5982088822
 20
19.4057028131
 30
0.0
 11
13.2835241629
 21
19.4057028131
 31
0.0
  0
TEXT
  5
161
100
AcDbEntity
  8
0
  6
CONTINUOUS
 62
       136
100
AcDbText
 10
14.6419589035
 20
19.3432028131
 30
0.0
 40
0.125
  1
3 3/16
  7
ARIAL_TTF
 11
14.6419589035
 21
19.4682028131
 31
0.0
100
AcDbText
 73
         3
  0
POLYLINE
  5
162
100
AcDbEntity
  8
0
  6
CONTINUOUS
 62
       136
100
AcDb2dPolyline
 66
         1
 10
0.0
 20
0.0
 30
0.0
  0
VERTEX
  5
163
100
AcDbEntity
  8
0
  6
CONTINUOUS
 62
       136
100
AcDbVertex
100
AcDb2dVertex
 10
20.4895241644
 20
19.3939379494
 30
0.0
  0
VERTEX
  5
164
100
AcDbEntity
  8
0
  6
CONTINUOUS
 62
       136
100
AcDbVertex
100
AcDb2dVertex
 10
20.6145241629
 20
19.3731046163
 30
0.0
  0
VERTEX
  5
165
100
AcDbEntity
  8
0
  6
CONTINUOUS
 62
       136
100
AcDbVertex
100
AcDb2dVertex
 10
20.4895241644
 20
19.3522712832
 30
0.0
  0
VERTEX
  5
166
100
AcDbEntity
  8
0
  6
CONTINUOUS
 62
       136
100
AcDbVertex
100
AcDb2dVertex
 10
20.4895241644
 20
19.3939379494
 30
0.0
  0
SEQEND
  5
167
100
AcDbEntity
  8
0
  6
CONTINUOUS
 62
       136
  0
POLYLINE
  5
168
100
AcDbEntity
  8
0
  6
CONTINUOUS
 62
       136
100
AcDb2dPolyline
 66
         1
 10
0.0
 20
0.0
 30
0.0
  0
VERTEX
  5
169
100
AcDbEntity
  8
0
  6
CONTINUOUS
 62
       136
100
AcDbVertex
100
AcDb2dVertex
 10
17.5335241614
 20
19.3939379494
 30
0.0
  0
VERTEX
  5
16A
100
AcDbEntity
  8
0
  6
CONTINUOUS
 62
       136
100
AcDbVertex
100
AcDb2dVertex
 10
17.4085241629
 20
19.3731046163
 30
0.0
  0
VERTEX
  5
16B
100
AcDbEntity
  8
0
  6
CONTINUOUS
 62
       136
100
AcDbVertex
100
AcDb2dVertex
 10
17.5335241614
 20
19.3522712832
 30
0.0
  0
VERTEX
  5
16C
100
AcDbEntity
  8
0
  6
CONTINUOUS
 62
       136
100
AcDbVertex
100
AcDb2dVertex
 10
17.5335241614
 20
19.3939379494
 30
0.0
  0
SEQEND
  5
16D
100
AcDbEntity
  8
0
  6
CONTINUOUS
 62
       136
  0
LINE
  5
16E
100
AcDbEntity
  8
0
  6
CONTINUOUS
 62
       136
100
AcDbLine
 10
20.6145241629
 20
17.5924126683
 30
0.0
 11
20.6145241629
 21
19.4356046156
 31
0.0
  0
LINE
  5
16F
100
AcDbEntity
  8
0
  6
CONTINUOUS
 62
       136
100
AcDbLine
 10
17.4085241629
 20
17.5924126683
 30
0.0
 11
17.4085241629
 21
19.4356046156
 31
0.0
  0
LINE
  5
170
100
AcDbEntity
  8
0
  6
CONTINUOUS
 62
       136
100
AcDbLine
 10
20.6145241629
 20
19.3731046163
 30
0.0
 11
19.2998392969
 21
19.3731046163
 31
0.0
  0
LINE
  5
171
100
AcDbEntity
  8
0
  6
CONTINUOUS
 62
       136
100
AcDbLine
 10
18.7232088822
 20
19.3731046163
 30
0.0
 11
17.4085241629
 21
19.3731046163
 31
0.0
  0
TEXT
  5
172
100
AcDbEntity
  8
0
  6
CONTINUOUS
 62
       136
100
AcDbText
 10
18.7669589035
 20
19.3106046163
 30
0.0
 40
0.125
  1
3 3/16
  7
ARIAL_TTF
 11
18.7669589035
 21
19.4356046163
 31
0.0
100
AcDbText
 73
         3
  0
POLYLINE
  5
173
100
AcDbEntity
  8
0
  6
CONTINUOUS
 62
       136
100
AcDb2dPolyline
 66
         1
 10
0.0
 20
0.0
 30
0.0
  0
VERTEX
  5
174
100
AcDbEntity
  8
0
  6
CONTINUOUS
 62
       136
100
AcDbVertex
100
AcDb2dVertex
 10
20.0015241644
 20
18.888664995
 30
0.0
  0
VERTEX
  5
175
100
AcDbEntity
  8
0
  6
CONTINUOUS
 62
       136
100
AcDbVertex
100
AcDb2dVertex
 10
20.1265241629
 20
18.8678316619
 30
0.0
  0
VERTEX
  5
176
100
AcDbEntity
  8
0
  6
CONTINUOUS
 62
       136
100
AcDbVertex
100
AcDb2dVertex
 10
20.0015241644
 20
18.8469983288
 30
0.0
  0
VERTEX
  5
177
100
AcDbEntity
  8
0
  6
CONTINUOUS
 62
       136
100
AcDbVertex
100
AcDb2dVertex
 10
20.0015241644
 20
18.888664995
 30
0.0
  0
SEQEND
  5
178
100
AcDbEntity
  8
0
  6
CONTINUOUS
 62
       136
  0
POLYLINE
  5
179
100
AcDbEntity
  8
0
  6
CONTINUOUS
 62
       136
100
AcDb2dPolyline
 66
         1
 10
0.0
 20
0.0
 30
0.0
  0
VERTEX
  5
17A
100
AcDbEntity
  8
0
  6
CONTINUOUS
 62
       136
100
AcDbVertex
100
AcDb2dVertex
 10
18.0215241614
 20
18.888664995
 30
0.0
  0
VERTEX
  5
17B
100
AcDbEntity
  8
0
  6
CONTINUOUS
 62
       136
100
AcDbVertex
100
AcDb2dVertex
 10
17.8965241629
 20
18.8678316619
 30
0.0
  0
VERTEX
  5
17C
100
AcDbEntity
  8
0
  6
CONTINUOUS
 62
       136
100
AcDbVertex
100
AcDb2dVertex
 10
18.0215241614
 20
18.8469983288
 30
0.0
  0
VERTEX
  5
17D
100
AcDbEntity
  8
0
  6
CONTINUOUS
 62
       136
100
AcDbVertex
100
AcDb2dVertex
 10
18.0215241614
 20
18.888664995
 30
0.0
  0
SEQEND
  5
17E
100
AcDbEntity
  8
0
  6
CONTINUOUS
 62
       136
  0
LINE
  5
17F
100
AcDbEntity
  8
0
  6
CONTINUOUS
 62
       136
100
AcDbLine
 10
20.1265241629
 20
16.8914126683
 30
0.0
 11
20.1265241629
 21
18.9303316612
 31
0.0
  0
LINE
  5
180
100
AcDbEntity
  8
0
  6
CONTINUOUS
 62
       136
100
AcDbLine
 10
17.8965241629
 20
16.8914126683
 30
0.0
 11
17.8965241629
 21
18.9303316612
 31
0.0
  0
LINE
  5
181
100
AcDbEntity
  8
0
  6
CONTINUOUS
 62
       136
100
AcDbLine
 10
20.1265241629
 20
18.8678316619
 30
0.0
 11
19.2509263579
 21
18.8678316619
 31
0.0
  0
LINE
  5
182
100
AcDbEntity
  8
0
  6
CONTINUOUS
 62
       136
100
AcDbLine
 10
18.7721219679
 20
18.8678316619
 30
0.0
 11
17.8965241629
 21
18.8678316619
 31
0.0
  0
TEXT
  5
183
100
AcDbEntity
  8
0
  6
CONTINUOUS
 62
       136
100
AcDbText
 10
18.8158719962
 20
18.8053316619
 30
0.0
 40
0.125
  1
2 1/4
  7
ARIAL_TTF
 11
18.8158719962
 21
18.9303316619
 31
0.0
100
AcDbText
 73
         3
  0
POLYLINE
  5
184
100
AcDbEntity
  8
0
  6
CONTINUOUS
 62
       136
100
AcDb2dPolyline
 66
         1
 10
0.0
 20
0.0
 30
0.0
  0
VERTEX
  5
185
100
AcDbEntity
  8
0
  6
CONTINUOUS
 62
       136
100
AcDbVertex
100
AcDb2dVertex
 10
15.8765241644
 20
18.9049641667
 30
0.0
  0
VERTEX
  5
186
100
AcDbEntity
  8
0
  6
CONTINUOUS
 62
       136
100
AcDbVertex
100
AcDb2dVertex
 10
16.0015241629
 20
18.8841308336
 30
0.0
  0
VERTEX
  5
187
100
AcDbEntity
  8
0
  6
CONTINUOUS
 62
       136
100
AcDbVertex
100
AcDb2dVertex
 10
15.8765241644
 20
18.8632975005
 30
0.0
  0
VERTEX
  5
188
100
AcDbEntity
  8
0
  6
CONTINUOUS
 62
       136
100
AcDbVertex
100
AcDb2dVertex
 10
15.8765241644
 20
18.9049641667
 30
0.0
  0
SEQEND
  5
189
100
AcDbEntity
  8
0
  6
CONTINUOUS
 62
       136
  0
POLYLINE
  5
18A
100
AcDbEntity
  8
0
  6
CONTINUOUS
 62
       136
100
AcDb2dPolyline
 66
         1
 10
0.0
 20
0.0
 30
0.0
  0
VERTEX
  5
18B
100
AcDbEntity
  8
0
  6
CONTINUOUS
 62
       136
100
AcDbVertex
100
AcDb2dVertex
 10
13.8965241614
 20
18.9049641667
 30
0.0
  0
VERTEX
  5
18C
100
AcDbEntity
  8
0
  6
CONTINUOUS
 62
       136
100
AcDbVertex
100
AcDb2dVertex
 10
13.7715241629
 20
18.8841308336
 30
0.0
  0
VERTEX
  5
18D
100
AcDbEntity
  8
0
  6
CONTINUOUS
 62
       136
100
AcDbVertex
100
AcDb2dVertex
 10
13.8965241614
 20
18.8632975005
 30
0.0
  0
VERTEX
  5
18E
100
AcDbEntity
  8
0
  6
CONTINUOUS
 62
       136
100
AcDbVertex
100
AcDb2dVertex
 10
13.8965241614
 20
18.9049641667
 30
0.0
  0
SEQEND
  5
18F
100
AcDbEntity
  8
0
  6
CONTINUOUS
 62
       136
  0
LINE
  5
190
100
AcDbEntity
  8
0
  6
CONTINUOUS
 62
       136
100
AcDbLine
 10
16.0015241629
 20
16.8914126683
 30
0.0
 11
16.0015241629
 21
18.9466308329
 31
0.0
  0
LINE
  5
191
100
AcDbEntity
  8
0
  6
CONTINUOUS
 62
       136
100
AcDbLine
 10
13.7715241629
 20
16.8914126683
 30
0.0
 11
13.7715241629
 21
18.9466308329
 31
0.0
  0
LINE
  5
192
100
AcDbEntity
  8
0
  6
CONTINUOUS
 62
       136
100
AcDbLine
 10
16.0015241629
 20
18.8841308336
 30
0.0
 11
15.1259263579
 21
18.8841308336
 31
0.0
  0
LINE
  5
193
100
AcDbEntity
  8
0
  6
CONTINUOUS
 62
       136
100
AcDbLine
 10
14.6471219679
 20
18.8841308336
 30
0.0
 11
13.7715241629
 21
18.8841308336
 31
0.0
  0
TEXT
  5
194
100
AcDbEntity
  8
0
  6
CONTINUOUS
 62
       136
100
AcDbText
 10
14.6908719962
 20
18.8216308336
 30
0.0
 40
0.125
  1
2 1/4
  7
ARIAL_TTF
 11
14.6908719962
 21
18.9466308336
 31
0.0
100
AcDbText
 73
         3
  0
POLYLINE
  5
195
100
AcDbEntity
  8
0
  6
CONTINUOUS
 62
       136
100
AcDb2dPolyline
 66
         1
 10
0.0
 20
0.0
 30
0.0
  0
VERTEX
  5
196
100
AcDbEntity
  8
0
  6
CONTINUOUS
 62
       136
100
AcDbVertex
100
AcDb2dVertex
 10
23.8154903396
 20
18.4089126705
 30
0.0
  0
VERTEX
  5
197
100
AcDbEntity
  8
0
  6
CONTINUOUS
 62
       136
100
AcDbVertex
100
AcDb2dVertex
 10
23.7946570065
 20
18.533912669
 30
0.0
  0
VERTEX
  5
198
100
AcDbEntity
  8
0
  6
CONTINUOUS
 62
       136
100
AcDbVertex
100
AcDb2dVertex
 10
23.7738236734
 20
18.4089126705
 30
0.0
  0
VERTEX
  5
199
100
AcDbEntity
  8
0
  6
CONTINUOUS
 62
       136
100
AcDbVertex
100
AcDb2dVertex
 10
23.8154903396
 20
18.4089126705
 30
0.0
  0
SEQEND
  5
19A
100
AcDbEntity
  8
0
  6
CONTINUOUS
 62
       136
  0
POLYLINE
  5
19B
100
AcDbEntity
  8
0
  6
CONTINUOUS
 62
       136
100
AcDb2dPolyline
 66
         1
 10
0.0
 20
0.0
 30
0.0
  0
VERTEX
  5
19C
100
AcDbEntity
  8
0
  6
CONTINUOUS
 62
       136
100
AcDbVertex
100
AcDb2dVertex
 10
23.8154903396
 20
12.5789126675
 30
0.0
  0
VERTEX
  5
19D
100
AcDbEntity
  8
0
  6
CONTINUOUS
 62
       136
100
AcDbVertex
100
AcDb2dVertex
 10
23.7946570065
 20
12.453912669
 30
0.0
  0
VERTEX
  5
19E
100
AcDbEntity
  8
0
  6
CONTINUOUS
 62
       136
100
AcDbVertex
100
AcDb2dVertex
 10
23.7738236734
 20
12.5789126675
 30
0.0
  0
VERTEX
  5
19F
100
AcDbEntity
  8
0
  6
CONTINUOUS
 62
       136
100
AcDbVertex
100
AcDb2dVertex
 10
23.8154903396
 20
12.5789126675
 30
0.0
  0
SEQEND
  5
1A0
100
AcDbEntity
  8
0
  6
CONTINUOUS
 62
       136
  0
LINE
  5
1A1
100
AcDbEntity
  8
0
  6
CONTINUOUS
 62
       136
100
AcDbLine
 10
21.3540241622
 20
18.533912669
 30
0.0
 11
23.8571570058
 21
18.533912669
 31
0.0
  0
LINE
  5
1A2
100
AcDbEntity
  8
0
  6
CONTINUOUS
 62
       136
100
AcDbLine
 10
21.3540241622
 20
12.453912669
 30
0.0
 11
23.8571570058
 21
12.453912669
 31
0.0
  0
LINE
  5
1A3
100
AcDbEntity
  8
0
  6
CONTINUOUS
 62
       136
100
AcDbLine
 10
23.7946570065
 20
18.533912669
 30
0.0
 11
23.7946570065
 21
15.6001626666
 31
0.0
  0
LINE
  5
1A4
100
AcDbEntity
  8
0
  6
CONTINUOUS
 62
       136
100
AcDbLine
 10
23.7946570065
 20
15.3876626714
 30
0.0
 11
23.7946570065
 21
12.453912669
 31
0.0
  0
TEXT
  5
1A5
100
AcDbEntity
  8
0
  6
CONTINUOUS
 62
       136
100
AcDbText
 10
23.5500917891
 20
15.431412694
 30
0.0
 40
0.125
  1
6 1/16
  7
ARIAL_TTF
 11
23.5500917891
 21
15.556412694
 31
0.0
100
AcDbText
 73
         3
  0
POLYLINE
  5
1A6
100
AcDbEntity
  8
0
  6
CONTINUOUS
 62
       136
100
AcDb2dPolyline
 66
         1
 10
0.0
 20
0.0
 30
0.0
  0
VERTEX
  5
1A7
100
AcDbEntity
  8
0
  6
CONTINUOUS
 62
       136
100
AcDbVertex
100
AcDb2dVertex
 10
22.9516365473
 20
17.4849126705
 30
0.0
  0
VERTEX
  5
1A8
100
AcDbEntity
  8
0
  6
CONTINUOUS
 62
       136
100
AcDbVertex
100
AcDb2dVertex
 10
22.9308032142
 20
17.609912669
 30
0.0
  0
VERTEX
  5
1A9
100
AcDbEntity
  8
0
  6
CONTINUOUS
 62
       136
100
AcDbVertex
100
AcDb2dVertex
 10
22.9099698811
 20
17.4849126705
 30
0.0
  0
VERTEX
  5
1AA
100
AcDbEntity
  8
0
  6
CONTINUOUS
 62
       136
100
AcDbVertex
100
AcDb2dVertex
 10
22.9516365473
 20
17.4849126705
 30
0.0
  0
SEQEND
  5
1AB
100
AcDbEntity
  8
0
  6
CONTINUOUS
 62
       136
  0
POLYLINE
  5
1AC
100
AcDbEntity
  8
0
  6
CONTINUOUS
 62
       136
100
AcDb2dPolyline
 66
         1
 10
0.0
 20
0.0
 30
0.0
  0
VERTEX
  5
1AD
100
AcDbEntity
  8
0
  6
CONTINUOUS
 62
       136
100
AcDbVertex
100
AcDb2dVertex
 10
22.9516365473
 20
13.5029126675
 30
0.0
  0
VERTEX
  5
1AE
100
AcDbEntity
  8
0
  6
CONTINUOUS
 62
       136
100
AcDbVertex
100
AcDb2dVertex
 10
22.9308032142
 20
13.377912669
 30
0.0
  0
VERTEX
  5
1AF
100
AcDbEntity
  8
0
  6
CONTINUOUS
 62
       136
100
AcDbVertex
100
AcDb2dVertex
 10
22.9099698811
 20
13.5029126675
 30
0.0
  0
VERTEX
  5
1B0
100
AcDbEntity
  8
0
  6
CONTINUOUS
 62
       136
100
AcDbVertex
100
AcDb2dVertex
 10
22.9516365473
 20
13.5029126675
 30
0.0
  0
SEQEND
  5
1B1
100
AcDbEntity
  8
0
  6
CONTINUOUS
 62
       136
  0
LINE
  5
1B2
100
AcDbEntity
  8
0
  6
CONTINUOUS
 62
       136
100
AcDbLine
 10
20.5970241622
 20
17.609912669
 30
0.0
 11
22.9933032135
 21
17.609912669
 31
0.0
  0
LINE
  5
1B3
100
AcDbEntity
  8
0
  6
CONTINUOUS
 62
       136
100
AcDbLine
 10
20.5970241622
 20
13.377912669
 30
0.0
 11
22.9933032135
 21
13.377912669
 31
0.0
  0
LINE
  5
1B4
100
AcDbEntity
  8
0
  6
CONTINUOUS
 62
       136
100
AcDbLine
 10
22.9308032142
 20
17.609912669
 30
0.0
 11
22.9308032142
 21
15.6001626992
 31
0.0
  0
LINE
  5
1B5
100
AcDbEntity
  8
0
  6
CONTINUOUS
 62
       136
100
AcDbLine
 10
22.9308032142
 20
15.3876627855
 30
0.0
 11
22.9308032142
 21
13.377912669
 31
0.0
  0
TEXT
  5
1B6
100
AcDbEntity
  8
0
  6
CONTINUOUS
 62
       136
100
AcDbText
 10
22.7351510403
 20
15.4314127266
 30
0.0
 40
0.125
  1
4 1/4
  7
ARIAL_TTF
 11
22.7351510403
 21
15.5564127266
 31
0.0
100
AcDbText
 73
         3
  0
POLYLINE
  5
1B7
100
AcDbEntity
  8
0
  6
CONTINUOUS
 62
       136
100
AcDb2dPolyline
 66
         1
 10
0.0
 20
0.0
 30
0.0
  0
VERTEX
  5
1B8
100
AcDbEntity
  8
0
  6
CONTINUOUS
 62
       136
100
AcDbVertex
100
AcDb2dVertex
 10
22.0877828287
 20
16.8289126705
 30
0.0
  0
VERTEX
  5
1B9
100
AcDbEntity
  8
0
  6
CONTINUOUS
 62
       136
100
AcDbVertex
100
AcDb2dVertex
 10
22.0669494956
 20
16.953912669
 30
0.0
  0
VERTEX
  5
1BA
100
AcDbEntity
  8
0
  6
CONTINUOUS
 62
       136
100
AcDbVertex
100
AcDb2dVertex
 10
22.0461161626
 20
16.8289126705
 30
0.0
  0
VERTEX
  5
1BB
100
AcDbEntity
  8
0
  6
CONTINUOUS
 62
       136
100
AcDbVertex
100
AcDb2dVertex
 10
22.0877828287
 20
16.8289126705
 30
0.0
  0
SEQEND
  5
1BC
100
AcDbEntity
  8
0
  6
CONTINUOUS
 62
       136
  0
POLYLINE
  5
1BD
100
AcDbEntity
  8
0
  6
CONTINUOUS
 62
       136
100
AcDb2dPolyline
 66
         1
 10
0.0
 20
0.0
 30
0.0
  0
VERTEX
  5
1BE
100
AcDbEntity
  8
0
  6
CONTINUOUS
 62
       136
100
AcDbVertex
100
AcDb2dVertex
 10
22.0877828287
 20
14.1589126675
 30
0.0
  0
VERTEX
  5
1BF
100
AcDbEntity
  8
0
  6
CONTINUOUS
 62
       136
100
AcDbVertex
100
AcDb2dVertex
 10
22.0669494956
 20
14.033912669
 30
0.0
  0
VERTEX
  5
1C0
100
AcDbEntity
  8
0
  6
CONTINUOUS
 62
       136
100
AcDbVertex
100
AcDb2dVertex
 10
22.0461161626
 20
14.1589126675
 30
0.0
  0
VERTEX
  5
1C1
100
AcDbEntity
  8
0
  6
CONTINUOUS
 62
       136
100
AcDbVertex
100
AcDb2dVertex
 10
22.0877828287
 20
14.1589126675
 30
0.0
  0
SEQEND
  5
1C2
100
AcDbEntity
  8
0
  6
CONTINUOUS
 62
       136
  0
LINE
  5
1C3
100
AcDbEntity
  8
0
  6
CONTINUOUS
 62
       136
100
AcDbLine
 10
20.0640241769
 20
16.953912669
 30
0.0
 11
22.1294494949
 21
16.953912669
 31
0.0
  0
LINE
  5
1C4
100
AcDbEntity
  8
0
  6
CONTINUOUS
 62
       136
100
AcDbLine
 10
19.8340241622
 20
14.033912669
 30
0.0
 11
22.1294494949
 21
14.033912669
 31
0.0
  0
LINE
  5
1C5
100
AcDbEntity
  8
0
  6
CONTINUOUS
 62
       136
100
AcDbLine
 10
22.0669494956
 20
16.953912669
 30
0.0
 11
22.0669494956
 21
15.6001627077
 31
0.0
  0
LINE
  5
1C6
100
AcDbEntity
  8
0
  6
CONTINUOUS
 62
       136
100
AcDbLine
 10
22.0669494956
 20
15.3876627771
 30
0.0
 11
22.0669494956
 21
14.033912669
 31
0.0
  0
TEXT
  5
1C7
100
AcDbEntity
  8
0
  6
CONTINUOUS
 62
       136
100
AcDbText
 10
21.7734712348
 20
15.4314127351
 30
0.0
 40
0.125
  1
2 15/16
  7
ARIAL_TTF
 11
21.7734712348
 21
15.5564127351
 31
0.0
100
AcDbText
 73
         3
  0
ARC
  5
1C8
100
AcDbEntity
  8
1_000_022
  6
CONTINUOUS
 62
         7
100
AcDbCircle
 10
19.4640241629
 20
8.5290195026
 30
0.0
 40
0.06
100
AcDbArc
 50
0.0
 51
90.0
  0
LINE
  5
1C9
100
AcDbEntity
  8
1_000_022
  6
CONTINUOUS
 62
         7
100
AcDbLine
 10
20.1240241629
 20
8.4690195026
 30
0.0
 11
20.1240241629
 21
8.5290195026
 31
0.0
  0
ARC
  5
1CA
100
AcDbEntity
  8
1_000_022
  6
CONTINUOUS
 62
         7
100
AcDbCircle
 10
14.4340241629
 20
8.5290195026
 30
0.0
 40
0.06
100
AcDbArc
 50
90.0
 51
180.0
  0
LINE
  5
1CB
100
AcDbEntity
  8
1_000_022
  6
CONTINUOUS
 62
         7
100
AcDbLine
 10
14.3740241629
 20
8.4690195026
 30
0.0
 11
14.3740241629
 21
8.5290195026
 31
0.0
  0
ARC
  5
1CC
100
AcDbEntity
  8
1_000_022
  6
CONTINUOUS
 62
         7
100
AcDbCircle
 10
14.3140241629
 20
8.4690195026
 30
0.0
 40
0.06
100
AcDbArc
 50
270.0
 51
360.0
  0
ARC
  5
1CD
100
AcDbEntity
  8
1_000_022
  6
CONTINUOUS
 62
         7
100
AcDbCircle
 10
20.0640241629
 20
8.4690195026
 30
0.0
 40
0.06
100
AcDbArc
 50
270.0
 51
360.0
  0
ARC
  5
1CE
100
AcDbEntity
  8
1_000_022
  6
CONTINUOUS
 62
         7
100
AcDbCircle
 10
20.1840241629
 20
8.5290195026
 30
0.0
 40
0.06
100
AcDbArc
 50
90.0
 51
180.0
  0
LINE
  5
1CF
100
AcDbEntity
  8
1_000_022
  6
CONTINUOUS
 62
         7
100
AcDbLine
 10
19.5240241629
 20
8.5290195026
 30
0.0
 11
19.5240241629
 21
8.4690195026
 31
0.0
  0
ARC
  5
1D0
100
AcDbEntity
  8
1_000_022
  6
CONTINUOUS
 62
         7
100
AcDbCircle
 10
13.7140241629
 20
8.5290195026
 30
0.0
 40
0.06
100
AcDbArc
 50
0.0
 51
90.0
  0
LINE
  5
1D1
100
AcDbEntity
  8
1_000_022
  6
CONTINUOUS
 62
         7
100
AcDbLine
 10
13.7740241629
 20
8.5290195026
 30
0.0
 11
13.7740241629
 21
8.4690195026
 31
0.0
  0
ARC
  5
1D2
100
AcDbEntity
  8
1_000_022
  6
CONTINUOUS
 62
         7
100
AcDbCircle
 10
13.8340241629
 20
8.4690195026
 30
0.0
 40
0.06
100
AcDbArc
 50
180.0
 51
270.0
  0
ARC
  5
1D3
100
AcDbEntity
  8
1_000_022
  6
CONTINUOUS
 62
         7
100
AcDbCircle
 10
19.5840241629
 20
8.4690195026
 30
0.0
 40
0.06
100
AcDbArc
 50
180.0
 51
270.0
  0
LINE
  5
1D4
100
AcDbEntity
  8
1_000_022
  6
CONTINUOUS
 62
         7
100
AcDbLine
 10
13.6615241629
 20
8.6840195026
 30
0.0
 11
13.6612948799
 21
8.6877214493
 31
0.0
  0
ARC
  5
1D5
100
AcDbEntity
  8
1_000_022
  6
CONTINUOUS
 62
         7
100
AcDbCircle
 10
16.0815241629
 20
8.6190195026
 30
0.0
 40
0.03
100
AcDbArc
 50
270.0
 51
360.0
  0
LINE
  5
1D6
100
AcDbEntity
  8
1_000_022
  6
CONTINUOUS
 62
         7
100
AcDbLine
 10
13.1962330811
 20
8.6654900908
 30
0.0
 11
13.1897663875
 21
8.6742005538
 31
0.0
  0
ARC
  5
1D7
100
AcDbEntity
  8
1_000_022
  6
CONTINUOUS
 62
         7
100
AcDbCircle
 10
13.6315241629
 20
8.6840195026
 30
0.0
 40
0.03
100
AcDbArc
 50
7.088264714
 51
90.0
  0
ARC
  5
1D8
100
AcDbEntity
  8
1_000_022
  6
CONTINUOUS
 62
         7
100
AcDbCircle
 10
16.1415241629
 20
8.6840195026
 30
0.0
 40
0.03
100
AcDbArc
 50
90.0
 51
172.911735286
  0
ARC
  5
1D9
100
AcDbEntity
  8
1_000_022
  6
CONTINUOUS
 62
         7
100
AcDbCircle
 10
17.7565241629
 20
8.6840195026
 30
0.0
 40
0.03
100
AcDbArc
 50
7.088264714
 51
90.0
  0
ARC
  5
1DA
100
AcDbEntity
  8
1_000_022
  6
CONTINUOUS
 62
         7
100
AcDbCircle
 10
20.2665241629
 20
8.6840195026
 30
0.0
 40
0.03
100
AcDbArc
 50
90.0
 51
172.911735286
  0
ARC
  5
1DB
100
AcDbEntity
  8
1_000_022
  6
CONTINUOUS
 62
         7
100
AcDbCircle
 10
17.3393300538
 20
8.7740195026
 30
0.0
 40
0.06
100
AcDbArc
 50
186.1506398279
 51
270.0
  0
ARC
  5
1DC
100
AcDbEntity
  8
1_000_022
  6
CONTINUOUS
 62
         7
100
AcDbCircle
 10
16.558718272
 20
8.7740195026
 30
0.0
 40
0.06
100
AcDbArc
 50
270.0
 51
353.8493601721
  0
ARC
  5
1DD
100
AcDbEntity
  8
1_000_022
  6
CONTINUOUS
 62
         7
100
AcDbCircle
 10
20.683718272
 20
8.7740195026
 30
0.0
 40
0.06
100
AcDbArc
 50
270.0
 51
353.8493601721
  0
ARC
  5
1DE
100
AcDbEntity
  8
1_000_022
  6
CONTINUOUS
 62
         7
100
AcDbCircle
 10
13.2143300538
 20
8.7740195026
 30
0.0
 40
0.06
100
AcDbArc
 50
186.1506398279
 51
270.0
  0
ARC
  5
1DF
100
AcDbEntity
  8
1_000_022
  6
CONTINUOUS
 62
         7
100
AcDbCircle
 10
13.6915241629
 20
8.6190195026
 30
0.0
 40
0.03
100
AcDbArc
 50
180.0
 51
270.0
  0
LINE
  5
1E0
100
AcDbEntity
  8
1_000_022
  6
CONTINUOUS
 62
         7
100
AcDbLine
 10
16.1117534459
 20
8.6877214493
 30
0.0
 11
16.1115241629
 21
8.6840195026
 31
0.0
  0
ARC
  5
1E1
100
AcDbEntity
  8
1_000_022
  6
CONTINUOUS
 62
         7
100
AcDbCircle
 10
16.4195241629
 20
8.7890195026
 30
0.0
 40
0.2
100
AcDbArc
 50
270.0
 51
321.8554868988
  0
LINE
  5
1E2
100
AcDbEntity
  8
1_000_022
  6
CONTINUOUS
 62
         7
100
AcDbLine
 10
16.5832819383
 20
8.6742005538
 30
0.0
 11
16.5768152448
 21
8.6654900908
 31
0.0
  0
ARC
  5
1E3
100
AcDbEntity
  8
1_000_022
  6
CONTINUOUS
 62
         7
100
AcDbCircle
 10
16.4195241629
 20
8.7890195026
 30
0.0
 40
0.2
100
AcDbArc
 50
324.9637388146
 51
353.8493601721
  0
LINE
  5
1E4
100
AcDbEntity
  8
1_000_022
  6
CONTINUOUS
 62
         7
100
AcDbLine
 10
16.4195241629
 20
8.5890195026
 30
0.0
 11
16.2995241629
 21
8.5890195026
 31
0.0
  0
LINE
  5
1E5
100
AcDbEntity
  8
1_000_022
  6
CONTINUOUS
 62
         7
100
AcDbLine
 10
16.2995241629
 20
8.5890195026
 30
0.0
 11
16.0815241629
 21
8.5890195026
 31
0.0
  0
LINE
  5
1E6
100
AcDbEntity
  8
1_000_022
  6
CONTINUOUS
 62
         7
100
AcDbLine
 10
16.1115241629
 20
8.6840195026
 30
0.0
 11
16.1115241629
 21
8.6190195026
 31
0.0
  0
LINE
  5
1E7
100
AcDbEntity
  8
1_000_022
  6
CONTINUOUS
 62
         7
100
AcDbLine
 10
13.7890680259
 20
8.5890195026
 30
0.0
 11
13.6915241629
 21
8.5890195026
 31
0.0
  0
LINE
  5
1E8
100
AcDbEntity
  8
1_000_022
  6
CONTINUOUS
 62
         7
100
AcDbLine
 10
16.0815241629
 20
8.5890195026
 30
0.0
 11
14.3589802999
 21
8.5890195026
 31
0.0
  0
LINE
  5
1E9
100
AcDbEntity
  8
1_000_022
  6
CONTINUOUS
 62
         7
100
AcDbLine
 10
20.2065241629
 20
8.5890195026
 30
0.0
 11
20.1089802999
 21
8.5890195026
 31
0.0
  0
LINE
  5
1EA
100
AcDbEntity
  8
1_000_022
  6
CONTINUOUS
 62
         7
100
AcDbLine
 10
19.5390680259
 20
8.5890195026
 30
0.0
 11
17.8165241629
 21
8.5890195026
 31
0.0
  0
LINE
  5
1EB
100
AcDbEntity
  8
1_000_022
  6
CONTINUOUS
 62
         7
100
AcDbLine
 10
19.5840241629
 20
8.4090195026
 30
0.0
 11
20.0640241629
 21
8.4090195026
 31
0.0
  0
LINE
  5
1EC
100
AcDbEntity
  8
1_000_022
  6
CONTINUOUS
 62
         7
100
AcDbLine
 10
13.8340241629
 20
8.4090195026
 30
0.0
 11
14.3140241629
 21
8.4090195026
 31
0.0
  0
LINE
  5
1ED
100
AcDbEntity
  8
1_000_022
  6
CONTINUOUS
 62
         7
100
AcDbLine
 10
17.5985241629
 20
8.5890195026
 30
0.0
 11
17.4785241629
 21
8.5890195026
 31
0.0
  0
ARC
  5
1EE
100
AcDbEntity
  8
1_000_022
  6
CONTINUOUS
 62
         7
100
AcDbCircle
 10
17.4785241629
 20
8.7890195026
 30
0.0
 40
0.2
100
AcDbArc
 50
218.1445131012
 51
270.0
  0
LINE
  5
1EF
100
AcDbEntity
  8
1_000_022
  6
CONTINUOUS
 62
         7
100
AcDbLine
 10
17.3212330811
 20
8.6654900908
 30
0.0
 11
17.3147663875
 21
8.6742005538
 31
0.0
  0
ARC
  5
1F0
100
AcDbEntity
  8
1_000_022
  6
CONTINUOUS
 62
         7
100
AcDbCircle
 10
17.4785241629
 20
8.7890195026
 30
0.0
 40
0.2
100
AcDbArc
 50
186.1506398279
 51
215.0362611854
  0
LINE
  5
1F1
100
AcDbEntity
  8
1_000_022
  6
CONTINUOUS
 62
         7
100
AcDbLine
 10
17.7865241629
 20
8.6840195026
 30
0.0
 11
17.7862948799
 21
8.6877214493
 31
0.0
  0
ARC
  5
1F2
100
AcDbEntity
  8
1_000_022
  6
CONTINUOUS
 62
         7
100
AcDbCircle
 10
20.2065241629
 20
8.6190195026
 30
0.0
 40
0.03
100
AcDbArc
 50
270.0
 51
360.0
  0
LINE
  5
1F3
100
AcDbEntity
  8
1_000_022
  6
CONTINUOUS
 62
         7
100
AcDbLine
 10
20.5445241629
 20
8.5890195026
 30
0.0
 11
20.4245241629
 21
8.5890195026
 31
0.0
  0
LINE
  5
1F4
100
AcDbEntity
  8
1_000_022
  6
CONTINUOUS
 62
         7
100
AcDbLine
 10
20.2365241629
 20
8.6840195026
 30
0.0
 11
20.2365241629
 21
8.6190195026
 31
0.0
  0
LINE
  5
1F5
100
AcDbEntity
  8
1_000_022
  6
CONTINUOUS
 62
         7
100
AcDbLine
 10
20.2367534459
 20
8.6877214493
 30
0.0
 11
20.2365241629
 21
8.6840195026
 31
0.0
  0
ARC
  5
1F6
100
AcDbEntity
  8
1_000_022
  6
CONTINUOUS
 62
         7
100
AcDbCircle
 10
20.5445241629
 20
8.7890195026
 30
0.0
 40
0.2
100
AcDbArc
 50
270.0
 51
321.8554868988
  0
LINE
  5
1F7
100
AcDbEntity
  8
1_000_022
  6
CONTINUOUS
 62
         7
100
AcDbLine
 10
20.7082819383
 20
8.6742005538
 30
0.0
 11
20.7018152448
 21
8.6654900908
 31
0.0
  0
ARC
  5
1F8
100
AcDbEntity
  8
1_000_022
  6
CONTINUOUS
 62
         7
100
AcDbCircle
 10
20.5445241629
 20
8.7890195026
 30
0.0
 40
0.2
100
AcDbArc
 50
324.9637388146
 51
353.8493601721
  0
LINE
  5
1F9
100
AcDbEntity
  8
1_000_022
  6
CONTINUOUS
 62
         7
100
AcDbLine
 10
20.4245241629
 20
8.5890195026
 30
0.0
 11
20.2065241629
 21
8.5890195026
 31
0.0
  0
LINE
  5
1FA
100
AcDbEntity
  8
1_000_022
  6
CONTINUOUS
 62
         7
100
AcDbLine
 10
20.5345241629
 20
8.7140195026
 30
0.0
 11
20.2665241629
 21
8.7140195026
 31
0.0
  0
LINE
  5
1FB
100
AcDbEntity
  8
1_000_022
  6
CONTINUOUS
 62
         7
100
AcDbLine
 10
20.683718272
 20
8.7140195026
 30
0.0
 11
20.5345241629
 21
8.7140195026
 31
0.0
  0
LINE
  5
1FC
100
AcDbEntity
  8
1_000_022
  6
CONTINUOUS
 62
         7
100
AcDbLine
 10
16.4095241629
 20
8.7140195026
 30
0.0
 11
16.1415241629
 21
8.7140195026
 31
0.0
  0
LINE
  5
1FD
100
AcDbEntity
  8
1_000_022
  6
CONTINUOUS
 62
         7
100
AcDbLine
 10
16.558718272
 20
8.7140195026
 30
0.0
 11
16.4095241629
 21
8.7140195026
 31
0.0
  0
LINE
  5
1FE
100
AcDbEntity
  8
1_000_022
  6
CONTINUOUS
 62
         7
100
AcDbLine
 10
17.4885241629
 20
8.7140195026
 30
0.0
 11
17.3393300538
 21
8.7140195026
 31
0.0
  0
LINE
  5
1FF
100
AcDbEntity
  8
1_000_022
  6
CONTINUOUS
 62
         7
100
AcDbLine
 10
17.7565241629
 20
8.7140195026
 30
0.0
 11
17.4885241629
 21
8.7140195026
 31
0.0
  0
LINE
  5
200
100
AcDbEntity
  8
1_000_022
  6
CONTINUOUS
 62
         7
100
AcDbLine
 10
13.4735241629
 20
8.5890195026
 30
0.0
 11
13.3535241629
 21
8.5890195026
 31
0.0
  0
LINE
  5
201
100
AcDbEntity
  8
1_000_022
  6
CONTINUOUS
 62
         7
100
AcDbLine
 10
13.6915241629
 20
8.5890195026
 30
0.0
 11
13.4735241629
 21
8.5890195026
 31
0.0
  0
LINE
  5
202
100
AcDbEntity
  8
1_000_022
  6
CONTINUOUS
 62
         7
100
AcDbLine
 10
13.6615241629
 20
8.6190195026
 30
0.0
 11
13.6615241629
 21
8.6840195026
 31
0.0
  0
LINE
  5
203
100
AcDbEntity
  8
1_000_022
  6
CONTINUOUS
 62
         7
100
AcDbLine
 10
13.6315241629
 20
8.7140195026
 30
0.0
 11
13.3635241629
 21
8.7140195026
 31
0.0
  0
LINE
  5
204
100
AcDbEntity
  8
1_000_022
  6
CONTINUOUS
 62
         7
100
AcDbLine
 10
13.3635241629
 20
8.7140195026
 30
0.0
 11
13.2143300538
 21
8.7140195026
 31
0.0
  0
ARC
  5
205
100
AcDbEntity
  8
1_000_022
  6
CONTINUOUS
 62
         7
100
AcDbCircle
 10
20.5445241629
 20
8.7890195026
 30
0.0
 40
0.2
100
AcDbArc
 50
353.8493601721
 51
360.0
  0
ARC
  5
206
100
AcDbEntity
  8
1_000_022
  6
CONTINUOUS
 62
         7
100
AcDbCircle
 10
17.4785241629
 20
8.7890195026
 30
0.0
 40
0.2
100
AcDbArc
 50
180.0
 51
186.1506398279
  0
ARC
  5
207
100
AcDbEntity
  8
1_000_022
  6
CONTINUOUS
 62
         7
100
AcDbCircle
 10
13.3535241629
 20
8.7890195026
 30
0.0
 40
0.2
100
AcDbArc
 50
180.0
 51
186.1506398279
  0
ARC
  5
208
100
AcDbEntity
  8
1_000_022
  6
CONTINUOUS
 62
         7
100
AcDbCircle
 10
16.4195241629
 20
8.7890195026
 30
0.0
 40
0.2
100
AcDbArc
 50
353.8493601721
 51
360.0
  0
ARC
  5
209
100
AcDbEntity
  8
1_000_022
  6
CONTINUOUS
 62
         7
100
AcDbCircle
 10
20.8045241629
 20
8.9490195026
 30
0.0
 40
0.06
100
AcDbArc
 50
90.0
 51
180.0
  0
ARC
  5
20A
100
AcDbEntity
  8
1_000_022
  6
CONTINUOUS
 62
         7
100
AcDbCircle
 10
13.0935241629
 20
8.9490195026
 30
0.0
 40
0.06
100
AcDbArc
 50
0.0
 51
90.0
  0
ARC
  5
20B
100
AcDbEntity
  8
1_000_022
  6
CONTINUOUS
 62
         7
100
AcDbCircle
 10
17.2185241629
 20
8.9490195026
 30
0.0
 40
0.06
100
AcDbArc
 50
0.0
 51
90.0
  0
ARC
  5
20C
100
AcDbEntity
  8
1_000_022
  6
CONTINUOUS
 62
         7
100
AcDbCircle
 10
16.6795241629
 20
8.9490195026
 30
0.0
 40
0.06
100
AcDbArc
 50
90.0
 51
180.0
  0
ARC
  5
20D
100
AcDbEntity
  8
1_000_022
  6
CONTINUOUS
 62
         7
100
AcDbCircle
 10
21.5115241629
 20
9.1190195026
 30
0.0
 40
0.03
100
AcDbArc
 50
0.0
 51
90.0
  0
ARC
  5
20E
100
AcDbEntity
  8
1_000_022
  6
CONTINUOUS
 62
         7
100
AcDbCircle
 10
12.3865241629
 20
9.1190195026
 30
0.0
 40
0.03
100
AcDbArc
 50
90.0
 51
180.0
  0
LINE
  5
20F
100
AcDbEntity
  8
1_000_022
  6
CONTINUOUS
 62
         7
100
AcDbLine
 10
17.2785241629
 20
8.7890195026
 30
0.0
 11
17.2785241629
 21
8.9490195026
 31
0.0
  0
LINE
  5
210
100
AcDbEntity
  8
1_000_022
  6
CONTINUOUS
 62
         7
100
AcDbLine
 10
20.7445241629
 20
8.9490195026
 30
0.0
 11
20.7445241629
 21
8.7890195026
 31
0.0
  0
LINE
  5
211
100
AcDbEntity
  8
1_000_022
  6
CONTINUOUS
 62
         7
100
AcDbLine
 10
13.1535241629
 20
8.7890195026
 30
0.0
 11
13.1535241629
 21
8.9490195026
 31
0.0
  0
LINE
  5
212
100
AcDbEntity
  8
1_000_022
  6
CONTINUOUS
 62
         7
100
AcDbLine
 10
16.6195241629
 20
8.9490195026
 30
0.0
 11
16.6195241629
 21
8.7890195026
 31
0.0
  0
LINE
  5
213
100
AcDbEntity
  8
1_000_022
  6
CONTINUOUS
 62
         7
100
AcDbLine
 10
12.3565241629
 20
9.0390195026
 30
0.0
 11
12.3565241629
 21
9.1190195026
 31
0.0
  0
LINE
  5
214
100
AcDbEntity
  8
1_000_022
  6
CONTINUOUS
 62
         7
100
AcDbLine
 10
21.5415241629
 20
9.1190195026
 30
0.0
 11
21.5415241629
 21
9.0390195026
 31
0.0
  0
LINE
  5
215
100
AcDbEntity
  8
1_000_022
  6
CONTINUOUS
 62
         7
100
AcDbLine
 10
12.3865241629
 20
9.1490195026
 30
0.0
 11
12.6065241629
 21
9.1490195026
 31
0.0
  0
LINE
  5
216
100
AcDbEntity
  8
1_000_022
  6
CONTINUOUS
 62
         7
100
AcDbLine
 10
21.2915241629
 20
9.1490195026
 30
0.0
 11
21.5115241629
 21
9.1490195026
 31
0.0
  0
LINE
  5
217
100
AcDbEntity
  8
1_000_022
  6
CONTINUOUS
 62
         7
100
AcDbLine
 10
12.6065241629
 20
9.1490195026
 30
0.0
 11
21.2915241629
 21
9.1490195026
 31
0.0
  0
ARC
  5
218
100
AcDbEntity
  8
1_000_022
  6
CONTINUOUS
 62
         7
100
AcDbCircle
 10
21.5115241629
 20
9.0390195026
 30
0.0
 40
0.03
100
AcDbArc
 50
270.0
 51
360.0
  0
ARC
  5
219
100
AcDbEntity
  8
1_000_022
  6
CONTINUOUS
 62
         7
100
AcDbCircle
 10
12.3865241629
 20
9.0390195026
 30
0.0
 40
0.03
100
AcDbArc
 50
180.0
 51
270.0
  0
LINE
  5
21A
100
AcDbEntity
  8
1_000_022
  6
CONTINUOUS
 62
         7
100
AcDbLine
 10
17.8165241629
 20
8.5890195026
 30
0.0
 11
17.5985241629
 21
8.5890195026
 31
0.0
  0
LINE
  5
21B
100
AcDbEntity
  8
1_000_022
  6
CONTINUOUS
 62
         7
100
AcDbLine
 10
17.7865241629
 20
8.6190195026
 30
0.0
 11
17.7865241629
 21
8.6840195026
 31
0.0
  0
ARC
  5
21C
100
AcDbEntity
  8
1_000_022
  6
CONTINUOUS
 62
         7
100
AcDbCircle
 10
17.8165241629
 20
8.6190195026
 30
0.0
 40
0.03
100
AcDbArc
 50
180.0
 51
270.0
  0
LINE
  5
21D
100
AcDbEntity
  8
1_000_022
  6
CONTINUOUS
 62
         7
100
AcDbLine
 10
12.6065241629
 20
9.0090195026
 30
0.0
 11
12.3865241629
 21
9.0090195026
 31
0.0
  0
LINE
  5
21E
100
AcDbEntity
  8
1_000_022
  6
CONTINUOUS
 62
         7
100
AcDbLine
 10
21.5115241629
 20
9.0090195026
 30
0.0
 11
21.2915241629
 21
9.0090195026
 31
0.0
  0
LINE
  5
21F
100
AcDbEntity
  8
1_000_022
  6
CONTINUOUS
 62
         7
100
AcDbLine
 10
21.2915241629
 20
9.0090195026
 30
0.0
 11
12.6065241629
 21
9.0090195026
 31
0.0
  0
ARC
  5
220
100
AcDbEntity
  8
1_000_022
  6
CONTINUOUS
 62
         7
100
AcDbCircle
 10
13.3535241629
 20
8.7890195026
 30
0.0
 40
0.2
100
AcDbArc
 50
186.1506398279
 51
215.0362611854
  0
ARC
  5
221
100
AcDbEntity
  8
1_000_022
  6
CONTINUOUS
 62
         7
100
AcDbCircle
 10
13.3535241629
 20
8.7890195026
 30
0.0
 40
0.2
100
AcDbArc
 50
218.1445131012
 51
270.0
  0
POLYLINE
  5
222
100
AcDbEntity
  8
0
  6
CONTINUOUS
 62
       136
100
AcDb2dPolyline
 66
         1
 10
0.0
 20
0.0
 30
0.0
  0
VERTEX
  5
223
100
AcDbEntity
  8
0
  6
CONTINUOUS
 62
       136
100
AcDbVertex
100
AcDb2dVertex
 10
23.0611425205
 20
9.0240195041
 30
0.0
  0
VERTEX
  5
224
100
AcDbEntity
  8
0
  6
CONTINUOUS
 62
       136
100
AcDbVertex
100
AcDb2dVertex
 10
23.0403091875
 20
9.1490195026
 30
0.0
  0
VERTEX
  5
225
100
AcDbEntity
  8
0
  6
CONTINUOUS
 62
       136
100
AcDbVertex
100
AcDb2dVertex
 10
23.0194758544
 20
9.0240195041
 30
0.0
  0
VERTEX
  5
226
100
AcDbEntity
  8
0
  6
CONTINUOUS
 62
       136
100
AcDbVertex
100
AcDb2dVertex
 10
23.0611425205
 20
9.0240195041
 30
0.0
  0
SEQEND
  5
227
100
AcDbEntity
  8
0
  6
CONTINUOUS
 62
       136
  0
POLYLINE
  5
228
100
AcDbEntity
  8
0
  6
CONTINUOUS
 62
       136
100
AcDb2dPolyline
 66
         1
 10
0.0
 20
0.0
 30
0.0
  0
VERTEX
  5
229
100
AcDbEntity
  8
0
  6
CONTINUOUS
 62
       136
100
AcDbVertex
100
AcDb2dVertex
 10
23.0611425205
 20
8.5340195011
 30
0.0
  0
VERTEX
  5
22A
100
AcDbEntity
  8
0
  6
CONTINUOUS
 62
       136
100
AcDbVertex
100
AcDb2dVertex
 10
23.0403091875
 20
8.4090195026
 30
0.0
  0
VERTEX
  5
22B
100
AcDbEntity
  8
0
  6
CONTINUOUS
 62
       136
100
AcDbVertex
100
AcDb2dVertex
 10
23.0194758544
 20
8.5340195011
 30
0.0
  0
VERTEX
  5
22C
100
AcDbEntity
  8
0
  6
CONTINUOUS
 62
       136
100
AcDbVertex
100
AcDb2dVertex
 10
23.0611425205
 20
8.5340195011
 30
0.0
  0
SEQEND
  5
22D
100
AcDbEntity
  8
0
  6
CONTINUOUS
 62
       136
  0
LINE
  5
22E
100
AcDbEntity
  8
0
  6
CONTINUOUS
 62
       136
100
AcDbLine
 10
21.3540241622
 20
9.1490195026
 30
0.0
 11
23.1028091867
 21
9.1490195026
 31
0.0
  0
LINE
  5
22F
100
AcDbEntity
  8
0
  6
CONTINUOUS
 62
       136
100
AcDbLine
 10
20.1265241622
 20
8.4090195026
 30
0.0
 11
23.1028091867
 21
8.4090195026
 31
0.0
  0
LINE
  5
230
100
AcDbEntity
  8
0
  6
CONTINUOUS
 62
       136
100
AcDbLine
 10
23.0403091875
 20
9.1490195026
 30
0.0
 11
23.0403091875
 21
8.8852694811
 31
0.0
  0
LINE
  5
231
100
AcDbEntity
  8
0
  6
CONTINUOUS
 62
       136
100
AcDbLine
 10
23.0403091875
 20
8.6727694874
 30
0.0
 11
23.0403091875
 21
8.4090195026
 31
0.0
  0
TEXT
  5
232
100
AcDbEntity
  8
0
  6
CONTINUOUS
 62
       136
100
AcDbText
 10
22.9180265788
 20
8.7165194902
 30
0.0
 40
0.125
  1
3/4
  7
ARIAL_TTF
 11
22.9180265788
 21
8.8415194902
 31
0.0
100
AcDbText
 73
         3
  0
POLYLINE
  5
233
100
AcDbEntity
  8
0
  6
CONTINUOUS
 62
       136
100
AcDb2dPolyline
 66
         1
 10
0.0
 20
0.0
 30
0.0
  0
VERTEX
  5
234
100
AcDbEntity
  8
0
  6
CONTINUOUS
 62
       136
100
AcDbVertex
100
AcDb2dVertex
 10
21.9743714284
 20
9.2740195011
 30
0.0
  0
VERTEX
  5
235
100
AcDbEntity
  8
0
  6
CONTINUOUS
 62
       136
100
AcDbVertex
100
AcDb2dVertex
 10
21.9535380953
 20
9.1490195026
 30
0.0
  0
VERTEX
  5
236
100
AcDbEntity
  8
0
  6
CONTINUOUS
 62
       136
100
AcDbVertex
100
AcDb2dVertex
 10
21.9327047622
 20
9.2740195011
 30
0.0
  0
VERTEX
  5
237
100
AcDbEntity
  8
0
  6
CONTINUOUS
 62
       136
100
AcDbVertex
100
AcDb2dVertex
 10
21.9743714284
 20
9.2740195011
 30
0.0
  0
SEQEND
  5
238
100
AcDbEntity
  8
0
  6
CONTINUOUS
 62
       136
  0
POLYLINE
  5
239
100
AcDbEntity
  8
0
  6
CONTINUOUS
 62
       136
100
AcDb2dPolyline
 66
         1
 10
0.0
 20
0.0
 30
0.0
  0
VERTEX
  5
23A
100
AcDbEntity
  8
0
  6
CONTINUOUS
 62
       136
100
AcDbVertex
100
AcDb2dVertex
 10
21.9743714284
 20
8.8840195041
 30
0.0
  0
VERTEX
  5
23B
100
AcDbEntity
  8
0
  6
CONTINUOUS
 62
       136
100
AcDbVertex
100
AcDb2dVertex
 10
21.9535380953
 20
9.0090195026
 30
0.0
  0
VERTEX
  5
23C
100
AcDbEntity
  8
0
  6
CONTINUOUS
 62
       136
100
AcDbVertex
100
AcDb2dVertex
 10
21.9327047622
 20
8.8840195041
 30
0.0
  0
VERTEX
  5
23D
100
AcDbEntity
  8
0
  6
CONTINUOUS
 62
       136
100
AcDbVertex
100
AcDb2dVertex
 10
21.9743714284
 20
8.8840195041
 30
0.0
  0
SEQEND
  5
23E
100
AcDbEntity
  8
0
  6
CONTINUOUS
 62
       136
  0
LINE
  5
23F
100
AcDbEntity
  8
0
  6
CONTINUOUS
 62
       136
100
AcDbLine
 10
21.3540241622
 20
9.1490195026
 30
0.0
 11
22.0160380945
 21
9.1490195026
 31
0.0
  0
LINE
  5
240
100
AcDbEntity
  8
0
  6
CONTINUOUS
 62
       136
100
AcDbLine
 10
21.3540241622
 20
9.0090195026
 30
0.0
 11
22.0160380945
 21
9.0090195026
 31
0.0
  0
LINE
  5
241
100
AcDbEntity
  8
0
  6
CONTINUOUS
 62
       136
100
AcDbLine
 10
21.9535380953
 20
9.3693643005
 30
0.0
 11
22.3285380999
 21
9.3693643005
 31
0.0
  0
LINE
  5
242
100
AcDbEntity
  8
0
  6
CONTINUOUS
 62
       136
100
AcDbLine
 10
21.9535380953
 20
9.3693643005
 30
0.0
 11
21.9535380953
 21
9.1490195026
 31
0.0
  0
LINE
  5
243
100
AcDbEntity
  8
0
  6
CONTINUOUS
 62
       136
100
AcDbLine
 10
21.9535380953
 20
9.0090195026
 30
0.0
 11
21.9535380953
 21
8.7590195056
 31
0.0
  0
TEXT
  5
244
100
AcDbEntity
  8
0
  6
CONTINUOUS
 62
       136
100
AcDbText
 10
22.3722880999
 20
9.3068643005
 30
0.0
 40
0.125
  1
1/8
  7
ARIAL_TTF
 11
22.3722880999
 21
9.4318643005
 31
0.0
100
AcDbText
 73
         3
  0
POLYLINE
  5
245
100
AcDbEntity
  8
0
  6
CONTINUOUS
 62
       136
100
AcDb2dPolyline
 66
         1
 10
0.0
 20
0.0
 30
0.0
  0
VERTEX
  5
246
100
AcDbEntity
  8
0
  6
CONTINUOUS
 62
       136
100
AcDbVertex
100
AcDb2dVertex
 10
20.6195241644
 20
7.8726689879
 30
0.0
  0
VERTEX
  5
247
100
AcDbEntity
  8
0
  6
CONTINUOUS
 62
       136
100
AcDbVertex
100
AcDb2dVertex
 10
20.7445241629
 20
7.893502321
 30
0.0
  0
VERTEX
  5
248
100
AcDbEntity
  8
0
  6
CONTINUOUS
 62
       136
100
AcDbVertex
100
AcDb2dVertex
 10
20.6195241644
 20
7.9143356541
 30
0.0
  0
VERTEX
  5
249
100
AcDbEntity
  8
0
  6
CONTINUOUS
 62
       136
100
AcDbVertex
100
AcDb2dVertex
 10
20.6195241644
 20
7.8726689879
 30
0.0
  0
SEQEND
  5
24A
100
AcDbEntity
  8
0
  6
CONTINUOUS
 62
       136
  0
POLYLINE
  5
24B
100
AcDbEntity
  8
0
  6
CONTINUOUS
 62
       136
100
AcDb2dPolyline
 66
         1
 10
0.0
 20
0.0
 30
0.0
  0
VERTEX
  5
24C
100
AcDbEntity
  8
0
  6
CONTINUOUS
 62
       136
100
AcDbVertex
100
AcDb2dVertex
 10
17.4035241614
 20
7.8726689879
 30
0.0
  0
VERTEX
  5
24D
100
AcDbEntity
  8
0
  6
CONTINUOUS
 62
       136
100
AcDbVertex
100
AcDb2dVertex
 10
17.2785241629
 20
7.893502321
 30
0.0
  0
VERTEX
  5
24E
100
AcDbEntity
  8
0
  6
CONTINUOUS
 62
       136
100
AcDbVertex
100
AcDb2dVertex
 10
17.4035241614
 20
7.9143356541
 30
0.0
  0
VERTEX
  5
24F
100
AcDbEntity
  8
0
  6
CONTINUOUS
 62
       136
100
AcDbVertex
100
AcDb2dVertex
 10
17.4035241614
 20
7.8726689879
 30
0.0
  0
SEQEND
  5
250
100
AcDbEntity
  8
0
  6
CONTINUOUS
 62
       136
  0
LINE
  5
251
100
AcDbEntity
  8
0
  6
CONTINUOUS
 62
       136
100
AcDbLine
 10
20.7445241629
 20
8.7265195033
 30
0.0
 11
20.7445241629
 21
7.8310023218
 31
0.0
  0
LINE
  5
252
100
AcDbEntity
  8
0
  6
CONTINUOUS
 62
       136
100
AcDbLine
 10
17.2785241629
 20
8.7265195033
 30
0.0
 11
17.2785241629
 21
7.8310023218
 31
0.0
  0
LINE
  5
253
100
AcDbEntity
  8
0
  6
CONTINUOUS
 62
       136
100
AcDbLine
 10
20.7445241629
 20
7.893502321
 30
0.0
 11
19.2998392787
 21
7.893502321
 31
0.0
  0
LINE
  5
254
100
AcDbEntity
  8
0
  6
CONTINUOUS
 62
       136
100
AcDbLine
 10
18.7232089005
 20
7.893502321
 30
0.0
 11
17.2785241629
 21
7.893502321
 31
0.0
  0
TEXT
  5
255
100
AcDbEntity
  8
0
  6
CONTINUOUS
 62
       136
100
AcDbText
 10
18.7669588853
 20
7.831002321
 30
0.0
 40
0.125
  1
3 7/16
  7
ARIAL_TTF
 11
18.7669588853
 21
7.956002321
 31
0.0
100
AcDbText
 73
         3
  0
POLYLINE
  5
256
100
AcDbEntity
  8
0
  6
CONTINUOUS
 62
       136
100
AcDb2dPolyline
 66
         1
 10
0.0
 20
0.0
 30
0.0
  0
VERTEX
  5
257
100
AcDbEntity
  8
0
  6
CONTINUOUS
 62
       136
100
AcDbVertex
100
AcDb2dVertex
 10
16.4945241644
 20
7.8995028113
 30
0.0
  0
VERTEX
  5
258
100
AcDbEntity
  8
0
  6
CONTINUOUS
 62
       136
100
AcDbVertex
100
AcDb2dVertex
 10
16.6195241629
 20
7.9203361444
 30
0.0
  0
VERTEX
  5
259
100
AcDbEntity
  8
0
  6
CONTINUOUS
 62
       136
100
AcDbVertex
100
AcDb2dVertex
 10
16.4945241644
 20
7.9411694774
 30
0.0
  0
VERTEX
  5
25A
100
AcDbEntity
  8
0
  6
CONTINUOUS
 62
       136
100
AcDbVertex
100
AcDb2dVertex
 10
16.4945241644
 20
7.8995028113
 30
0.0
  0
SEQEND
  5
25B
100
AcDbEntity
  8
0
  6
CONTINUOUS
 62
       136
  0
POLYLINE
  5
25C
100
AcDbEntity
  8
0
  6
CONTINUOUS
 62
       136
100
AcDb2dPolyline
 66
         1
 10
0.0
 20
0.0
 30
0.0
  0
VERTEX
  5
25D
100
AcDbEntity
  8
0
  6
CONTINUOUS
 62
       136
100
AcDbVertex
100
AcDb2dVertex
 10
13.2785241614
 20
7.8995028113
 30
0.0
  0
VERTEX
  5
25E
100
AcDbEntity
  8
0
  6
CONTINUOUS
 62
       136
100
AcDbVertex
100
AcDb2dVertex
 10
13.1535241629
 20
7.9203361444
 30
0.0
  0
VERTEX
  5
25F
100
AcDbEntity
  8
0
  6
CONTINUOUS
 62
       136
100
AcDbVertex
100
AcDb2dVertex
 10
13.2785241614
 20
7.9411694774
 30
0.0
  0
VERTEX
  5
260
100
AcDbEntity
  8
0
  6
CONTINUOUS
 62
       136
100
AcDbVertex
100
AcDb2dVertex
 10
13.2785241614
 20
7.8995028113
 30
0.0
  0
SEQEND
  5
261
100
AcDbEntity
  8
0
  6
CONTINUOUS
 62
       136
  0
LINE
  5
262
100
AcDbEntity
  8
0
  6
CONTINUOUS
 62
       136
100
AcDbLine
 10
16.6195241629
 20
8.7265195033
 30
0.0
 11
16.6195241629
 21
7.8578361451
 31
0.0
  0
LINE
  5
263
100
AcDbEntity
  8
0
  6
CONTINUOUS
 62
       136
100
AcDbLine
 10
13.1535241629
 20
8.7265195033
 30
0.0
 11
13.1535241629
 21
7.8578361451
 31
0.0
  0
LINE
  5
264
100
AcDbEntity
  8
0
  6
CONTINUOUS
 62
       136
100
AcDbLine
 10
16.6195241629
 20
7.9203361444
 30
0.0
 11
15.1748392787
 21
7.9203361444
 31
0.0
  0
LINE
  5
265
100
AcDbEntity
  8
0
  6
CONTINUOUS
 62
       136
100
AcDbLine
 10
14.5982089005
 20
7.9203361444
 30
0.0
 11
13.1535241629
 21
7.9203361444
 31
0.0
  0
TEXT
  5
266
100
AcDbEntity
  8
0
  6
CONTINUOUS
 62
       136
100
AcDbText
 10
14.6419588853
 20
7.8578361444
 30
0.0
 40
0.125
  1
3 7/16
  7
ARIAL_TTF
 11
14.6419588853
 21
7.9828361444
 31
0.0
100
AcDbText
 73
         3
  0
POLYLINE
  5
267
100
AcDbEntity
  8
0
  6
CONTINUOUS
 62
       136
100
AcDb2dPolyline
 66
         1
 10
0.0
 20
0.0
 30
0.0
  0
VERTEX
  5
268
100
AcDbEntity
  8
0
  6
CONTINUOUS
 62
       136
100
AcDbVertex
100
AcDb2dVertex
 10
12.4815241614
 20
9.9939593823
 30
0.0
  0
VERTEX
  5
269
100
AcDbEntity
  8
0
  6
CONTINUOUS
 62
       136
100
AcDbVertex
100
AcDb2dVertex
 10
12.3565241629
 20
9.9731260492
 30
0.0
  0
VERTEX
  5
26A
100
AcDbEntity
  8
0
  6
CONTINUOUS
 62
       136
100
AcDbVertex
100
AcDb2dVertex
 10
12.4815241614
 20
9.9522927161
 30
0.0
  0
VERTEX
  5
26B
100
AcDbEntity
  8
0
  6
CONTINUOUS
 62
       136
100
AcDbVertex
100
AcDb2dVertex
 10
12.4815241614
 20
9.9939593823
 30
0.0
  0
SEQEND
  5
26C
100
AcDbEntity
  8
0
  6
CONTINUOUS
 62
       136
  0
POLYLINE
  5
26D
100
AcDbEntity
  8
0
  6
CONTINUOUS
 62
       136
100
AcDb2dPolyline
 66
         1
 10
0.0
 20
0.0
 30
0.0
  0
VERTEX
  5
26E
100
AcDbEntity
  8
0
  6
CONTINUOUS
 62
       136
100
AcDbVertex
100
AcDb2dVertex
 10
21.4165241644
 20
9.9939593823
 30
0.0
  0
VERTEX
  5
26F
100
AcDbEntity
  8
0
  6
CONTINUOUS
 62
       136
100
AcDbVertex
100
AcDb2dVertex
 10
21.5415241629
 20
9.9731260492
 30
0.0
  0
VERTEX
  5
270
100
AcDbEntity
  8
0
  6
CONTINUOUS
 62
       136
100
AcDbVertex
100
AcDb2dVertex
 10
21.4165241644
 20
9.9522927161
 30
0.0
  0
VERTEX
  5
271
100
AcDbEntity
  8
0
  6
CONTINUOUS
 62
       136
100
AcDbVertex
100
AcDb2dVertex
 10
21.4165241644
 20
9.9939593823
 30
0.0
  0
SEQEND
  5
272
100
AcDbEntity
  8
0
  6
CONTINUOUS
 62
       136
  0
LINE
  5
273
100
AcDbEntity
  8
0
  6
CONTINUOUS
 62
       136
100
AcDbLine
 10
12.3565241629
 20
9.1815195018
 30
0.0
 11
12.3565241629
 21
10.0356260484
 31
0.0
  0
LINE
  5
274
100
AcDbEntity
  8
0
  6
CONTINUOUS
 62
       136
100
AcDbLine
 10
21.5415241629
 20
9.1815195018
 30
0.0
 11
21.5415241629
 21
10.0356260484
 31
0.0
  0
LINE
  5
275
100
AcDbEntity
  8
0
  6
CONTINUOUS
 62
       136
100
AcDbLine
 10
12.3565241629
 20
9.9731260492
 30
0.0
 11
16.6607090273
 21
9.9731260492
 31
0.0
  0
LINE
  5
276
100
AcDbEntity
  8
0
  6
CONTINUOUS
 62
       136
100
AcDbLine
 10
17.2373392986
 20
9.9731260492
 30
0.0
 11
21.5415241629
 21
9.9731260492
 31
0.0
  0
TEXT
  5
277
100
AcDbEntity
  8
0
  6
CONTINUOUS
 62
       136
100
AcDbText
 10
16.7044589859
 20
9.9106260492
 30
0.0
 40
0.125
  1
9 3/16
  7
ARIAL_TTF
 11
16.7044589859
 21
10.0356260492
 31
0.0
100
AcDbText
 73
         3
  0
ENDSEC
  0
SECTION
  2
OBJECTS
  0
DICTIONARY
  5
19
100
AcDbDictionary
  3
ACAD_GROUP
350
1A
  3
ACAD_MLINESTYLE
350
1B
  0
DICTIONARY
  5
1A
102
{ACAD_REACTORS
330
19
102
}
100
AcDbDictionary
  0
DICTIONARY
  5
1B
102
{ACAD_REACTORS
330
19
102
}
100
AcDbDictionary
  3
STANDARD
350
1C
  0
MLINESTYLE
  5
1C
102
{ACAD_REACTORS
330
1B
102
}
100
AcDbMlineStyle
  2
STANDARD
 70
         0
  3

 62
         0
 51
90.0
 52
90.0
 71
         2
 49
0.5
 62
       256
  6
BYLAYER
 49
-0.5
 62
       256
  6
BYLAYER
  0
ENDSEC
  0
EOF
