  0
SECTION
  2
HEADER
  9
$ACADVER
  1
AC1015
  9
$ACADMAINTVER
 70
     6
  9
$DWGCODEPAGE
  3
ANSI_1252
  9
$INSBASE
 10
0.0
 20
0.0
 30
0.0
  9
$EXTMIN
 10
0.0
 20
0.0
 30
0.0
  9
$EXTMAX
 10
10.999978
 20
8.499983
 30
0.0
  9
$LIMMIN
 10
0.0
 20
0.0
  9
$LIMMAX
 10
10.999978
 20
8.499983
  9
$ORTHOMODE
 70
     0
  9
$REGENMODE
 70
     1
  9
$FILLMODE
 70
     1
  9
$QTEXTMODE
 70
     0
  9
$MIRRTEXT
 70
     1
  9
$LTSCALE
 40
1.0
  9
$ATTMODE
 70
     1
  9
$TEXTSIZE
 40
0.2
  9
$TRACEWID
 40
0.05
  9
$TEXTSTYLE
  7
Standard
  9
$CLAYER
  8
0
  9
$CELTYPE
  6
ByLayer
  9
$CECOLOR
 62
   256
  9
$CELTSCALE
 40
1.0
  9
$DISPSILH
 70
     0
  9
$DIMSCALE
 40
1.0
  9
$DIMASZ
 40
0.18
  9
$DIMEXO
 40
0.0625
  9
$DIMDLI
 40
0.38
  9
$DIMRND
 40
0.0
  9
$DIMDLE
 40
0.0
  9
$DIMEXE
 40
0.18
  9
$DIMTP
 40
0.0
  9
$DIMTM
 40
0.0
  9
$DIMTXT
 40
0.18
  9
$DIMCEN
 40
0.09
  9
$DIMTSZ
 40
0.0
  9
$DIMTOL
 70
     0
  9
$DIMLIM
 70
     0
  9
$DIMTIH
 70
     1
  9
$DIMTOH
 70
     1
  9
$DIMSE1
 70
     0
  9
$DIMSE2
 70
     0
  9
$DIMTAD
 70
     0
  9
$DIMZIN
 70
     0
  9
$DIMBLK
  1

  9
$DIMASO
 70
     1
  9
$DIMSHO
 70
     1
  9
$DIMPOST
  1

  9
$DIMAPOST
  1

  9
$DIMALT
 70
     0
  9
$DIMALTD
 70
     2
  9
$DIMALTF
 40
25.4
  9
$DIMLFAC
 40
1.0
  9
$DIMTOFL
 70
     0
  9
$DIMTVP
 40
0.0
  9
$DIMTIX
 70
     0
  9
$DIMSOXD
 70
     0
  9
$DIMSAH
 70
     0
  9
$DIMBLK1
  1

  9
$DIMBLK2
  1

  9
$DIMSTYLE
  2
Standard
  9
$DIMCLRD
 70
     0
  9
$DIMCLRE
 70
     0
  9
$DIMCLRT
 70
     0
  9
$DIMTFAC
 40
1.0
  9
$DIMGAP
 40
0.09
  9
$DIMJUST
 70
     0
  9
$DIMSD1
 70
     0
  9
$DIMSD2
 70
     0
  9
$DIMTOLJ
 70
     1
  9
$DIMTZIN
 70
     0
  9
$DIMALTZ
 70
     0
  9
$DIMALTTZ
 70
     0
  9
$DIMUPT
 70
     0
  9
$DIMDEC
 70
     4
  9
$DIMTDEC
 70
     4
  9
$DIMALTU
 70
     2
  9
$DIMALTTD
 70
     2
  9
$DIMTXSTY
  7
Standard
  9
$DIMAUNIT
 70
     0
  9
$DIMADEC
 70
     0
  9
$DIMALTRND
 40
0.0
  9
$DIMAZIN
 70
     0
  9
$DIMDSEP
 70
    46
  9
$DIMATFIT
 70
     3
  9
$DIMFRAC
 70
     0
  9
$DIMLDRBLK
  1

  9
$DIMLUNIT
 70
     2
  9
$DIMLWD
 70
    -2
  9
$DIMLWE
 70
    -2
  9
$DIMTMOVE
 70
     0
  9
$LUNITS
 70
     2
  9
$LUPREC
 70
     4
  9
$SKETCHINC
 40
0.1
  9
$FILLETRAD
 40
0.5
  9
$AUNITS
 70
     0
  9
$AUPREC
 70
     0
  9
$MENU
  1
.
  9
$ELEVATION
 40
0.0
  9
$PELEVATION
 40
0.0
  9
$THICKNESS
 40
0.0
  9
$LIMCHECK
 70
     0
  9
$CHAMFERA
 40
0.5
  9
$CHAMFERB
 40
0.5
  9
$CHAMFERC
 40
1.0
  9
$CHAMFERD
 40
0.0
  9
$SKPOLY
 70
     0
  9
$TDCREATE
 40
2454774.587522002
  9
$TDUCREATE
 40
2454774.795855335
  9
$TDUPDATE
 40
2454774.587522014
  9
$TDUUPDATE
 40
2454774.795855347
  9
$TDINDWG
 40
0.0000000116
  9
$TDUSRTIMER
 40
0.0000000116
  9
$USRTIMER
 70
     1
  9
$ANGBASE
 50
0.0
  9
$ANGDIR
 70
     0
  9
$PDMODE
 70
     0
  9
$PDSIZE
 40
0.0
  9
$PLINEWID
 40
0.0
  9
$SPLFRAME
 70
     0
  9
$SPLINETYPE
 70
     6
  9
$SPLINESEGS
 70
     8
  9
$HANDSEED
  5
9D
  9
$SURFTAB1
 70
     6
  9
$SURFTAB2
 70
     6
  9
$SURFTYPE
 70
     6
  9
$SURFU
 70
     6
  9
$SURFV
 70
     6
  9
$UCSBASE
  2

  9
$UCSNAME
  2

  9
$UCSORG
 10
0.0
 20
0.0
 30
0.0
  9
$UCSXDIR
 10
1.0
 20
0.0
 30
0.0
  9
$UCSYDIR
 10
0.0
 20
1.0
 30
0.0
  9
$UCSORTHOREF
  2

  9
$UCSORTHOVIEW
 70
     0
  9
$UCSORGTOP
 10
0.0
 20
0.0
 30
0.0
  9
$UCSORGBOTTOM
 10
0.0
 20
0.0
 30
0.0
  9
$UCSORGLEFT
 10
0.0
 20
0.0
 30
0.0
  9
$UCSORGRIGHT
 10
0.0
 20
0.0
 30
0.0
  9
$UCSORGFRONT
 10
0.0
 20
0.0
 30
0.0
  9
$UCSORGBACK
 10
0.0
 20
0.0
 30
0.0
  9
$PUCSBASE
  2

  9
$PUCSNAME
  2

  9
$PUCSORG
 10
0.0
 20
0.0
 30
0.0
  9
$PUCSXDIR
 10
1.0
 20
0.0
 30
0.0
  9
$PUCSYDIR
 10
0.0
 20
1.0
 30
0.0
  9
$PUCSORTHOREF
  2

  9
$PUCSORTHOVIEW
 70
     0
  9
$PUCSORGTOP
 10
0.0
 20
0.0
 30
0.0
  9
$PUCSORGBOTTOM
 10
0.0
 20
0.0
 30
0.0
  9
$PUCSORGLEFT
 10
0.0
 20
0.0
 30
0.0
  9
$PUCSORGRIGHT
 10
0.0
 20
0.0
 30
0.0
  9
$PUCSORGFRONT
 10
0.0
 20
0.0
 30
0.0
  9
$PUCSORGBACK
 10
0.0
 20
0.0
 30
0.0
  9
$USERI1
 70
     0
  9
$USERI2
 70
     0
  9
$USERI3
 70
     0
  9
$USERI4
 70
     0
  9
$USERI5
 70
     0
  9
$USERR1
 40
0.0
  9
$USERR2
 40
0.0
  9
$USERR3
 40
0.0
  9
$USERR4
 40
0.0
  9
$USERR5
 40
0.0
  9
$WORLDVIEW
 70
     1
  9
$SHADEDGE
 70
     3
  9
$SHADEDIF
 70
    70
  9
$TILEMODE
 70
     1
  9
$MAXACTVP
 70
    64
  9
$PINSBASE
 10
0.0
 20
0.0
 30
0.0
  9
$PLIMCHECK
 70
     0
  9
$PEXTMIN
 10
0.0
 20
0.0
 30
0.0
  9
$PEXTMAX
 10
10.999978
 20
8.499983
 30
0.0
  9
$PLIMMIN
 10
0.0
 20
0.0
  9
$PLIMMAX
 10
10.999978
 20
8.499983
  9
$UNITMODE
 70
     0
  9
$VISRETAIN
 70
     1
  9
$PLINEGEN
 70
     0
  9
$PSLTSCALE
 70
     1
  9
$TREEDEPTH
 70
  3020
  9
$CMLSTYLE
  2
Standard
  9
$CMLJUST
 70
     0
  9
$CMLSCALE
 40
1.0
  9
$PROXYGRAPHICS
 70
     1
  9
$MEASUREMENT
 70
     0
  9
$CELWEIGHT
370
    -1
  9
$ENDCAPS
280
     0
  9
$JOINSTYLE
280
     0
  9
$LWDISPLAY
290
     0
  9
$INSUNITS
 70
     1
  9
$HYPERLINKBASE
  1

  9
$STYLESHEET
  1

  9
$XEDIT
290
     1
  9
$CEPSNTYPE
380
     0
  9
$PSTYLEMODE
290
     1
  9
$FINGERPRINTGUID
  2
{F4C87024-A8BC-4B5B-88A7-9661E8B8DEF6}
  9
$VERSIONGUID
  2
{FAEB1C32-E019-11D5-929B-00C0DF256EC4}
  9
$EXTNAMES
290
     1
  9
$PSVPSCALE
 40
0.0
  9
$OLESTARTUP
290
     0
  0
ENDSEC
  0
SECTION
  2
CLASSES
  0
CLASS
  1
ACDBDICTIONARYWDFLT
  2
AcDbDictionaryWithDefault
  3
ObjectDBX Classes
 90
        0
280
     0
281
     0
  0
CLASS
  1
SPATIAL_FILTER
  2
AcDbSpatialFilter
  3
ObjectDBX Classes
 90
        0
280
     0
281
     0
  0
CLASS
  1
ACDBPLACEHOLDER
  2
AcDbPlaceHolder
  3
ObjectDBX Classes
 90
        0
280
     0
281
     0
  0
CLASS
  1
LAYOUT
  2
AcDbLayout
  3
ObjectDBX Classes
 90
        0
280
     0
281
     0
  0
ENDSEC
  0
SECTION
  2
TABLES
  0
TABLE
  2
VPORT
  5
8
330
0
100
AcDbSymbolTable
 70
     1
  0
VPORT
  5
29
330
8
100
AcDbSymbolTableRecord
100
AcDbViewportTableRecord
  2
*Active
 70
     0
 10
0.0
 20
0.0
 11
1.0
 21
1.0
 12
10.4299065421
 22
4.5
 13
0.0
 23
0.0
 14
0.5
 24
0.5
 15
0.5
 25
0.5
 16
0.0
 26
0.0
 36
1.0
 17
0.0
 27
0.0
 37
0.0
 40
9.0
 41
1.9729729729
 42
50.0
 43
0.0
 44
0.0
 50
0.0
 51
0.0
 71
     0
 72
   100
 73
     1
 74
     3
 75
     0
 76
     0
 77
     0
 78
     0
281
     0
 65
     1
110
0.0
120
0.0
130
0.0
111
1.0
121
0.0
131
0.0
112
0.0
122
1.0
132
0.0
 79
     0
146
0.0
  0
ENDTAB
  0
TABLE
  2
LTYPE
  5
5
330
0
100
AcDbSymbolTable
 70
     1
  0
LTYPE
  5
14
330
5
100
AcDbSymbolTableRecord
100
AcDbLinetypeTableRecord
  2
ByBlock
 70
     0
  3

 72
    65
 73
     0
 40
0.0
  0
LTYPE
  5
15
330
5
100
AcDbSymbolTableRecord
100
AcDbLinetypeTableRecord
  2
ByLayer
 70
     0
  3

 72
    65
 73
     0
 40
0.0
  0
LTYPE
  5
16
330
5
100
AcDbSymbolTableRecord
100
AcDbLinetypeTableRecord
  2
Continuous
 70
     0
  3
Solid line
 72
    65
 73
     0
 40
0.0
  0
ENDTAB
  0
TABLE
  2
LAYER
  5
2
330
0
100
AcDbSymbolTable
 70
     3
  0
LAYER
  5
10
330
2
100
AcDbSymbolTableRecord
100
AcDbLayerTableRecord
  2
0
 70
     0
 62
     7
  6
Continuous
370
    -3
390
F
  0
LAYER
  5
2A
330
2
100
AcDbSymbolTableRecord
100
AcDbLayerTableRecord
  2
Default
 70
     0
 62
     7
  6
Continuous
370
    -3
390
F
  0
LAYER
  5
2D
330
2
100
AcDbSymbolTableRecord
100
AcDbLayerTableRecord
  2
CRFB-D-2-P
 70
     0
 62
     7
  6
Continuous
370
    -3
390
F
  0
ENDTAB
  0
TABLE
  2
STYLE
  5
3
330
0
100
AcDbSymbolTable
 70
     2
  0
STYLE
  5
11
330
3
100
AcDbSymbolTableRecord
100
AcDbTextStyleTableRecord
  2
Standard
 70
     0
 40
0.0
 41
1.0
 50
0.0
 71
     0
 42
0.2
  3
txt
  4

  0
STYLE
  5
8C
330
3
100
AcDbSymbolTableRecord
100
AcDbTextStyleTableRecord
  2
SEACAD_seans_ttf
 70
     0
 40
0.2
 41
1.0
 50
0.0
 71
     0
 42
0.2
  3
seans.ttf
  4

  0
ENDTAB
  0
TABLE
  2
VIEW
  5
6
330
0
100
AcDbSymbolTable
 70
     0
  0
ENDTAB
  0
TABLE
  2
UCS
  5
7
330
0
100
AcDbSymbolTable
 70
     0
  0
ENDTAB
  0
TABLE
  2
APPID
  5
9
330
0
100
AcDbSymbolTable
 70
     1
  0
APPID
  5
12
330
9
100
AcDbSymbolTableRecord
100
AcDbRegAppTableRecord
  2
ACAD
 70
     0
  0
ENDTAB
  0
TABLE
  2
DIMSTYLE
  5
A
330
0
100
AcDbSymbolTable
 70
     1
100
AcDbDimStyleTable
  0
DIMSTYLE
105
27
330
A
100
AcDbSymbolTableRecord
100
AcDbDimStyleTableRecord
  2
Standard
 70
     0
340
11
  0
ENDTAB
  0
TABLE
  2
BLOCK_RECORD
  5
1
330
0
100
AcDbSymbolTable
 70
     5
  0
BLOCK_RECORD
  5
1F
330
1
100
AcDbSymbolTableRecord
100
AcDbBlockTableRecord
  2
*Model_Space
340
22
  0
BLOCK_RECORD
  5
1B
330
1
100
AcDbSymbolTableRecord
100
AcDbBlockTableRecord
  2
*Paper_Space
340
1E
  0
BLOCK_RECORD
  5
2B
330
1
100
AcDbSymbolTableRecord
100
AcDbBlockTableRecord
  2
SE
340
0
102
{BLKREFS
331
2C
102
}
  0
BLOCK_RECORD
  5
4B
330
1
100
AcDbSymbolTableRecord
100
AcDbBlockTableRecord
  2
SE1
340
0
102
{BLKREFS
331
4C
102
}
  0
BLOCK_RECORD
  5
82
330
1
100
AcDbSymbolTableRecord
100
AcDbBlockTableRecord
  2
GDimGGroup
340
0
102
{BLKREFS
331
83
102
}
  0
BLOCK_RECORD
  5
90
330
1
100
AcDbSymbolTableRecord
100
AcDbBlockTableRecord
  2
GDimGGroup1
340
0
102
{BLKREFS
331
91
102
}
  0
ENDTAB
  0
ENDSEC
  0
SECTION
  2
BLOCKS
  0
BLOCK
  5
20
330
1F
100
AcDbEntity
  8
0
100
AcDbBlockBegin
  2
*Model_Space
 70
     0
 71
     0
 10
0.0
 20
0.0
 30
0.0
  3
*Model_Space
  1

  0
ENDBLK
  5
21
330
1F
100
AcDbEntity
  8
0
100
AcDbBlockEnd
  0
BLOCK
  5
1C
330
1B
100
AcDbEntity
 67
     1
  8
0
100
AcDbBlockBegin
  2
*Paper_Space
 70
     0
 71
     0
 10
0.0
 20
0.0
 30
0.0
  3
*Paper_Space
  1

  0
ENDBLK
  5
1D
330
1B
100
AcDbEntity
 67
     1
  8
0
100
AcDbBlockEnd
  0
BLOCK
  5
49
330
2B
100
AcDbEntity
  8
0
100
AcDbBlockBegin
  2
SE
 70
     0
 71
     0
 10
0.0
 20
0.0
 30
0.0
  3
SE
  1

  0
LINE
  5
2E
330
2B
100
AcDbEntity
  8
CRFB-D-2-P
  6
Continuous
 62
     7
100
AcDbLine
 10
2.332632942
 20
2.8404035738
 30
0.0
 11
2.6100721822
 21
3.171042785
 31
0.0
  0
LINE
  5
2F
330
2B
100
AcDbEntity
  8
CRFB-D-2-P
  6
Continuous
 62
     7
100
AcDbLine
 10
2.6100721822
 20
3.171042785
 30
0.0
 11
2.261493508
 21
3.5930494583
 31
0.0
  0
ARC
  5
30
330
2B
100
AcDbEntity
  8
CRFB-D-2-P
  6
Continuous
 62
     7
100
AcDbCircle
 10
4.6395083382
 20
0.5335281776
 30
0.0
 40
3.875000000000002
100
AcDbArc
 50
96.4016247319
 51
127.856159688
  0
LINE
  5
31
330
2B
100
AcDbEntity
  8
CRFB-D-2-P
  6
Continuous
 62
     7
100
AcDbLine
 10
4.2074570278
 20
4.3843666142
 30
0.0
 11
4.2145083382
 21
4.2835281776
 31
0.0
  0
LINE
  5
32
330
2B
100
AcDbEntity
  8
CRFB-D-2-P
  6
Continuous
 62
     7
100
AcDbLine
 10
4.2145083382
 20
4.2835281776
 30
0.0
 11
4.3895083382
 21
4.2835281776
 31
0.0
  0
LINE
  5
33
330
2B
100
AcDbEntity
  8
CRFB-D-2-P
  6
Continuous
 62
     7
100
AcDbLine
 10
5.0645083382
 20
4.2835281776
 30
0.0
 11
5.0715596486
 21
4.3843666142
 31
0.0
  0
ARC
  5
34
330
2B
100
AcDbEntity
  8
CRFB-D-2-P
  6
Continuous
 62
     7
100
AcDbCircle
 10
4.6395083382
 20
0.5335281776
 30
0.0
 40
3.875000000000002
100
AcDbArc
 50
21.1794603118
 51
83.5983752681
  0
CIRCLE
  5
35
330
2B
100
AcDbEntity
  8
CRFB-D-2-P
  6
Continuous
 62
     7
100
AcDbCircle
 10
6.2800083382
 20
2.9585281776
 30
0.0
 40
0.16
  0
CIRCLE
  5
36
330
2B
100
AcDbEntity
  8
CRFB-D-2-P
  6
Continuous
 62
     7
100
AcDbCircle
 10
2.9990083382
 20
2.9585281776
 30
0.0
 40
0.16
  0
LINE
  5
37
330
2B
100
AcDbEntity
  8
CRFB-D-2-P
  6
Continuous
 62
     7
100
AcDbLine
 10
4.8895083382
 20
4.2835281776
 30
0.0
 11
5.0645083382
 21
4.2835281776
 31
0.0
  0
ARC
  5
38
330
2B
100
AcDbEntity
  8
CRFB-D-2-P
  6
Continuous
 62
     7
100
AcDbCircle
 10
4.6395083382
 20
4.0748306488
 30
0.0
 40
0.2500000000000001
100
AcDbArc
 50
180.0
 51
360.0
  0
LINE
  5
39
330
2B
100
AcDbEntity
  8
CRFB-D-2-P
  6
Continuous
 62
     7
100
AcDbLine
 10
4.3895083382
 20
4.0748306488
 30
0.0
 11
4.3895083382
 21
4.2835281776
 31
0.0
  0
LINE
  5
3A
330
2B
100
AcDbEntity
  8
CRFB-D-2-P
  6
Continuous
 62
     7
100
AcDbLine
 10
4.8895083382
 20
4.2835281776
 30
0.0
 11
4.8895083382
 21
4.0748306488
 31
0.0
  0
LINE
  5
3B
330
2B
100
AcDbEntity
  8
CRFB-D-2-P
  6
Continuous
 62
     7
100
AcDbLine
 10
3.2395083382
 20
1.9335281776
 30
0.0
 11
2.332632942
 21
2.8404035738
 31
0.0
  0
LINE
  5
3C
330
2B
100
AcDbEntity
  8
CRFB-D-2-P
  6
Continuous
 62
     7
100
AcDbLine
 10
8.2527651793
 20
1.9335281776
 30
0.0
 11
3.2395083382
 21
1.9335281776
 31
0.0
  0
LINE
  5
3D
330
2B
100
AcDbEntity
  8
CRFB-D-2-P
  6
Continuous
 62
     7
100
AcDbLine
 10
4.4280083382
 20
2.6002880346
 30
0.0
 11
4.4280083382
 21
3.3167683205
 31
0.0
  0
ARC
  5
3E
330
2B
100
AcDbEntity
  8
CRFB-D-2-P
  6
Continuous
 62
     7
100
AcDbCircle
 10
3.8630083382
 20
2.9585281776
 30
0.0
 40
0.6690000000000013
100
AcDbArc
 50
32.3768776444
 51
147.6231223556
  0
LINE
  5
3F
330
2B
100
AcDbEntity
  8
CRFB-D-2-P
  6
Continuous
 62
     7
100
AcDbLine
 10
3.2980083382
 20
3.3167683205
 30
0.0
 11
3.2980083382
 21
2.6002880346
 31
0.0
  0
ARC
  5
40
330
2B
100
AcDbEntity
  8
CRFB-D-2-P
  6
Continuous
 62
     7
100
AcDbCircle
 10
3.8630083382
 20
2.9585281776
 30
0.0
 40
0.6690000000000015
100
AcDbArc
 50
212.3768776444
 51
327.6231223556
  0
CIRCLE
  5
41
330
2B
100
AcDbEntity
  8
CRFB-D-2-P
  6
Continuous
 62
     7
100
AcDbCircle
 10
4.6290083382
 20
2.9585281776
 30
0.0
 40
0.078
  0
LINE
  5
42
330
2B
100
AcDbEntity
  8
CRFB-D-2-P
  6
Continuous
 62
     7
100
AcDbLine
 10
5.9600083382
 20
2.6002880346
 30
0.0
 11
5.9600083382
 21
3.3167683205
 31
0.0
  0
ARC
  5
43
330
2B
100
AcDbEntity
  8
CRFB-D-2-P
  6
Continuous
 62
     7
100
AcDbCircle
 10
5.3950083382
 20
2.9585281776
 30
0.0
 40
0.6690000000000012
100
AcDbArc
 50
32.3768776444
 51
147.6231223556
  0
LINE
  5
44
330
2B
100
AcDbEntity
  8
CRFB-D-2-P
  6
Continuous
 62
     7
100
AcDbLine
 10
4.8300083382
 20
3.3167683205
 30
0.0
 11
4.8300083382
 21
2.6002880346
 31
0.0
  0
ARC
  5
45
330
2B
100
AcDbEntity
  8
CRFB-D-2-P
  6
Continuous
 62
     7
100
AcDbCircle
 10
5.3950083382
 20
2.9585281776
 30
0.0
 40
0.6690000000000013
100
AcDbArc
 50
212.3768776444
 51
327.6231223556
  0
ENDBLK
  5
4A
330
2B
100
AcDbEntity
  8
0
100
AcDbBlockEnd
  0
BLOCK
  5
80
330
4B
100
AcDbEntity
  8
0
100
AcDbBlockBegin
  2
SE1
 70
     0
 71
     0
 10
0.0
 20
0.0
 30
0.0
  3
SE1
  1

  0
LINE
  5
4D
330
4B
100
AcDbEntity
  8
CRFB-D-2-P
  6
Continuous
 62
     7
100
AcDbLine
 10
8.6319052399
 20
7.1865599069
 30
0.0
 11
8.6495558346
 21
7.1982828231
 31
0.0
  0
ELLIPSE
  5
4E
330
4B
100
AcDbEntity
  8
CRFB-D-2-P
  6
Continuous
 62
     7
100
AcDbEllipse
 10
6.2321082742
 20
5.4498004056
 30
0.0
 11
-3.874999999999979
 21
3.808256460040062E-15
 31
0.0
210
0.0
220
0.0
230
1.0
 40
0.5773502692
 41
2.725845806428248
 42
3.141592653589794
  0
LINE
  5
4F
330
4B
100
AcDbEntity
  8
CRFB-D-2-P
  6
Continuous
 62
     7
100
AcDbLine
 10
8.6495558346
 20
7.1982828231
 30
0.0
 11
8.6495558346
 21
7.25870357
 31
0.0
  0
LINE
  5
50
330
4B
100
AcDbEntity
  8
CRFB-D-2-P
  6
Continuous
 62
     7
100
AcDbLine
 10
6.2321082742
 20
7.3937770262
 30
0.0
 11
6.6620846706
 21
7.4154958234
 31
0.0
  0
LINE
  5
51
330
4B
100
AcDbEntity
  8
CRFB-D-2-P
  6
Continuous
 62
     7
100
AcDbLine
 10
6.6620846706
 20
7.4154958234
 30
0.0
 11
6.7140061068
 21
7.7300859742
 31
0.0
  0
ELLIPSE
  5
52
330
4B
100
AcDbEntity
  8
CRFB-D-2-P
  6
Continuous
 62
     7
100
AcDbEllipse
 10
6.2321082742
 20
5.5102211526
 30
0.0
 11
3.875000000000078
 21
4.559489078927628E-14
 31
0.0
210
0.0
220
0.0
230
0.9999999999999999
 40
0.5773502692
 41
0.8971275924465434
 42
1.446112792113887
  0
LINE
  5
53
330
4B
100
AcDbEntity
  8
CRFB-D-2-P
  6
Continuous
 62
     7
100
AcDbLine
 10
8.6495558346
 20
7.25870357
 30
0.0
 11
8.5832383216
 21
7.2146577653
 31
0.0
  0
LINE
  5
54
330
4B
100
AcDbEntity
  8
CRFB-D-2-P
  6
Continuous
 62
     7
100
AcDbLine
 10
8.5832383216
 20
7.2146577653
 30
0.0
 11
8.7069820083
 21
7.1432143144
 31
0.0
  0
LINE
  5
55
330
4B
100
AcDbEntity
  8
CRFB-D-2-P
  6
Continuous
 62
     7
100
AcDbLine
 10
9.1842790856
 20
6.8676467184
 30
0.0
 11
9.2605686574
 21
6.9059351523
 31
0.0
  0
ELLIPSE
  5
56
330
4B
100
AcDbEntity
  8
CRFB-D-2-P
  6
Continuous
 62
     7
100
AcDbEllipse
 10
6.2321082742
 20
5.5102211526
 30
0.0
 11
-3.875000000000026
 21
-3.050098944540546E-15
 31
0.0
210
0.0
220
0.0
230
1.0
 40
0.5773502692
 41
2.725845806428251
 42
3.815261387938135
  0
ELLIPSE
  5
57
330
4B
100
AcDbEntity
  8
CRFB-D-2-P
  6
Continuous
 62
     7
100
AcDbEllipse
 10
9.1068508931
 20
5.7700711895
 30
0.0
 11
-0.16
 21
5.122214988120493E-17
 31
0.0
210
0.0
220
0.0
230
1.0
 40
0.5773502692
 41
3.474758988906899
 42
5.950018971862514
  0
ELLIPSE
  5
58
330
4B
100
AcDbEntity
  8
CRFB-D-2-P
  6
Continuous
 62
     7
100
AcDbEllipse
 10
9.1068508931
 20
5.8304919364
 30
0.0
 11
-0.16
 21
2.742766045253317E-16
 31
0.0
210
0.0
220
0.0
230
1.0
 40
0.5773502692
 41
0.0
 42
6.283185307179586
  0
ELLIPSE
  5
59
330
4B
100
AcDbEntity
  8
CRFB-D-2-P
  6
Continuous
 62
     7
100
AcDbEllipse
 10
6.786833544
 20
7.1095338305
 30
0.0
 11
-0.1600000000000001
 21
-1.376842048421185E-16
 31
0.0
210
0.0
220
0.0
230
0.9999999999999999
 40
0.5773502692
 41
3.474758988906917
 42
5.950018971862512
  0
ELLIPSE
  5
5A
330
4B
100
AcDbEntity
  8
CRFB-D-2-P
  6
Continuous
 62
     7
100
AcDbEllipse
 10
6.786833544
 20
7.1699545775
 30
0.0
 11
-0.16
 21
-2.401285046045284E-16
 31
0.0
210
0.0
220
0.0
230
1.0
 40
0.5773502692
 41
0.0
 42
6.283185307179586
  0
LINE
  5
5B
330
4B
100
AcDbEntity
  8
CRFB-D-2-P
  6
Continuous
 62
     7
100
AcDbLine
 10
9.0605353989
 20
6.9390901692
 30
0.0
 11
9.1842790856
 21
6.8676467184
 31
0.0
  0
LINE
  5
5C
330
4B
100
AcDbEntity
  8
CRFB-D-2-P
  6
Continuous
 62
     7
100
AcDbLine
 10
8.7069820083
 20
7.0827935674
 30
0.0
 11
8.7069820083
 21
7.1432143144
 31
0.0
  0
LINE
  5
5D
330
4B
100
AcDbEntity
  8
CRFB-D-2-P
  6
Continuous
 62
     7
100
AcDbLine
 10
8.5594105705
 20
6.9975931581
 30
0.0
 11
8.5594105705
 21
7.0580139051
 31
0.0
  0
ELLIPSE
  5
5E
330
4B
100
AcDbEntity
  8
CRFB-D-2-P
  6
Continuous
 62
     7
100
AcDbEllipse
 10
8.7361872658
 20
6.8955310855
 30
0.0
 11
0.2500000000000003
 21
-3.756290991288362E-16
 31
0.0
210
0.0
220
0.0
230
1.0
 40
0.5773502692
 41
2.356194490192353
 42
2.930729914952662
  0
ELLIPSE
  5
5F
330
4B
100
AcDbEntity
  8
CRFB-D-2-P
  6
Continuous
 62
     7
100
AcDbEllipse
 10
8.7361872658
 20
6.9559518325
 30
0.0
 11
0.2500000000000006
 21
6.787921940714864E-16
 31
0.0
210
0.0
220
0.0
230
1.0
 40
0.5773502692
 41
2.356194490192349
 42
5.497787143782132
  0
LINE
  5
60
330
4B
100
AcDbEntity
  8
CRFB-D-2-P
  6
Continuous
 62
     7
100
AcDbLine
 10
8.7069820083
 20
7.0827935674
 30
0.0
 11
8.5594105705
 21
6.9975931581
 31
0.0
  0
LINE
  5
61
330
4B
100
AcDbEntity
  8
CRFB-D-2-P
  6
Continuous
 62
     7
100
AcDbLine
 10
8.5594105705
 20
7.0580139051
 30
0.0
 11
8.7069820083
 21
7.1432143144
 31
0.0
  0
LINE
  5
62
330
4B
100
AcDbEntity
  8
CRFB-D-2-P
  6
Continuous
 62
     7
100
AcDbLine
 10
9.0605353989
 20
6.9390901692
 30
0.0
 11
8.9129639611
 21
6.8538897598
 31
0.0
  0
LINE
  5
63
330
4B
100
AcDbEntity
  8
CRFB-D-2-P
  6
Continuous
 62
     7
100
AcDbLine
 10
9.7770161824
 20
4.6066628308
 30
0.0
 11
9.7770161824
 21
4.5462420838
 31
0.0
  0
LINE
  5
64
330
4B
100
AcDbEntity
  8
CRFB-D-2-P
  6
Continuous
 62
     7
100
AcDbLine
 10
6.2321082742
 20
6.5928956189
 30
0.0
 11
6.2321082742
 21
6.6533163659
 31
0.0
  0
LINE
  5
65
330
4B
100
AcDbEntity
  8
CRFB-D-2-P
  6
Continuous
 62
     7
100
AcDbLine
 10
6.2321082742
 20
6.5928956189
 30
0.0
 11
9.7770161824
 21
4.5462420838
 31
0.0
  0
LINE
  5
66
330
4B
100
AcDbEntity
  8
CRFB-D-2-P
  6
Continuous
 62
     7
100
AcDbLine
 10
6.2321082742
 20
6.6533163659
 30
0.0
 11
6.2321082742
 21
7.3937770262
 31
0.0
  0
LINE
  5
67
330
4B
100
AcDbEntity
  8
CRFB-D-2-P
  6
Continuous
 62
     7
100
AcDbLine
 10
9.7770161824
 20
4.6066628308
 30
0.0
 11
6.2321082742
 21
6.6533163659
 31
0.0
  0
LINE
  5
68
330
4B
100
AcDbEntity
  8
CRFB-D-2-P
  6
Continuous
 62
     7
100
AcDbLine
 10
7.2515725059
 20
7.1337185175
 30
0.0
 11
7.2515725059
 21
7.1941392645
 31
0.0
  0
LINE
  5
69
330
4B
100
AcDbEntity
  8
CRFB-D-2-P
  6
Continuous
 62
     7
100
AcDbLine
 10
6.7449444372
 20
6.8412166657
 30
0.0
 11
6.7449444372
 21
6.9016374127
 31
0.0
  0
ELLIPSE
  5
6A
330
4B
100
AcDbEntity
  8
CRFB-D-2-P
  6
Continuous
 62
     7
100
AcDbEllipse
 10
7.3977738029
 20
6.7568073075
 30
0.0
 11
-0.6690000000000013
 21
4.461089092882536E-16
 31
0.0
210
0.0
220
0.0
230
1.0
 40
0.5773502692
 41
3.219887721933675
 42
4.932704027371395
  0
LINE
  5
6B
330
4B
100
AcDbEntity
  8
CRFB-D-2-P
  6
Continuous
 62
     7
100
AcDbLine
 10
6.7449444372
 20
6.8412166657
 30
0.0
 11
7.2515725059
 21
7.1337185175
 31
0.0
  0
ELLIPSE
  5
6C
330
4B
100
AcDbEntity
  8
CRFB-D-2-P
  6
Continuous
 62
     7
100
AcDbEllipse
 10
7.3977738029
 20
6.7568073075
 30
0.0
 11
0.6690000000000015
 21
2.412203097634337E-16
 31
0.0
210
0.0
220
0.0
230
1.0
 40
0.5773502692
 41
2.921277606603088
 42
3.063297585246231
  0
LINE
  5
6D
330
4B
100
AcDbEntity
  8
CRFB-D-2-P
  6
Continuous
 62
     7
100
AcDbLine
 10
7.5439751
 20
6.4403168445
 30
0.0
 11
8.0506031687
 21
6.7328186963
 31
0.0
  0
ELLIPSE
  5
6E
330
4B
100
AcDbEntity
  8
CRFB-D-2-P
  6
Continuous
 62
     7
100
AcDbEllipse
 10
7.3977738029
 20
6.8172280545
 30
0.0
 11
-0.6690000000000014
 21
-4.119608093674503E-16
 31
0.0
210
0.0
220
0.0
230
0.9999999999999999
 40
0.5773502692
 41
2.921277606603088
 42
4.932704027371393
  0
LINE
  5
6F
330
4B
100
AcDbEntity
  8
CRFB-D-2-P
  6
Continuous
 62
     7
100
AcDbLine
 10
7.2515725059
 20
7.1941392645
 30
0.0
 11
6.7449444372
 21
6.9016374127
 31
0.0
  0
ELLIPSE
  5
70
330
4B
100
AcDbEntity
  8
CRFB-D-2-P
  6
Continuous
 62
     7
100
AcDbEllipse
 10
7.3977738029
 20
6.8172280545
 30
0.0
 11
0.6690000000000018
 21
1.707404996040165E-16
 31
0.0
210
0.0
220
0.0
230
1.0
 40
0.5773502692
 41
2.921277606603086
 42
4.932704027371394
  0
ELLIPSE
  5
71
330
4B
100
AcDbEntity
  8
CRFB-D-2-P
  6
Continuous
 62
     7
100
AcDbEllipse
 10
7.9394175973
 20
6.444089117
 30
0.0
 11
-0.0780000000000004
 21
-4.268512490100412E-18
 31
0.0
210
0.0
220
0.0
230
0.9999999999999999
 40
0.5773502692
 41
3.876940144996403
 42
5.547837815772977
  0
ELLIPSE
  5
72
330
4B
100
AcDbEntity
  8
CRFB-D-2-P
  6
Continuous
 62
     7
100
AcDbEllipse
 10
7.9394175973
 20
6.504509864
 30
0.0
 11
0.07799999999999982
 21
1.163416423916165E-16
 31
0.0
210
0.0
220
0.0
230
1.0
 40
0.5773502692
 41
0.0
 42
6.283185307179586
  0
LINE
  5
73
330
4B
100
AcDbEntity
  8
CRFB-D-2-P
  6
Continuous
 62
     7
100
AcDbLine
 10
8.3348600947
 20
6.5082821365
 30
0.0
 11
8.3348600947
 21
6.5687028835
 31
0.0
  0
LINE
  5
74
330
4B
100
AcDbEntity
  8
CRFB-D-2-P
  6
Continuous
 62
     7
100
AcDbLine
 10
7.828232026
 20
6.2157802847
 30
0.0
 11
7.828232026
 21
6.2762010317
 31
0.0
  0
ELLIPSE
  5
75
330
4B
100
AcDbEntity
  8
CRFB-D-2-P
  6
Continuous
 62
     7
100
AcDbEllipse
 10
8.4810613917
 20
6.1313709265
 30
0.0
 11
-0.6690000000000009
 21
2.572025545649301E-16
 31
0.0
210
0.0
220
0.0
230
1.0
 40
0.5773502692
 41
3.219887721932736
 42
4.932704027371392
  0
LINE
  5
76
330
4B
100
AcDbEntity
  8
CRFB-D-2-P
  6
Continuous
 62
     7
100
AcDbLine
 10
7.828232026
 20
6.2157802847
 30
0.0
 11
8.3348600947
 21
6.5082821365
 31
0.0
  0
ELLIPSE
  5
77
330
4B
100
AcDbEntity
  8
CRFB-D-2-P
  6
Continuous
 62
     7
100
AcDbEllipse
 10
8.4810613917
 20
6.1313709265
 30
0.0
 11
0.6690000000000014
 21
-1.598224480149630E-17
 31
0.0
210
0.0
220
0.0
230
0.9999999999999999
 40
0.5773502692
 41
2.921277606603089
 42
3.063297585246029
  0
LINE
  5
78
330
4B
100
AcDbEntity
  8
CRFB-D-2-P
  6
Continuous
 62
     7
100
AcDbLine
 10
8.6272626887
 20
5.8148804635
 30
0.0
 11
9.1338907574
 21
6.1073823153
 31
0.0
  0
ELLIPSE
  5
79
330
4B
100
AcDbEntity
  8
CRFB-D-2-P
  6
Continuous
 62
     7
100
AcDbEllipse
 10
8.4810613917
 20
6.1917916735
 30
0.0
 11
-0.6690000000000013
 21
1.024442997624099E-16
 31
0.0
210
0.0
220
0.0
230
1.0
 40
0.5773502692
 41
2.921277606603089
 42
4.932704027371392
  0
LINE
  5
7A
330
4B
100
AcDbEntity
  8
CRFB-D-2-P
  6
Continuous
 62
     7
100
AcDbLine
 10
8.3348600947
 20
6.5687028835
 30
0.0
 11
7.828232026
 21
6.2762010317
 31
0.0
  0
ELLIPSE
  5
7B
330
4B
100
AcDbEntity
  8
CRFB-D-2-P
  6
Continuous
 62
     7
100
AcDbEllipse
 10
8.4810613917
 20
6.1917916735
 30
0.0
 11
0.6690000000000009
 21
-3.254987544065366E-16
 31
0.0
210
0.0
220
0.0
230
1.0
 40
0.5773502692
 41
2.921277606603091
 42
4.932704027371392
  0
LINE
  5
7C
330
4B
100
AcDbEntity
  8
CRFB-D-2-P
  6
Continuous
 62
     7
100
AcDbLine
 10
10.1071082742
 20
5.4498004056
 30
0.0
 11
10.1071082742
 21
5.5102211526
 31
0.0
  0
ENDBLK
  5
81
330
4B
100
AcDbEntity
  8
0
100
AcDbBlockEnd
  0
BLOCK
  5
8E
330
82
100
AcDbEntity
  8
0
100
AcDbBlockBegin
  2
GDimGGroup
 70
     0
 71
     0
 10
0.0
 20
0.0
 30
0.0
  3
GDimGGroup
  1

  0
HATCH
  5
84
330
82
100
AcDbEntity
  8
Default
  6
Continuous
 62
   136
100
AcDbHatch
 10
0.0
 20
0.0
 30
0.0
210
0.0
220
0.0
230
1.0
  2
SOLID
 70
     1
 71
     0
 91
        1
 92
        1
 93
        3
 72
     1
 10
1.512078217982123
 20
4.259366615729356
 11
1.55374488414524
 21
4.259366615729356
 72
     1
 10
1.55374488414524
 20
4.259366615729356
 11
1.532911551063681
 21
4.384366614218707
 72
     1
 10
1.532911551063681
 20
4.384366614218707
 11
1.512078217982123
 21
4.259366615729356
 97
        0
 75
     0
 76
     1
 98
        0
  0
LWPOLYLINE
  5
85
330
82
100
AcDbEntity
  8
Default
  6
Continuous
 62
   136
370
    30
100
AcDbPolyline
 90
        4
 70
     1
 43
0.0
 10
1.512078218
 20
4.2593666157
 10
1.5329115511
 20
4.3843666142
 10
1.5537448841
 20
4.2593666157
 10
1.512078218
 20
4.2593666157
  0
HATCH
  5
86
330
82
100
AcDbEntity
  8
Default
  6
Continuous
 62
   136
100
AcDbHatch
 10
0.0
 20
0.0
 30
0.0
210
0.0
220
0.0
230
1.0
  2
SOLID
 70
     1
 71
     0
 91
        1
 92
        1
 93
        3
 72
     1
 10
1.512078217982123
 20
2.058528176057564
 11
1.532911551063681
 21
1.933528177568214
 72
     1
 10
1.532911551063681
 20
1.933528177568213
 11
1.55374488414524
 21
2.058528176057564
 72
     1
 10
1.55374488414524
 20
2.058528176057564
 11
1.512078217982123
 21
2.058528176057564
 97
        0
 75
     0
 76
     1
 98
        0
  0
LWPOLYLINE
  5
87
330
82
100
AcDbEntity
  8
Default
  6
Continuous
 62
   136
370
    30
100
AcDbPolyline
 90
        4
 70
     1
 43
0.0
 10
1.512078218
 20
2.0585281761
 10
1.5329115511
 20
1.9335281776
 10
1.5537448841
 20
2.0585281761
 10
1.512078218
 20
2.0585281761
  0
LINE
  5
88
330
82
100
AcDbEntity
  8
Default
  6
Continuous
 62
     7
100
AcDbLine
 10
4.1449570286
 20
4.3843666142
 30
0.0
 11
1.4704115518
 21
4.3843666142
 31
0.0
  0
LINE
  5
89
330
82
100
AcDbEntity
  8
Default
  6
Continuous
 62
     7
100
AcDbLine
 10
3.177008339
 20
1.9335281776
 30
0.0
 11
1.4704115518
 21
1.9335281776
 31
0.0
  0
LINE
  5
8A
330
82
100
AcDbEntity
  8
Default
  6
Continuous
 62
     7
100
AcDbLine
 10
1.5329115511
 20
4.3843666142
 30
0.0
 11
1.5329115511
 21
3.2651973763
 31
0.0
  0
LINE
  5
8B
330
82
100
AcDbEntity
  8
Default
  6
Continuous
 62
     7
100
AcDbLine
 10
1.5329115511
 20
3.0526974155
 30
0.0
 11
1.5329115511
 21
1.9335281776
 31
0.0
  0
TEXT
  5
8D
330
82
100
AcDbEntity
  8
Default
  6
Continuous
 62
     7
100
AcDbText
 10
1.3366906208
 20
3.0964474037
 30
0.0
 40
0.125
  1
2.451
  7
SEACAD_seans_ttf
 11
1.3366906208
 21
3.2214474037
 31
0.0
100
AcDbText
 73
     3
  0
ENDBLK
  5
8F
330
82
100
AcDbEntity
  8
0
100
AcDbBlockEnd
  0
BLOCK
  5
9B
330
90
100
AcDbEntity
  8
0
100
AcDbBlockBegin
  2
GDimGGroup1
 70
     0
 71
     0
 10
0.0
 20
0.0
 30
0.0
  3
GDimGGroup1
  1

  0
HATCH
  5
92
330
90
100
AcDbEntity
  8
Default
  6
Continuous
 62
   136
100
AcDbHatch
 10
0.0
 20
0.0
 30
0.0
210
0.0
220
0.0
230
1.0
  2
SOLID
 70
     1
 71
     0
 91
        1
 92
        1
 93
        3
 72
     1
 10
2.386493506509166
 20
4.981414566890318
 11
2.261493508019815
 21
4.960581233808759
 72
     1
 10
2.261493508019815
 20
4.960581233808759
 11
2.386493506509166
 21
4.939747900727201
 72
     1
 10
2.386493506509166
 20
4.939747900727201
 11
2.386493506509166
 21
4.981414566890318
 97
        0
 75
     0
 76
     1
 98
        0
  0
LWPOLYLINE
  5
93
330
90
100
AcDbEntity
  8
Default
  6
Continuous
 62
   136
370
    30
100
AcDbPolyline
 90
        4
 70
     1
 43
0.0
 10
2.3864935065
 20
4.9814145669
 10
2.261493508
 20
4.9605812338
 10
2.3864935065
 20
4.9397479007
 10
2.3864935065
 20
4.9814145669
  0
HATCH
  5
94
330
90
100
AcDbEntity
  8
Default
  6
Continuous
 62
   136
100
AcDbHatch
 10
0.0
 20
0.0
 30
0.0
210
0.0
220
0.0
230
1.0
  2
SOLID
 70
     1
 71
     0
 91
        1
 92
        1
 93
        3
 72
     1
 10
8.127765180860195
 20
4.981414566890318
 11
8.127765180860195
 21
4.939747900727201
 72
     1
 10
8.127765180860195
 20
4.939747900727201
 11
8.252765179349545
 21
4.960581233808759
 72
     1
 10
8.252765179349545
 20
4.960581233808759
 11
8.127765180860195
 21
4.981414566890318
 97
        0
 75
     0
 76
     1
 98
        0
  0
LWPOLYLINE
  5
95
330
90
100
AcDbEntity
  8
Default
  6
Continuous
 62
   136
370
    30
100
AcDbPolyline
 90
        4
 70
     1
 43
0.0
 10
8.1277651809
 20
4.9814145669
 10
8.2527651793
 20
4.9605812338
 10
8.1277651809
 20
4.9397479007
 10
8.1277651809
 20
4.9814145669
  0
LINE
  5
96
330
90
100
AcDbEntity
  8
Default
  6
Continuous
 62
     7
100
AcDbLine
 10
2.261493508
 20
3.6555494576
 30
0.0
 11
2.261493508
 21
5.0230812331
 31
0.0
  0
LINE
  5
97
330
90
100
AcDbEntity
  8
Default
  6
Continuous
 62
     7
100
AcDbLine
 10
8.2527651793
 20
1.9960281768
 30
0.0
 11
8.2527651793
 21
5.0230812331
 31
0.0
  0
LINE
  5
98
330
90
100
AcDbEntity
  8
Default
  6
Continuous
 62
     7
100
AcDbLine
 10
2.261493508
 20
4.9605812338
 30
0.0
 11
5.0200654008
 21
4.9605812338
 31
0.0
  0
LINE
  5
99
330
90
100
AcDbEntity
  8
Default
  6
Continuous
 62
     7
100
AcDbLine
 10
5.4941932866
 20
4.9605812338
 30
0.0
 11
8.2527651793
 21
4.9605812338
 31
0.0
  0
TEXT
  5
9A
330
90
100
AcDbEntity
  8
Default
  6
Continuous
 62
     7
100
AcDbText
 10
5.0638154287
 20
4.8980812338
 30
0.0
 40
0.125
  1
5.991
  7
SEACAD_seans_ttf
 11
5.0638154287
 21
5.0230812338
 31
0.0
100
AcDbText
 73
     3
  0
ENDBLK
  5
9C
330
90
100
AcDbEntity
  8
0
100
AcDbBlockEnd
  0
ENDSEC
  0
SECTION
  2
ENTITIES
  0
INSERT
  5
2C
102
{ACAD_XDICTIONARY
360
46
102
}
330
1F
100
AcDbEntity
  8
Default
100
AcDbBlockReference
  2
SE
 10
0.0
 20
0.0
 30
0.0
  0
INSERT
  5
4C
102
{ACAD_XDICTIONARY
360
7D
102
}
330
1F
100
AcDbEntity
  8
Default
100
AcDbBlockReference
  2
SE1
 10
0.0
 20
0.0
 30
0.0
  0
INSERT
  5
83
330
1F
100
AcDbEntity
  8
Default
100
AcDbBlockReference
  2
GDimGGroup
 10
0.0
 20
0.0
 30
0.0
  0
INSERT
  5
91
330
1F
100
AcDbEntity
  8
Default
100
AcDbBlockReference
  2
GDimGGroup1
 10
0.0
 20
0.0
 30
0.0
  0
ENDSEC
  0
SECTION
  2
OBJECTS
  0
DICTIONARY
  5
C
330
0
100
AcDbDictionary
281
     1
  3
ACAD_GROUP
350
D
  3
ACAD_LAYOUT
350
1A
  3
ACAD_MLINESTYLE
350
17
  3
ACAD_PLOTSETTINGS
350
19
  3
ACAD_PLOTSTYLENAME
350
E
  0
DICTIONARY
  5
46
330
2C
100
AcDbDictionary
280
     1
281
     1
  3
ACAD_FILTER
360
47
  0
DICTIONARY
  5
7D
330
4C
100
AcDbDictionary
280
     1
281
     1
  3
ACAD_FILTER
360
7E
  0
DICTIONARY
  5
D
102
{ACAD_REACTORS
330
C
102
}
330
C
100
AcDbDictionary
281
     1
  0
DICTIONARY
  5
1A
102
{ACAD_REACTORS
330
C
102
}
330
C
100
AcDbDictionary
281
     1
  3
Layout1
350
1E
  3
Model
350
22
  0
DICTIONARY
  5
17
102
{ACAD_REACTORS
330
C
102
}
330
C
100
AcDbDictionary
281
     1
  3
Standard
350
18
  0
DICTIONARY
  5
19
102
{ACAD_REACTORS
330
C
102
}
330
C
100
AcDbDictionary
281
     1
  0
ACDBDICTIONARYWDFLT
  5
E
102
{ACAD_REACTORS
330
C
102
}
330
C
100
AcDbDictionary
281
     1
  3
Normal
350
F
100
AcDbDictionaryWithDefault
340
F
  0
DICTIONARY
  5
47
102
{ACAD_REACTORS
330
46
102
}
330
46
100
AcDbDictionary
281
     1
  3
SPATIAL
360
48
  0
DICTIONARY
  5
7E
102
{ACAD_REACTORS
330
7D
102
}
330
7D
100
AcDbDictionary
281
     1
  3
SPATIAL
360
7F
  0
LAYOUT
  5
1E
102
{ACAD_REACTORS
330
1A
102
}
330
1A
100
AcDbPlotSettings
  1

  2

  4

  6

 40
0.0
 41
0.0
 42
0.0
 43
0.0
 44
0.0
 45
0.0
 46
0.0
 47
0.0
 48
0.0
 49
0.0
140
0.0
141
0.0
142
1.0
143
1.0
 70
   688
 72
     0
 73
     0
 74
     5
  7

 75
    16
147
1.0
148
0.0
149
0.0
100
AcDbLayout
  1
Layout1
 70
     1
 71
     1
 10
0.0
 20
0.0
 11
10.999978
 21
8.499983
 12
0.0
 22
0.0
 32
0.0
 14
0.0
 24
0.0
 34
0.0
 15
10.999978
 25
8.499983
 35
0.0
146
0.0
 13
0.0
 23
0.0
 33
0.0
 16
1.0
 26
0.0
 36
0.0
 17
0.0
 27
1.0
 37
0.0
 76
     0
330
1B
  0
LAYOUT
  5
22
102
{ACAD_REACTORS
330
1A
102
}
330
1A
100
AcDbPlotSettings
  1

  2

  4

  6

 40
0.0
 41
0.0
 42
0.0
 43
0.0
 44
0.0
 45
0.0
 46
0.0
 47
0.0
 48
0.0
 49
0.0
140
0.0
141
0.0
142
1.0
143
1.0
 70
  1712
 72
     0
 73
     0
 74
     0
  7

 75
     0
147
1.0
148
0.0
149
0.0
100
AcDbLayout
  1
Model
 70
     1
 71
     0
 10
0.0
 20
0.0
 11
10.999978
 21
8.499983
 12
0.0
 22
0.0
 32
0.0
 14
0.0
 24
0.0
 34
0.0
 15
10.999978
 25
8.499983
 35
0.0
146
0.0
 13
0.0
 23
0.0
 33
0.0
 16
1.0
 26
0.0
 36
0.0
 17
0.0
 27
1.0
 37
0.0
 76
     0
330
1F
  0
MLINESTYLE
  5
18
102
{ACAD_REACTORS
330
17
102
}
330
17
100
AcDbMlineStyle
  2
Standard
 70
     0
  3

 62
   256
 51
90.0
 52
90.0
 71
     2
 49
0.5
 62
   256
  6
BYLAYER
 49
-0.5
 62
   256
  6
BYLAYER
  0
ACDBPLACEHOLDER
  5
F
102
{ACAD_REACTORS
330
E
102
}
330
E
  0
SPATIAL_FILTER
  5
48
102
{ACAD_REACTORS
330
47
102
}
330
47
100
AcDbFilter
100
AcDbSpatialFilter
 70
     2
 10
2.011493508
 20
1.6835281776
 10
8.5027651793
 20
4.6343666142
210
0.0
220
0.0
230
1.0
 11
0.0
 21
0.0
 31
0.0
 71
     1
 72
     0
 73
     0
 40
1.0
 40
0.0
 40
0.0
 40
0.0
 40
0.0
 40
1.0
 40
0.0
 40
0.0
 40
0.0
 40
0.0
 40
1.0
 40
0.0
 40
1.0
 40
0.0
 40
0.0
 40
0.0
 40
0.0
 40
1.0
 40
0.0
 40
0.0
 40
0.0
 40
0.0
 40
1.0
 40
0.0
  0
SPATIAL_FILTER
  5
7F
102
{ACAD_REACTORS
330
7E
102
}
330
7E
100
AcDbFilter
100
AcDbSpatialFilter
 70
     2
 10
5.9821082742
 20
4.2962420838
 10
10.3571082742
 20
7.9800859742
210
0.0
220
0.0
230
1.0
 11
0.0
 21
0.0
 31
0.0
 71
     1
 72
     0
 73
     0
 40
1.0
 40
0.0
 40
0.0
 40
0.0
 40
0.0
 40
1.0
 40
0.0
 40
0.0
 40
0.0
 40
0.0
 40
1.0
 40
0.0
 40
1.0
 40
0.0
 40
0.0
 40
0.0
 40
0.0
 40
1.0
 40
0.0
 40
0.0
 40
0.0
 40
0.0
 40
1.0
 40
0.0
  0
ENDSEC
  0
EOF
