  0
SECTION
  2
HEADER
  9
$ACADVER
  1
AC1012
  9
$DWGCODEPAGE
  3
ansi_1252
  9
$INSBASE
 10
0.0
 20
0.0
 30
0.0
  9
$EXTMIN
 10
0.0
 20
0.0
 30
0.0
  9
$EXTMAX
 10
34.0
 20
22.0
 30
0.0
  9
$LIMMIN
 10
0.0
 20
0.0
  9
$LIMMAX
 10
12.0
 20
9.0
  9
$ORTHOMODE
 70
         0
  9
$REGENMODE
 70
         1
  9
$FILLMODE
 70
         1
  9
$QTEXTMODE
 70
         0
  9
$MIRRTEXT
 70
         1
  9
$DRAGMODE
 70
         2
  9
$LTSCALE
 40
1.0
  9
$OSMODE
 70
         0
  9
$ATTMODE
 70
         1
  9
$TEXTSIZE
 40
0.2
  9
$TRACEWID
 40
0.05
  9
$TEXTSTYLE
  7
STANDARD
  9
$CLAYER
  8
0
  9
$CELTYPE
  6
CONTINUOUS
  9
$CECOLOR
 62
       256
  9
$CELTSCALE
 40
1.0
  9
$DELOBJ
 70
         1
  9
$DISPSILH
 70
         0
  9
$DIMSCALE
 40
1.0
  9
$DIMASZ
 40
0.18
  9
$DIMEXO
 40
0.0625
  9
$DIMDLI
 40
0.38
  9
$DIMRND
 40
0.0
  9
$DIMDLE
 40
0.0
  9
$DIMEXE
 40
0.18
  9
$DIMTP
 40
0.0
  9
$DIMTM
 40
0.0
  9
$DIMTXT
 40
0.18
  9
$DIMCEN
 40
0.09
  9
$DIMTSZ
 40
0.0
  9
$DIMTOL
 70
         0
  9
$DIMLIM
 70
         0
  9
$DIMTIH
 70
         1
  9
$DIMTOH
 70
         1
  9
$DIMSE1
 70
         0
  9
$DIMSE2
 70
         0
  9
$DIMTAD
 70
         0
  9
$DIMZIN
 70
         0
  9
$DIMBLK
  1

  9
$DIMASO
 70
         1
  9
$DIMSHO
 70
         1
  9
$DIMPOST
  1

  9
$DIMAPOST
  1

  9
$DIMALT
 70
         0
  9
$DIMALTD
 70
         2
  9
$DIMALTF
 40
25.4
  9
$DIMLFAC
 40
1.0
  9
$DIMTOFL
 70
         0
  9
$DIMTVP
 40
0.0
  9
$DIMTIX
 70
         0
  9
$DIMSOXD
 70
         0
  9
$DIMSAH
 70
         0
  9
$DIMBLK1
  1

  9
$DIMBLK2
  1

  9
$DIMSTYLE
  2
STANDARD
  9
$DIMCLRD
 70
         0
  9
$DIMCLRE
 70
         0
  9
$DIMCLRT
 70
         0
  9
$DIMTFAC
 40
1.0
  9
$DIMGAP
 40
0.09
  9
$DIMJUST
 70
         0
  9
$DIMSD1
 70
         0
  9
$DIMSD2
 70
         0
  9
$DIMTOLJ
 70
         1
  9
$DIMTZIN
 70
         0
  9
$DIMALTZ
 70
         0
  9
$DIMALTTZ
 70
         0
  9
$DIMFIT
 70
         3
  9
$DIMUPT
 70
         0
  9
$DIMUNIT
 70
         2
  9
$DIMDEC
 70
         4
  9
$DIMTDEC
 70
         4
  9
$DIMALTU
 70
         2
  9
$DIMALTTD
 70
         2
  9
$DIMTXSTY
  7
STANDARD
  9
$DIMAUNIT
 70
         0
  9
$LUNITS
 70
         2
  9
$LUPREC
 70
         4
  9
$SKETCHINC
 40
0.1
  9
$FILLETRAD
 40
0.0
  9
$AUNITS
 70
         0
  9
$AUPREC
 70
         0
  9
$MENU
  1
acad
  9
$ELEVATION
 40
0.0
  9
$PELEVATION
 40
0.0
  9
$THICKNESS
 40
0.0
  9
$LIMCHECK
 70
         0
  9
$BLIPMODE
 70
         1
  9
$CHAMFERA
 40
0.0
  9
$CHAMFERB
 40
0.0
  9
$CHAMFERC
 40
0.0
  9
$CHAMFERD
 40
0.0
  9
$SKPOLY
 70
         0
  9
$TDCREATE
 40
0.000000000
  9
$TDUPDATE
 40
0.000000000
  9
$TDINDWG
 40
0.0000000000
  9
$TDUSRTIMER
 40
0.0000000000
  9
$USRTIMER
 70
         1
  9
$ANGBASE
 50
0.0
  9
$ANGDIR
 70
         0
  9
$PDMODE
 70
         0
  9
$PDSIZE
 40
0.0
  9
$PLINEWID
 40
0.0
  9
$COORDS
 70
         0
  9
$SPLFRAME
 70
         0
  9
$SPLINETYPE
 70
         6
  9
$SPLINESEGS
 70
         8
  9
$ATTDIA
 70
         0
  9
$ATTREQ
 70
         1
  9
$HANDLING
 70
         1
  9
$HANDSEED
  5
C9
  9
$SURFTAB1
 70
         6
  9
$SURFTAB2
 70
         6
  9
$SURFTYPE
 70
         6
  9
$SURFU
 70
         6
  9
$SURFV
 70
         6
  9
$UCSNAME
  2

  9
$UCSORG
 10
0.0
 20
0.0
 30
0.0
  9
$UCSXDIR
 10
1.0
 20
0.0
 30
0.0
  9
$UCSYDIR
 10
0.0
 20
1.0
 30
0.0
  9
$PUCSNAME
  2

  9
$PUCSORG
 10
0.0
 20
0.0
 30
0.0
  9
$PUCSXDIR
 10
1.0
 20
0.0
 30
0.0
  9
$PUCSYDIR
 10
0.0
 20
1.0
 30
0.0
  9
$USERI1
 70
         0
  9
$USERI2
 70
         0
  9
$USERI3
 70
         0
  9
$USERI4
 70
         0
  9
$USERI5
 70
         0
  9
$USERR1
 40
0.0
  9
$USERR2
 40
0.0
  9
$USERR3
 40
0.0
  9
$USERR4
 40
0.0
  9
$USERR5
 40
0.0
  9
$WORLDVIEW
 70
         1
  9
$SHADEDGE
 70
         3
  9
$SHADEDIF
 70
        70
  9
$TILEMODE
 70
         1
  9
$MAXACTVP
 70
        16
  9
$PINSBASE
 10
0.0
 20
0.0
 30
0.0
  9
$PLIMCHECK
 70
         0
  9
$PEXTMIN
 10
1.0000000000E+20
 20
1.0000000000E+20
 30
1.0000000000E+20
  9
$PEXTMAX
 10
-1.0000000000E+20
 20
-1.0000000000E+20
 30
-1.0000000000E+20
  9
$PLIMMIN
 10
0.0
 20
0.0
  9
$PLIMMAX
 10
12.0
 20
9.0
  9
$UNITMODE
 70
         0
  9
$VISRETAIN
 70
         0
  9
$PLINEGEN
 70
         1
  9
$PSLTSCALE
 70
         0
  9
$TREEDEPTH
 70
      3020
  9
$PICKSTYLE
 70
         1
  9
$CMLSTYLE
  2
STANDARD
  9
$CMLJUST
 70
         0
  9
$CMLSCALE
 40
1.0
  9
$SAVEIMAGES
 70
         0
  0
ENDSEC
  0
SECTION
  2
CLASSES
  0
CLASS
  1
LWPOLYLINE
  2
AcDbPolyline
  3
"AutoCAD"
 90
        0
280
         0
281
         1
  0
CLASS
  1
IMAGE
  2
AcDbRasterImage
  3
ISM
 90
      127
280
         0
281
         1
  0
CLASS
  1
OLE2FRAME
  2
AcDbOle2Frame
  3
""
 90
        0
280
         0
281
         1
  0
CLASS
  1
HATCH
  2
AcDbHatch
  3
"ACAD_SEDONA"
 90
        0
280
         0
281
         1
  0
CLASS
  1
DICTIONARYVAR
  2
AcDbDictionaryVar
  3
"AutoCAD"
 90
        0
280
         0
281
         0
  0
CLASS
  1
RASTERVARIABLES
  2
AcDbRasterVariables
  3
ISM
 90
        0
280
         0
281
         0
  0
CLASS
  1
IMAGEDEF
  2
AcDbRasterImageDef
  3
ISM
 90
        0
280
         0
281
         0
  0
CLASS
  1
IMAGEDEF_REACTOR
  2
AcDbRasterImageDefReactor
  3
ISM
 90
        1
280
         0
281
         0
  0
CLASS
  1
IDBUFFER
  2
AcDbIdBuffer
  3
"Acad"
 90
        0
280
         0
281
         0
  0
CLASS
  1
SPATIAL_FILTER
  2
AcDbSpatialFilter
  3
"Acad"
 90
        0
280
         0
281
         0
  0
CLASS
  1
XRECORD
  2
AcDbXrecord
  3
"<Built In>"
 90
        0
280
         0
281
         0
  0
CLASS
  1
SORTENTSTABLE
  2
AcDbSortentsTable
  3
"AutoCAD"
 90
        0
280
         0
281
         0
  0
CLASS
  1
LAYER_INDEX
  2
AcDbLayerIndex
  3
"Acad"
 90
        0
280
         0
281
         0
  0
CLASS
  1
SPATIAL_INDEX
  2
AcDbSpatialIndex
  3
"Acad"
 90
        0
280
         0
281
         0
  0
CLASS
  1
OBJECT_PTR
  2
CAseDLPNTableRecord
  3
"ASE-LPNTableRecord"
 90
        1
280
         0
281
         0
  0
CLASS
  1
LAYOUT
  2
AcDbLayout
  3
"AutoCAD 2000"
 90
        1
280
         0
281
         0
  0
CLASS
  1
PLOTSETTINGS
  2
AcDbPlotSettings
  3
"AutoCAD 2000"
 90
        1
280
         0
281
         0
  0
CLASS
  1
ACDBDICTIONARYWDFLT
  2
AcDbDictionaryWithDefault
  3
"AutoCAD 2000"
 90
        1
280
         0
281
         0
  0
CLASS
  1
ACDBPLACEHOLDER
  2
AcDbPlaceHolder
  3
"AutoCAD 2000"
 90
        1
280
         0
281
         0
  0
CLASS
  1
VBA_PROJECT
  2
AcDbVbaProject
  3
"acadvba"
 90
        1
280
         0
281
         0
  0
CLASS
  1
WIPEOUT
  2
AcDbWipeout
  3
WipeOut|AutoCAD Express Tool|expresstools@autodesk.com
 90
      127
280
         0
281
         1
  0
CLASS
  1
WIPEOUTVARIABLES
  2
AcDbWipeoutVariables
  3
WipeOut|AutoCAD Express Tool|expresstools@autodesk.com
 90
        0
280
         0
281
         0
  0
CLASS
  1
RTEXT
  2
RText
  3
RText|AutoCAD Express Tool|expresstools@autodesk.com
 90
        0
280
         0
281
         1
  0
CLASS
  1
ARCALIGNEDTEXT
  2
AcDbArcAlignedText
  3
ATEXT|AutoCAD Express Tool|expresstools@autodesk.com
 90
        0
280
         0
281
         1
  0
ENDSEC
  0
SECTION
  2
TABLES
  0
TABLE
  2
VPORT
  5
7
100
AcDbSymbolTable
 70
         1
  0
VPORT
  5
15
100
AcDbSymbolTableRecord
100
AcDbViewportTableRecord
  2
*ACTIVE
 70
         0
 10
0.0
 20
0.0
 11
1.0
 21
1.0
 12
17.0
 22
11.0
 13
0.0
 23
0.0
 14
1.0
 24
1.0
 15
0.0
 25
0.0
 16
0.0
 26
0.0
 36
1.0
 17
0.0
 27
0.0
 37
0.0
 40
22.0
 41
1.604229
 42
50.0
 43
0.0
 44
0.0
 50
0.0
 51
0.0
 71
         0
 72
       100
 73
         1
 74
         1
 75
         0
 76
         0
 77
         0
 78
         0
  0
ENDTAB
  0
TABLE
  2
LTYPE
  5
4
100
AcDbSymbolTable
 70
         7
  0
LTYPE
  5
11
100
AcDbSymbolTableRecord
100
AcDbLinetypeTableRecord
  2
BYBLOCK
 70
        64
  3

 72
        65
 73
         0
 40
0.0
  0
LTYPE
  5
12
100
AcDbSymbolTableRecord
100
AcDbLinetypeTableRecord
  2
BYLAYER
 70
        64
  3

 72
        65
 73
         0
 40
0.0
  0
LTYPE
  5
13
100
AcDbSymbolTableRecord
100
AcDbLinetypeTableRecord
  2
CONTINUOUS
 70
         0
  3
Solid line
 72
        65
 73
         0
 40
0.0
  0
LTYPE
  5
21
100
AcDbSymbolTableRecord
100
AcDbLinetypeTableRecord
  2
HIDDEN2
 70
        64
  3
_ _ _ _ _ _ _ _ _ _ _ _ _ _ _ _ _ _ _ _ _ _ _ _
 72
        65
 73
         2
 40
0.1875
 49
0.125
 74
         0
 49
-0.0625
 74
         0
  0
LTYPE
  5
22
100
AcDbSymbolTableRecord
100
AcDbLinetypeTableRecord
  2
CENTER2
 70
        64
  3
___ _ ___ _ ___ _ ___ _ ___ _ ___ _ ___ _ ___ _
 72
        65
 73
         4
 40
1.125
 49
0.75
 74
         0
 49
-0.125
 74
         0
 49
0.125
 74
         0
 49
-0.125
 74
         0
  0
LTYPE
  5
23
100
AcDbSymbolTableRecord
100
AcDbLinetypeTableRecord
  2
PHANTOM2
 70
        64
  3
___ _ _ ___ _ _ ___ _ _ ___ _ _ ___ _ _ ___ _ _
 72
        65
 73
         6
 40
1.25
 49
0.625
 74
         0
 49
-0.125
 74
         0
 49
0.125
 74
         0
 49
-0.125
 74
         0
 49
0.125
 74
         0
 49
-0.125
 74
         0
  0
LTYPE
  5
24
100
AcDbSymbolTableRecord
100
AcDbLinetypeTableRecord
  2
DOT2
 70
        64
  3
...............................................
 72
        65
 73
         2
 40
0.125
 49
0.0
 74
         0
 49
-0.125
 74
         0
  0
ENDTAB
  0
TABLE
  2
LAYER
  5
2
100
AcDbSymbolTable
 70
         5
  0
LAYER
  5
14
100
AcDbSymbolTableRecord
100
AcDbLayerTableRecord
  2
0
 70
         0
 62
         7
  6
CONTINUOUS
  0
LAYER
  5
26
100
AcDbSymbolTableRecord
100
AcDbLayerTableRecord
  2
DEFAULT
 70
         0
 62
         7
  6
CONTINUOUS
  0
LAYER
  5
28
100
AcDbSymbolTableRecord
100
AcDbLayerTableRecord
  2
83798X
 70
         0
 62
         7
  6
CONTINUOUS
  0
LAYER
  5
2A
100
AcDbSymbolTableRecord
100
AcDbLayerTableRecord
  2
54456X
 70
         0
 62
         7
  6
CONTINUOUS
  0
LAYER
  5
2C
100
AcDbSymbolTableRecord
100
AcDbLayerTableRecord
  2
54457X
 70
         0
 62
         7
  6
CONTINUOUS
  0
ENDTAB
  0
TABLE
  2
STYLE
  5
3
100
AcDbSymbolTable
 70
         2
  0
STYLE
  5
17
100
AcDbSymbolTableRecord
100
AcDbTextStyleTableRecord
  2
STANDARD
 70
         0
 40
0.0
 41
1.0
 50
0.0
 71
         0
 42
0.2
  3
txt
  4

  0
STYLE
  5
2D
100
AcDbSymbolTableRecord
100
AcDbTextStyleTableRecord
  2
ARIAL_TTF
 70
         0
 40
0.0
 41
1.0
 50
0.0
 71
         0
 42
0.2
  3
arial.ttf
  4

1001
ACAD
1000
Arial
1071
        2
  0
ENDTAB
  0
TABLE
  2
VIEW
  5
5
100
AcDbSymbolTable
 70
         0
  0
ENDTAB
  0
TABLE
  2
UCS
  5
6
100
AcDbSymbolTable
 70
         0
  0
ENDTAB
  0
TABLE
  2
APPID
  5
8
100
AcDbSymbolTable
 70
         1
  0
APPID
  5
16
100
AcDbSymbolTableRecord
100
AcDbRegAppTableRecord
  2
ACAD
 70
         0
  0
ENDTAB
  0
TABLE
  2
DIMSTYLE
  5
9
100
AcDbSymbolTable
 70
         1
  0
DIMSTYLE
105
18
100
AcDbSymbolTableRecord
100
AcDbDimStyleTableRecord
  2
STANDARD
 70
         0
  3

  4

  5

  6

  7

 40
1.0
 41
0.18
 42
0.0625
 43
0.38
 44
0.18
 45
0.0
 46
0.0
 47
0.0
 48
0.0
 71
         0
 72
         0
 73
         1
 74
         1
 75
         0
 76
         0
 77
         0
 78
         0
140
0.18
141
0.09
142
0.0
143
25.4
144
1.0
145
0.0
146
1.0
147
0.09
170
         0
171
         2
172
         0
173
         0
174
         0
175
         0
176
         0
177
         0
178
         0
270
         2
271
         4
272
         4
273
         2
274
         2
275
         0
280
         0
281
         0
282
         0
283
         1
284
         0
285
         0
286
         0
287
         0
288
         0
340
17
  0
ENDTAB
  0
TABLE
  2
BLOCK_RECORD
  5
1
100
AcDbSymbolTable
 70
         0
  0
BLOCK_RECORD
  5
A
100
AcDbSymbolTableRecord
100
AcDbBlockTableRecord
  2
*MODEL_SPACE
  0
BLOCK_RECORD
  5
B
100
AcDbSymbolTableRecord
100
AcDbBlockTableRecord
  2
*PAPER_SPACE
  0
ENDTAB
  0
ENDSEC
  0
SECTION
  2
BLOCKS
  0
BLOCK
  5
D
100
AcDbEntity
  8
0
100
AcDbBlockBegin
  2
*MODEL_SPACE
 70
         0
 10
0.0
 20
0.0
 30
0.0
  3
*MODEL_SPACE
  1

  0
ENDBLK
  5
E
100
AcDbEntity
  8
0
100
AcDbBlockEnd
  0
BLOCK
  5
F
100
AcDbEntity
 67
         1
  8
0
100
AcDbBlockBegin
  2
*PAPER_SPACE
 70
         0
 10
0.0
 20
0.0
 30
0.0
  3
*PAPER_SPACE
  1

  0
ENDBLK
  5
10
100
AcDbEntity
 67
         1
  8
0
100
AcDbBlockEnd
  0
ENDSEC
  0
SECTION
  2
ENTITIES
  0
CIRCLE
  5
2E
100
AcDbEntity
  8
83798X
  6
CONTINUOUS
 62
         7
100
AcDbCircle
 10
17.8675421493
 20
13.7553513898
 30
0.0
 40
0.1715
  0
CIRCLE
  5
2F
100
AcDbEntity
  8
83798X
  6
CONTINUOUS
 62
         7
100
AcDbCircle
 10
17.8675421493
 20
13.7553513898
 30
0.0
 40
0.1065
  0
CIRCLE
  5
30
100
AcDbEntity
  8
83798X
  6
CONTINUOUS
 62
         7
100
AcDbCircle
 10
15.1775421493
 20
13.7553513898
 30
0.0
 40
0.1715
  0
CIRCLE
  5
31
100
AcDbEntity
  8
83798X
  6
CONTINUOUS
 62
         7
100
AcDbCircle
 10
15.1775421493
 20
13.7553513898
 30
0.0
 40
0.1065
  0
CIRCLE
  5
32
100
AcDbEntity
  8
83798X
  6
CONTINUOUS
 62
         7
100
AcDbCircle
 10
15.1775421493
 20
17.4073513898
 30
0.0
 40
0.1065
  0
CIRCLE
  5
33
100
AcDbEntity
  8
83798X
  6
CONTINUOUS
 62
         7
100
AcDbCircle
 10
17.8675421493
 20
17.4073513898
 30
0.0
 40
0.1715
  0
CIRCLE
  5
34
100
AcDbEntity
  8
83798X
  6
CONTINUOUS
 62
         7
100
AcDbCircle
 10
17.8675421493
 20
17.4073513898
 30
0.0
 40
0.1065
  0
LINE
  5
35
100
AcDbEntity
  8
83798X
  6
CONTINUOUS
 62
         7
100
AcDbLine
 10
14.9470421493
 20
17.5849678793
 30
0.0
 11
14.9470421493
 21
13.5777349002
 31
0.0
  0
ELLIPSE
  5
36
100
AcDbEntity
  8
83798X
  6
CONTINUOUS
 62
         7
100
AcDbEllipse
 10
15.0321587987
 20
17.5847347404
 30
0.0
 11
0.0602689306916897
 21
-0.0602689306922697
 31
0.0
210
0.0
220
0.0
230
1.0
 40
0.9972646886
 41
2.3575640180675808
 42
3.9256212891216702
  0
ELLIPSE
  5
37
100
AcDbEntity
  8
83798X
  6
CONTINUOUS
 62
         7
100
AcDbEllipse
 10
15.0321587987
 20
13.5779680392
 30
0.0
 11
0.0602689306916897
 21
0.0602689306922697
 31
0.0
210
0.0
220
0.0
230
1.0
 40
0.9972646886
 41
2.3575640180579369
 42
3.9256212891120055
  0
ELLIPSE
  5
38
100
AcDbEntity
  8
83798X
  6
CONTINUOUS
 62
         7
100
AcDbEllipse
 10
18.0129254999
 20
13.5779680392
 30
0.0
 11
-0.0602689306916897
 21
0.0602689306922697
 31
0.0
210
0.0
220
0.0
230
1.0
 40
0.9972646886
 41
2.357564018067539
 42
3.9256212891216493
  0
ELLIPSE
  5
39
100
AcDbEntity
  8
83798X
  6
CONTINUOUS
 62
         7
100
AcDbEllipse
 10
18.0129254999
 20
17.5847347404
 30
0.0
 11
-0.0602689306916897
 21
-0.0602689306922697
 31
0.0
210
0.0
220
0.0
230
1.0
 40
0.9972646886
 41
2.357564018057916
 42
3.9256212891120472
  0
LINE
  5
3A
100
AcDbEntity
  8
83798X
  6
CONTINUOUS
 62
         7
100
AcDbLine
 10
18.0131586388
 20
17.6698513898
 30
0.0
 11
15.0319256597
 21
17.6698513898
 31
0.0
  0
LINE
  5
3B
100
AcDbEntity
  8
83798X
  6
CONTINUOUS
 62
         7
100
AcDbLine
 10
18.0980421493
 20
13.5777349002
 30
0.0
 11
18.0980421493
 21
17.5849678793
 31
0.0
  0
LINE
  5
3C
100
AcDbEntity
  8
83798X
  6
CONTINUOUS
 62
         7
100
AcDbLine
 10
15.0319256597
 20
13.4928513898
 30
0.0
 11
18.0131586388
 21
13.4928513898
 31
0.0
  0
CIRCLE
  5
3D
100
AcDbEntity
  8
83798X
  6
CONTINUOUS
 62
         7
100
AcDbCircle
 10
16.5225421493
 20
15.5813513898
 30
0.0
 40
1.2855
  0
CIRCLE
  5
3E
100
AcDbEntity
  8
83798X
  6
CONTINUOUS
 62
         7
100
AcDbCircle
 10
15.1775421493
 20
17.4073513898
 30
0.0
 40
0.1715
  0
ARC
  5
3F
100
AcDbEntity
  8
54456X
  6
CONTINUOUS
 62
         7
100
AcDbCircle
 10
16.5225421493
 20
15.5813513898
 30
0.0
 40
1.1381051178
100
AcDbArc
 50
177.6394978523
 51
182.3605021477
  0
ARC
  5
40
100
AcDbEntity
  8
54456X
  6
CONTINUOUS
 62
         7
100
AcDbCircle
 10
16.5225421493
 20
15.5813513898
 30
0.0
 40
1.1155884573
100
AcDbArc
 50
182.4081735222
 51
357.5918264778
  0
LINE
  5
41
100
AcDbEntity
  8
54456X
  6
CONTINUOUS
 62
         7
100
AcDbLine
 10
15.2289796358
 20
15.6282263898
 30
0.0
 11
15.4079389282
 21
15.6282263898
 31
0.0
  0
LINE
  5
42
100
AcDbEntity
  8
54456X
  6
CONTINUOUS
 62
         7
100
AcDbLine
 10
15.2289796358
 20
15.5344763898
 30
0.0
 11
15.4079389282
 21
15.5344763898
 31
0.0
  0
ARC
  5
43
100
AcDbEntity
  8
54456X
  6
CONTINUOUS
 62
         7
100
AcDbCircle
 10
16.5225421493
 20
15.5813513898
 30
0.0
 40
1.2944115427
100
AcDbArc
 50
2.0753268488
 51
177.9246731512
  0
ARC
  5
44
100
AcDbEntity
  8
54456X
  6
CONTINUOUS
 62
         7
100
AcDbCircle
 10
16.5225421493
 20
15.5813513898
 30
0.0
 40
1.2944115427
100
AcDbArc
 50
182.0753268488
 51
357.9246731512
  0
LINE
  5
45
100
AcDbEntity
  8
54456X
  6
CONTINUOUS
 62
         7
100
AcDbLine
 10
17.8161046628
 20
15.6282263898
 30
0.0
 11
17.6371453703
 21
15.6282263898
 31
0.0
  0
ARC
  5
46
100
AcDbEntity
  8
54456X
  6
CONTINUOUS
 62
         7
100
AcDbCircle
 10
16.5225421493
 20
15.5813513898
 30
0.0
 40
1.1381051178
100
AcDbArc
 50
357.6394978523
 51
2.3605021477
  0
ARC
  5
47
100
AcDbEntity
  8
54456X
  6
CONTINUOUS
 62
         7
100
AcDbCircle
 10
16.5225421493
 20
15.5813513898
 30
0.0
 40
1.2718948822
100
AcDbArc
 50
357.887916636
 51
2.112083364
  0
LINE
  5
48
100
AcDbEntity
  8
54456X
  6
CONTINUOUS
 62
         7
100
AcDbLine
 10
17.8161046628
 20
15.5344763898
 30
0.0
 11
17.6371453703
 21
15.5344763898
 31
0.0
  0
ARC
  5
49
100
AcDbEntity
  8
54456X
  6
CONTINUOUS
 62
         7
100
AcDbCircle
 10
16.5225421493
 20
15.5813513898
 30
0.0
 40
1.1155884573
100
AcDbArc
 50
2.4081735222
 51
177.5918264778
  0
ARC
  5
4A
100
AcDbEntity
  8
54456X
  6
CONTINUOUS
 62
         7
100
AcDbCircle
 10
16.5225421493
 20
15.5813513898
 30
0.0
 40
1.2718948822
100
AcDbArc
 50
177.887916636
 51
182.112083364
  0
LINE
  5
4B
100
AcDbEntity
  8
54457X
  6
CONTINUOUS
 62
         7
100
AcDbLine
 10
16.4756671493
 20
15.0813513898
 30
0.0
 11
16.4756671493
 21
16.0813513898
 31
0.0
  0
LINE
  5
4C
100
AcDbEntity
  8
54457X
  6
CONTINUOUS
 62
         7
100
AcDbLine
 10
16.4756671493
 20
16.0813513898
 30
0.0
 11
16.5694171493
 21
16.0813513898
 31
0.0
  0
LINE
  5
4D
100
AcDbEntity
  8
54457X
  6
CONTINUOUS
 62
         7
100
AcDbLine
 10
16.5694171493
 20
15.0813513898
 30
0.0
 11
16.5694171493
 21
16.0813513898
 31
0.0
  0
ARC
  5
4E
100
AcDbEntity
  8
54457X
  6
CONTINUOUS
 62
         7
100
AcDbCircle
 10
16.5225421493
 20
15.5813513898
 30
0.0
 40
1.1333012702
100
AcDbArc
 50
0.0
 51
2.3712614382
  0
ARC
  5
4F
100
AcDbEntity
  8
54457X
  6
CONTINUOUS
 62
         7
100
AcDbCircle
 10
16.5225421493
 20
15.5813513898
 30
0.0
 40
1.1333012702
100
AcDbArc
 50
177.6286280708
 51
182.3711130975
  0
ARC
  5
50
100
AcDbEntity
  8
54457X
  6
CONTINUOUS
 62
         7
100
AcDbCircle
 10
16.5225421493
 20
15.5813513898
 30
0.0
 40
1.1333012702
100
AcDbArc
 50
357.6294658762
 51
360.0
  0
CIRCLE
  5
51
100
AcDbEntity
  8
54457X
  6
CONTINUOUS
 62
         7
100
AcDbCircle
 10
16.5225421493
 20
15.5813513898
 30
0.0
 40
1.1055057606
  0
LINE
  5
52
100
AcDbEntity
  8
54457X
  6
CONTINUOUS
 62
         7
100
AcDbLine
 10
16.4756671493
 20
15.0813513898
 30
0.0
 11
16.5694171493
 21
15.0813513898
 31
0.0
  0
POLYLINE
  5
53
100
AcDbEntity
  8
0
  6
CONTINUOUS
 62
       136
100
AcDb2dPolyline
 66
         1
 10
0.0
 20
0.0
 30
0.0
  0
VERTEX
  5
54
100
AcDbEntity
  8
0
  6
CONTINUOUS
 62
       136
100
AcDbVertex
100
AcDb2dVertex
 10
15.0720421478
 20
18.1943561967
 30
0.0
  0
VERTEX
  5
55
100
AcDbEntity
  8
0
  6
CONTINUOUS
 62
       136
100
AcDbVertex
100
AcDb2dVertex
 10
14.9470421493
 20
18.1735228636
 30
0.0
  0
VERTEX
  5
56
100
AcDbEntity
  8
0
  6
CONTINUOUS
 62
       136
100
AcDbVertex
100
AcDb2dVertex
 10
15.0720421478
 20
18.1526895305
 30
0.0
  0
VERTEX
  5
57
100
AcDbEntity
  8
0
  6
CONTINUOUS
 62
       136
100
AcDbVertex
100
AcDb2dVertex
 10
15.0720421478
 20
18.1943561967
 30
0.0
  0
SEQEND
  5
58
100
AcDbEntity
  8
0
  6
CONTINUOUS
 62
       136
  0
POLYLINE
  5
59
100
AcDbEntity
  8
0
  6
CONTINUOUS
 62
       136
100
AcDb2dPolyline
 66
         1
 10
0.0
 20
0.0
 30
0.0
  0
VERTEX
  5
5A
100
AcDbEntity
  8
0
  6
CONTINUOUS
 62
       136
100
AcDbVertex
100
AcDb2dVertex
 10
17.9730421508
 20
18.1943561967
 30
0.0
  0
VERTEX
  5
5B
100
AcDbEntity
  8
0
  6
CONTINUOUS
 62
       136
100
AcDbVertex
100
AcDb2dVertex
 10
18.0980421493
 20
18.1735228636
 30
0.0
  0
VERTEX
  5
5C
100
AcDbEntity
  8
0
  6
CONTINUOUS
 62
       136
100
AcDbVertex
100
AcDb2dVertex
 10
17.9730421508
 20
18.1526895305
 30
0.0
  0
VERTEX
  5
5D
100
AcDbEntity
  8
0
  6
CONTINUOUS
 62
       136
100
AcDbVertex
100
AcDb2dVertex
 10
17.9730421508
 20
18.1943561967
 30
0.0
  0
SEQEND
  5
5E
100
AcDbEntity
  8
0
  6
CONTINUOUS
 62
       136
  0
LINE
  5
5F
100
AcDbEntity
  8
0
  6
CONTINUOUS
 62
       136
100
AcDbLine
 10
14.9470421493
 20
17.6474678786
 30
0.0
 11
14.9470421493
 21
18.2360228629
 31
0.0
  0
LINE
  5
60
100
AcDbEntity
  8
0
  6
CONTINUOUS
 62
       136
100
AcDbLine
 10
18.0980421493
 20
17.6474678786
 30
0.0
 11
18.0980421493
 21
18.2360228629
 31
0.0
  0
LINE
  5
61
100
AcDbEntity
  8
0
  6
CONTINUOUS
 62
       136
100
AcDbLine
 10
14.9470421493
 20
18.1735228636
 30
0.0
 11
16.2831401012
 21
18.1735228636
 31
0.0
  0
LINE
  5
62
100
AcDbEntity
  8
0
  6
CONTINUOUS
 62
       136
100
AcDbLine
 10
16.761944344
 20
18.1735228636
 30
0.0
 11
18.0980421493
 21
18.1735228636
 31
0.0
  0
TEXT
  5
63
100
AcDbEntity
  8
0
  6
CONTINUOUS
 62
       136
100
AcDbText
 10
16.3268900417
 20
18.1110228636
 30
0.0
 40
0.125
  1
3 1/8
  7
ARIAL_TTF
 11
16.3268900417
 21
18.2360228636
 31
0.0
100
AcDbText
 73
         3
  0
POLYLINE
  5
64
100
AcDbEntity
  8
0
  6
CONTINUOUS
 62
       136
100
AcDb2dPolyline
 66
         1
 10
0.0
 20
0.0
 30
0.0
  0
VERTEX
  5
65
100
AcDbEntity
  8
0
  6
CONTINUOUS
 62
       136
100
AcDbVertex
100
AcDb2dVertex
 10
18.908397904
 20
17.5448513913
 30
0.0
  0
VERTEX
  5
66
100
AcDbEntity
  8
0
  6
CONTINUOUS
 62
       136
100
AcDbVertex
100
AcDb2dVertex
 10
18.8875645709
 20
17.6698513898
 30
0.0
  0
VERTEX
  5
67
100
AcDbEntity
  8
0
  6
CONTINUOUS
 62
       136
100
AcDbVertex
100
AcDb2dVertex
 10
18.8667312378
 20
17.5448513913
 30
0.0
  0
VERTEX
  5
68
100
AcDbEntity
  8
0
  6
CONTINUOUS
 62
       136
100
AcDbVertex
100
AcDb2dVertex
 10
18.908397904
 20
17.5448513913
 30
0.0
  0
SEQEND
  5
69
100
AcDbEntity
  8
0
  6
CONTINUOUS
 62
       136
  0
POLYLINE
  5
6A
100
AcDbEntity
  8
0
  6
CONTINUOUS
 62
       136
100
AcDb2dPolyline
 66
         1
 10
0.0
 20
0.0
 30
0.0
  0
VERTEX
  5
6B
100
AcDbEntity
  8
0
  6
CONTINUOUS
 62
       136
100
AcDbVertex
100
AcDb2dVertex
 10
18.908397904
 20
13.6178513883
 30
0.0
  0
VERTEX
  5
6C
100
AcDbEntity
  8
0
  6
CONTINUOUS
 62
       136
100
AcDbVertex
100
AcDb2dVertex
 10
18.8875645709
 20
13.4928513898
 30
0.0
  0
VERTEX
  5
6D
100
AcDbEntity
  8
0
  6
CONTINUOUS
 62
       136
100
AcDbVertex
100
AcDb2dVertex
 10
18.8667312378
 20
13.6178513883
 30
0.0
  0
VERTEX
  5
6E
100
AcDbEntity
  8
0
  6
CONTINUOUS
 62
       136
100
AcDbVertex
100
AcDb2dVertex
 10
18.908397904
 20
13.6178513883
 30
0.0
  0
SEQEND
  5
6F
100
AcDbEntity
  8
0
  6
CONTINUOUS
 62
       136
  0
LINE
  5
70
100
AcDbEntity
  8
0
  6
CONTINUOUS
 62
       136
100
AcDbLine
 10
18.0756586381
 20
17.6698513898
 30
0.0
 11
18.9500645702
 21
17.6698513898
 31
0.0
  0
LINE
  5
71
100
AcDbEntity
  8
0
  6
CONTINUOUS
 62
       136
100
AcDbLine
 10
18.0756586381
 20
13.4928513898
 30
0.0
 11
18.9500645702
 21
13.4928513898
 31
0.0
  0
LINE
  5
72
100
AcDbEntity
  8
0
  6
CONTINUOUS
 62
       136
100
AcDbLine
 10
18.8875645709
 20
17.6698513898
 30
0.0
 11
18.8875645709
 21
15.6876013956
 31
0.0
  0
LINE
  5
73
100
AcDbEntity
  8
0
  6
CONTINUOUS
 62
       136
100
AcDbLine
 10
18.8875645709
 20
15.475101384
 30
0.0
 11
18.8875645709
 21
13.4928513898
 31
0.0
  0
TEXT
  5
74
100
AcDbEntity
  8
0
  6
CONTINUOUS
 62
       136
100
AcDbText
 10
18.6429993535
 20
15.518851423
 30
0.0
 40
0.125
  1
4 3/16
  7
ARIAL_TTF
 11
18.6429993535
 21
15.643851423
 31
0.0
100
AcDbText
 73
         3
  0
LINE
  5
75
100
AcDbEntity
  8
0
  6
CONTINUOUS
 62
       136
100
AcDbLine
 10
15.5193223923
 20
16.3993069883
 30
0.0
 11
14.6513180818
 21
17.1070173184
 31
0.0
  0
POLYLINE
  5
76
100
AcDbEntity
  8
0
  6
CONTINUOUS
 62
       136
100
AcDb2dPolyline
 66
         1
 10
0.0
 20
0.0
 30
0.0
  0
VERTEX
  5
77
100
AcDbEntity
  8
0
  6
CONTINUOUS
 62
       136
100
AcDbVertex
100
AcDb2dVertex
 10
15.4092776308
 20
16.4621494727
 30
0.0
  0
VERTEX
  5
78
100
AcDbEntity
  8
0
  6
CONTINUOUS
 62
       136
100
AcDbVertex
100
AcDb2dVertex
 10
15.5193223923
 20
16.3993069883
 30
0.0
  0
VERTEX
  5
79
100
AcDbEntity
  8
0
  6
CONTINUOUS
 62
       136
100
AcDbVertex
100
AcDb2dVertex
 10
15.4356073425
 20
16.4944427746
 30
0.0
  0
VERTEX
  5
7A
100
AcDbEntity
  8
0
  6
CONTINUOUS
 62
       136
100
AcDbVertex
100
AcDb2dVertex
 10
15.4092776308
 20
16.4621494727
 30
0.0
  0
SEQEND
  5
7B
100
AcDbEntity
  8
0
  6
CONTINUOUS
 62
       136
  0
LINE
  5
7C
100
AcDbEntity
  8
0
  6
CONTINUOUS
 62
       136
100
AcDbLine
 10
14.6513181044
 20
17.1070172999
 30
0.0
 11
14.2763180998
 21
17.1070172999
 31
0.0
  0
TEXT
  5
7D
100
AcDbEntity
  8
0
  6
CONTINUOUS
 62
       136
100
AcDbText
 10
13.543437665
 20
17.0445172999
 30
0.0
 40
0.125
  1
R
  7
ARIAL_TTF
 11
13.543437665
 21
17.1695172999
 31
0.0
100
AcDbText
 73
         3
  0
TEXT
  5
7E
100
AcDbEntity
  8
0
  6
CONTINUOUS
 62
       136
100
AcDbText
 10
13.743437665
 20
17.0445172999
 30
0.0
 40
0.125
  1
1 5/16
  7
ARIAL_TTF
 11
13.743437665
 21
17.1695172999
 31
0.0
100
AcDbText
 73
         3
  0
LINE
  5
7F
100
AcDbEntity
  8
0
  6
CONTINUOUS
 62
       136
100
AcDbLine
 10
15.4972109767
 20
16.0209348204
 30
0.0
 11
14.4951998636
 21
16.4505203966
 31
0.0
  0
POLYLINE
  5
80
100
AcDbEntity
  8
0
  6
CONTINUOUS
 62
       136
100
AcDb2dPolyline
 66
         1
 10
0.0
 20
0.0
 30
0.0
  0
VERTEX
  5
81
100
AcDbEntity
  8
0
  6
CONTINUOUS
 62
       136
100
AcDbVertex
100
AcDb2dVertex
 10
15.3741150606
 20
16.0510416776
 30
0.0
  0
VERTEX
  5
82
100
AcDbEntity
  8
0
  6
CONTINUOUS
 62
       136
100
AcDbVertex
100
AcDb2dVertex
 10
15.4972109767
 20
16.0209348204
 30
0.0
  0
VERTEX
  5
83
100
AcDbEntity
  8
0
  6
CONTINUOUS
 62
       136
100
AcDbVertex
100
AcDb2dVertex
 10
15.39053328
 20
16.0893372797
 30
0.0
  0
VERTEX
  5
84
100
AcDbEntity
  8
0
  6
CONTINUOUS
 62
       136
100
AcDbVertex
100
AcDb2dVertex
 10
15.3741150606
 20
16.0510416776
 30
0.0
  0
SEQEND
  5
85
100
AcDbEntity
  8
0
  6
CONTINUOUS
 62
       136
  0
LINE
  5
86
100
AcDbEntity
  8
0
  6
CONTINUOUS
 62
       136
100
AcDbLine
 10
14.4951998373
 20
16.4505204079
 30
0.0
 11
14.1201998326
 21
16.4505204079
 31
0.0
  0
TEXT
  5
87
100
AcDbEntity
  8
0
  6
CONTINUOUS
 62
       136
100
AcDbText
 10
13.4851454848
 20
16.3880204079
 30
0.0
 40
0.125
  1
R
  7
ARIAL_TTF
 11
13.4851454848
 21
16.5130204079
 31
0.0
100
AcDbText
 73
         3
  0
TEXT
  5
88
100
AcDbEntity
  8
0
  6
CONTINUOUS
 62
       136
100
AcDbText
 10
13.6851454848
 20
16.3880204079
 30
0.0
 40
0.125
  1
1 1/8
  7
ARIAL_TTF
 11
13.6851454848
 21
16.5130204079
 31
0.0
100
AcDbText
 73
         3
  0
LINE
  5
89
100
AcDbEntity
  8
83798X
  6
CONTINUOUS
 62
         7
100
AcDbLine
 10
17.4895421493
 20
12.0674034417
 30
0.0
 11
15.6532518281
 21
12.0674034417
 31
0.0
  0
LINE
  5
8A
100
AcDbEntity
  8
83798X
  6
CONTINUOUS
 62
         7
100
AcDbLine
 10
15.2770069982
 20
12.0674034417
 30
0.0
 11
15.0179412936
 21
12.0674034417
 31
0.0
  0
LINE
  5
8B
100
AcDbEntity
  8
83798X
  6
CONTINUOUS
 62
         7
100
AcDbLine
 10
15.6165367209
 20
12.0674034417
 30
0.0
 11
15.2770069982
 21
12.0674034417
 31
0.0
  0
LINE
  5
8C
100
AcDbEntity
  8
83798X
  6
CONTINUOUS
 62
         7
100
AcDbLine
 10
18.0267276701
 20
12.0674034417
 30
0.0
 11
17.8650421493
 21
12.0674034417
 31
0.0
  0
LINE
  5
8D
100
AcDbEntity
  8
83798X
  6
CONTINUOUS
 62
         7
100
AcDbLine
 10
17.8650421493
 20
12.0674034417
 30
0.0
 11
17.5215421493
 21
12.0674034417
 31
0.0
  0
LINE
  5
8E
100
AcDbEntity
  8
83798X
  6
CONTINUOUS
 62
         7
100
AcDbLine
 10
15.62125184
 20
12.0674034417
 30
0.0
 11
15.6165367209
 21
12.0674034417
 31
0.0
  0
LINE
  5
8F
100
AcDbEntity
  8
83798X
  6
CONTINUOUS
 62
         7
100
AcDbLine
 10
17.5215421493
 20
12.0674034417
 30
0.0
 11
17.4895421493
 21
12.0674034417
 31
0.0
  0
LINE
  5
90
100
AcDbEntity
  8
83798X
  6
CONTINUOUS
 62
         7
100
AcDbLine
 10
15.6532518281
 20
12.0674034417
 30
0.0
 11
15.62125184
 21
12.0674034417
 31
0.0
  0
LINE
  5
91
100
AcDbEntity
  8
83798X
  6
CONTINUOUS
 62
         7
100
AcDbLine
 10
15.0179412936
 20
12.0674034417
 30
0.0
 11
14.9863127133
 21
12.0674034417
 31
0.0
  0
LINE
  5
92
100
AcDbEntity
  8
83798X
  6
CONTINUOUS
 62
         7
100
AcDbLine
 10
18.0587715852
 20
12.0674034417
 30
0.0
 11
18.0267276701
 21
12.0674034417
 31
0.0
  0
LINE
  5
93
100
AcDbEntity
  8
83798X
  6
CONTINUOUS
 62
         7
100
AcDbLine
 10
14.9553551978
 20
12.0967810271
 30
0.0
 11
14.9520535077
 21
12.1597810271
 31
0.0
  0
LINE
  5
94
100
AcDbEntity
  8
83798X
  6
CONTINUOUS
 62
         7
100
AcDbLine
 10
18.0131586388
 20
12.2554034417
 30
0.0
 11
18.0980421493
 21
12.2554034417
 31
0.0
  0
LINE
  5
95
100
AcDbEntity
  8
83798X
  6
CONTINUOUS
 62
         7
100
AcDbLine
 10
18.0980421493
 20
12.2554034417
 30
0.0
 11
18.0930307909
 21
12.1597810271
 31
0.0
  0
LINE
  5
96
100
AcDbEntity
  8
83798X
  6
CONTINUOUS
 62
         7
100
AcDbLine
 10
14.9520535077
 20
12.1597810271
 30
0.0
 11
14.9470421493
 21
12.2554034417
 31
0.0
  0
LINE
  5
97
100
AcDbEntity
  8
83798X
  6
CONTINUOUS
 62
         7
100
AcDbLine
 10
14.9470421493
 20
12.2554034417
 30
0.0
 11
15.0319256597
 21
12.2554034417
 31
0.0
  0
LINE
  5
98
100
AcDbEntity
  8
83798X
  6
CONTINUOUS
 62
         7
100
AcDbLine
 10
15.0319256597
 20
12.2554034417
 30
0.0
 11
18.0131586388
 21
12.2554034417
 31
0.0
  0
LINE
  5
99
100
AcDbEntity
  8
83798X
  6
CONTINUOUS
 62
         7
100
AcDbLine
 10
18.0930307909
 20
12.1597810271
 30
0.0
 11
18.0897291008
 21
12.0967810271
 31
0.0
  0
LINE
  5
9A
100
AcDbEntity
  8
83798X
  6
CONTINUOUS
 62
         7
100
AcDbLine
 10
17.5525421493
 20
12.0994034417
 30
0.0
 11
17.5525421493
 21
12.0984034417
 31
0.0
  0
ARC
  5
9B
100
AcDbEntity
  8
83798X
  6
CONTINUOUS
 62
         7
100
AcDbCircle
 10
17.5215421493
 20
12.0984034417
 30
0.0
 40
0.031
100
AcDbArc
 50
270.0
 51
360.0
  0
ARC
  5
9C
100
AcDbEntity
  8
83798X
  6
CONTINUOUS
 62
         7
100
AcDbCircle
 10
17.5835421493
 20
12.0994034417
 30
0.0
 40
0.031
100
AcDbArc
 50
90.0
 51
180.0
  0
ARC
  5
9D
100
AcDbEntity
  8
83798X
  6
CONTINUOUS
 62
         7
100
AcDbCircle
 10
18.0620732753
 20
12.1614034417
 30
0.0
 40
0.031
100
AcDbArc
 50
270.0
 51
357.0
  0
ARC
  5
9E
100
AcDbEntity
  8
83798X
  6
CONTINUOUS
 62
         7
100
AcDbCircle
 10
14.9830110232
 20
12.1614034417
 30
0.0
 40
0.031
100
AcDbArc
 50
183.0
 51
270.0
  0
ARC
  5
9F
100
AcDbEntity
  8
83798X
  6
CONTINUOUS
 62
         7
100
AcDbCircle
 10
18.0587715852
 20
12.0984034417
 30
0.0
 40
0.031
100
AcDbArc
 50
270.0
 51
357.0
  0
ARC
  5
A0
100
AcDbEntity
  8
83798X
  6
CONTINUOUS
 62
         7
100
AcDbCircle
 10
14.9863127133
 20
12.0984034417
 30
0.0
 40
0.031
100
AcDbArc
 50
183.0
 51
270.0
  0
LINE
  5
A1
100
AcDbEntity
  8
83798X
  6
CONTINUOUS
 62
         7
100
AcDbLine
 10
15.0369370181
 20
12.1304034417
 30
0.0
 11
14.9830110232
 21
12.1304034417
 31
0.0
  0
LINE
  5
A2
100
AcDbEntity
  8
83798X
  6
CONTINUOUS
 62
         7
100
AcDbLine
 10
15.5661097451
 20
12.1304034417
 30
0.0
 11
15.0369370181
 21
12.1304034417
 31
0.0
  0
LINE
  5
A3
100
AcDbEntity
  8
83798X
  6
CONTINUOUS
 62
         7
100
AcDbLine
 10
18.0620732753
 20
12.1304034417
 30
0.0
 11
18.0081472804
 21
12.1304034417
 31
0.0
  0
LINE
  5
A4
100
AcDbEntity
  8
83798X
  6
CONTINUOUS
 62
         7
100
AcDbLine
 10
18.0081472804
 20
12.1304034417
 30
0.0
 11
17.576684573
 21
12.1304034417
 31
0.0
  0
POLYLINE
  5
A5
100
AcDbEntity
  8
0
  6
CONTINUOUS
 62
       136
100
AcDb2dPolyline
 66
         1
 10
0.0
 20
0.0
 30
0.0
  0
VERTEX
  5
A6
100
AcDbEntity
  8
0
  6
CONTINUOUS
 62
       136
100
AcDbVertex
100
AcDb2dVertex
 10
15.074547827
 20
12.7513245469
 30
0.0
  0
VERTEX
  5
A7
100
AcDbEntity
  8
0
  6
CONTINUOUS
 62
       136
100
AcDbVertex
100
AcDb2dVertex
 10
14.9495478285
 20
12.7304912138
 30
0.0
  0
VERTEX
  5
A8
100
AcDbEntity
  8
0
  6
CONTINUOUS
 62
       136
100
AcDbVertex
100
AcDb2dVertex
 10
15.074547827
 20
12.7096578808
 30
0.0
  0
VERTEX
  5
A9
100
AcDbEntity
  8
0
  6
CONTINUOUS
 62
       136
100
AcDbVertex
100
AcDb2dVertex
 10
15.074547827
 20
12.7513245469
 30
0.0
  0
SEQEND
  5
AA
100
AcDbEntity
  8
0
  6
CONTINUOUS
 62
       136
  0
POLYLINE
  5
AB
100
AcDbEntity
  8
0
  6
CONTINUOUS
 62
       136
100
AcDb2dPolyline
 66
         1
 10
0.0
 20
0.0
 30
0.0
  0
VERTEX
  5
AC
100
AcDbEntity
  8
0
  6
CONTINUOUS
 62
       136
100
AcDbVertex
100
AcDb2dVertex
 10
17.9705364716
 20
12.7513245469
 30
0.0
  0
VERTEX
  5
AD
100
AcDbEntity
  8
0
  6
CONTINUOUS
 62
       136
100
AcDbVertex
100
AcDb2dVertex
 10
18.0955364701
 20
12.7304912138
 30
0.0
  0
VERTEX
  5
AE
100
AcDbEntity
  8
0
  6
CONTINUOUS
 62
       136
100
AcDbVertex
100
AcDb2dVertex
 10
17.9705364716
 20
12.7096578808
 30
0.0
  0
VERTEX
  5
AF
100
AcDbEntity
  8
0
  6
CONTINUOUS
 62
       136
100
AcDbVertex
100
AcDb2dVertex
 10
17.9705364716
 20
12.7513245469
 30
0.0
  0
SEQEND
  5
B0
100
AcDbEntity
  8
0
  6
CONTINUOUS
 62
       136
  0
LINE
  5
B1
100
AcDbEntity
  8
0
  6
CONTINUOUS
 62
       136
100
AcDbLine
 10
14.9495478285
 20
12.2700922337
 30
0.0
 11
14.9495478285
 21
12.7929912131
 31
0.0
  0
LINE
  5
B2
100
AcDbEntity
  8
0
  6
CONTINUOUS
 62
       136
100
AcDbLine
 10
18.0955364701
 20
12.2700922337
 30
0.0
 11
18.0955364701
 21
12.7929912131
 31
0.0
  0
LINE
  5
B3
100
AcDbEntity
  8
0
  6
CONTINUOUS
 62
       136
100
AcDbLine
 10
14.9495478285
 20
12.7304912138
 30
0.0
 11
16.2831400094
 21
12.7304912138
 31
0.0
  0
LINE
  5
B4
100
AcDbEntity
  8
0
  6
CONTINUOUS
 62
       136
100
AcDbLine
 10
16.7619442892
 20
12.7304912138
 30
0.0
 11
18.0955364701
 21
12.7304912138
 31
0.0
  0
TEXT
  5
B5
100
AcDbEntity
  8
0
  6
CONTINUOUS
 62
       136
100
AcDbText
 10
16.3268899499
 20
12.6679912138
 30
0.0
 40
0.125
  1
3 1/8
  7
ARIAL_TTF
 11
16.3268899499
 21
12.7929912138
 31
0.0
100
AcDbText
 73
         3
  0
POLYLINE
  5
B6
100
AcDbEntity
  8
0
  6
CONTINUOUS
 62
       136
100
AcDb2dPolyline
 66
         1
 10
0.0
 20
0.0
 30
0.0
  0
VERTEX
  5
B7
100
AcDbEntity
  8
0
  6
CONTINUOUS
 62
       136
100
AcDbVertex
100
AcDb2dVertex
 10
18.5797498239
 20
12.3804034402
 30
0.0
  0
VERTEX
  5
B8
100
AcDbEntity
  8
0
  6
CONTINUOUS
 62
       136
100
AcDbVertex
100
AcDb2dVertex
 10
18.5589164908
 20
12.2554034417
 30
0.0
  0
VERTEX
  5
B9
100
AcDbEntity
  8
0
  6
CONTINUOUS
 62
       136
100
AcDbVertex
100
AcDb2dVertex
 10
18.5380831578
 20
12.3804034402
 30
0.0
  0
VERTEX
  5
BA
100
AcDbEntity
  8
0
  6
CONTINUOUS
 62
       136
100
AcDbVertex
100
AcDb2dVertex
 10
18.5797498239
 20
12.3804034402
 30
0.0
  0
SEQEND
  5
BB
100
AcDbEntity
  8
0
  6
CONTINUOUS
 62
       136
  0
POLYLINE
  5
BC
100
AcDbEntity
  8
0
  6
CONTINUOUS
 62
       136
100
AcDb2dPolyline
 66
         1
 10
0.0
 20
0.0
 30
0.0
  0
VERTEX
  5
BD
100
AcDbEntity
  8
0
  6
CONTINUOUS
 62
       136
100
AcDbVertex
100
AcDb2dVertex
 10
18.5797498239
 20
11.9424034433
 30
0.0
  0
VERTEX
  5
BE
100
AcDbEntity
  8
0
  6
CONTINUOUS
 62
       136
100
AcDbVertex
100
AcDb2dVertex
 10
18.5589164908
 20
12.0674034417
 30
0.0
  0
VERTEX
  5
BF
100
AcDbEntity
  8
0
  6
CONTINUOUS
 62
       136
100
AcDbVertex
100
AcDb2dVertex
 10
18.5380831578
 20
11.9424034433
 30
0.0
  0
VERTEX
  5
C0
100
AcDbEntity
  8
0
  6
CONTINUOUS
 62
       136
100
AcDbVertex
100
AcDb2dVertex
 10
18.5797498239
 20
11.9424034433
 30
0.0
  0
SEQEND
  5
C1
100
AcDbEntity
  8
0
  6
CONTINUOUS
 62
       136
  0
LINE
  5
C2
100
AcDbEntity
  8
0
  6
CONTINUOUS
 62
       136
100
AcDbLine
 10
18.0756586381
 20
12.2554034417
 30
0.0
 11
18.6214164901
 21
12.2554034417
 31
0.0
  0
LINE
  5
C3
100
AcDbEntity
  8
0
  6
CONTINUOUS
 62
       136
100
AcDbLine
 10
18.0892276628
 20
12.0674034417
 30
0.0
 11
18.6214164901
 21
12.0674034417
 31
0.0
  0
LINE
  5
C4
100
AcDbEntity
  8
0
  6
CONTINUOUS
 62
       136
100
AcDbLine
 10
18.5589164908
 20
12.5054034387
 30
0.0
 11
18.5589164908
 21
12.2554034417
 31
0.0
  0
LINE
  5
C5
100
AcDbEntity
  8
0
  6
CONTINUOUS
 62
       136
100
AcDbLine
 10
18.5589164908
 20
12.0674034417
 30
0.0
 11
18.5589164908
 21
11.8174034448
 31
0.0
  0
TEXT
  5
C6
100
AcDbEntity
  8
0
  6
CONTINUOUS
 62
       136
100
AcDbText
 10
18.3877208387
 20
12.098903441
 30
0.0
 40
0.125
  1
3/16
  7
ARIAL_TTF
 11
18.3877208387
 21
12.223903441
 31
0.0
100
AcDbText
 73
         3
  0
ENDSEC
  0
SECTION
  2
OBJECTS
  0
DICTIONARY
  5
19
100
AcDbDictionary
  3
ACAD_GROUP
350
1A
  3
ACAD_MLINESTYLE
350
1B
  0
DICTIONARY
  5
1A
102
{ACAD_REACTORS
330
19
102
}
100
AcDbDictionary
  0
DICTIONARY
  5
1B
102
{ACAD_REACTORS
330
19
102
}
100
AcDbDictionary
  3
STANDARD
350
1C
  0
MLINESTYLE
  5
1C
102
{ACAD_REACTORS
330
1B
102
}
100
AcDbMlineStyle
  2
STANDARD
 70
         0
  3

 62
         0
 51
90.0
 52
90.0
 71
         2
 49
0.5
 62
       256
  6
BYLAYER
 49
-0.5
 62
       256
  6
BYLAYER
  0
ENDSEC
  0
EOF
