  0
SECTION
  2
HEADER
  9
$ACADVER
  1
AC1012
  9
$DWGCODEPAGE
  3
ansi_1252
  9
$INSBASE
 10
0.0
 20
0.0
 30
0.0
  9
$EXTMIN
 10
0.0
 20
0.0
 30
0.0
  9
$EXTMAX
 10
34.0
 20
22.0
 30
0.0
  9
$LIMMIN
 10
0.0
 20
0.0
  9
$LIMMAX
 10
12.0
 20
9.0
  9
$ORTHOMODE
 70
         0
  9
$REGENMODE
 70
         1
  9
$FILLMODE
 70
         1
  9
$QTEXTMODE
 70
         0
  9
$MIRRTEXT
 70
         1
  9
$DRAGMODE
 70
         2
  9
$LTSCALE
 40
1.0
  9
$OSMODE
 70
         0
  9
$ATTMODE
 70
         1
  9
$TEXTSIZE
 40
0.2
  9
$TRACEWID
 40
0.05
  9
$TEXTSTYLE
  7
STANDARD
  9
$CLAYER
  8
0
  9
$CELTYPE
  6
CONTINUOUS
  9
$CECOLOR
 62
       256
  9
$CELTSCALE
 40
1.0
  9
$DELOBJ
 70
         1
  9
$DISPSILH
 70
         0
  9
$DIMSCALE
 40
1.0
  9
$DIMASZ
 40
0.18
  9
$DIMEXO
 40
0.0625
  9
$DIMDLI
 40
0.38
  9
$DIMRND
 40
0.0
  9
$DIMDLE
 40
0.0
  9
$DIMEXE
 40
0.18
  9
$DIMTP
 40
0.0
  9
$DIMTM
 40
0.0
  9
$DIMTXT
 40
0.18
  9
$DIMCEN
 40
0.09
  9
$DIMTSZ
 40
0.0
  9
$DIMTOL
 70
         0
  9
$DIMLIM
 70
         0
  9
$DIMTIH
 70
         1
  9
$DIMTOH
 70
         1
  9
$DIMSE1
 70
         0
  9
$DIMSE2
 70
         0
  9
$DIMTAD
 70
         0
  9
$DIMZIN
 70
         0
  9
$DIMBLK
  1

  9
$DIMASO
 70
         1
  9
$DIMSHO
 70
         1
  9
$DIMPOST
  1

  9
$DIMAPOST
  1

  9
$DIMALT
 70
         0
  9
$DIMALTD
 70
         2
  9
$DIMALTF
 40
25.4
  9
$DIMLFAC
 40
1.0
  9
$DIMTOFL
 70
         0
  9
$DIMTVP
 40
0.0
  9
$DIMTIX
 70
         0
  9
$DIMSOXD
 70
         0
  9
$DIMSAH
 70
         0
  9
$DIMBLK1
  1

  9
$DIMBLK2
  1

  9
$DIMSTYLE
  2
STANDARD
  9
$DIMCLRD
 70
         0
  9
$DIMCLRE
 70
         0
  9
$DIMCLRT
 70
         0
  9
$DIMTFAC
 40
1.0
  9
$DIMGAP
 40
0.09
  9
$DIMJUST
 70
         0
  9
$DIMSD1
 70
         0
  9
$DIMSD2
 70
         0
  9
$DIMTOLJ
 70
         1
  9
$DIMTZIN
 70
         0
  9
$DIMALTZ
 70
         0
  9
$DIMALTTZ
 70
         0
  9
$DIMFIT
 70
         3
  9
$DIMUPT
 70
         0
  9
$DIMUNIT
 70
         2
  9
$DIMDEC
 70
         4
  9
$DIMTDEC
 70
         4
  9
$DIMALTU
 70
         2
  9
$DIMALTTD
 70
         2
  9
$DIMTXSTY
  7
STANDARD
  9
$DIMAUNIT
 70
         0
  9
$LUNITS
 70
         2
  9
$LUPREC
 70
         4
  9
$SKETCHINC
 40
0.1
  9
$FILLETRAD
 40
0.0
  9
$AUNITS
 70
         0
  9
$AUPREC
 70
         0
  9
$MENU
  1
acad
  9
$ELEVATION
 40
0.0
  9
$PELEVATION
 40
0.0
  9
$THICKNESS
 40
0.0
  9
$LIMCHECK
 70
         0
  9
$BLIPMODE
 70
         1
  9
$CHAMFERA
 40
0.0
  9
$CHAMFERB
 40
0.0
  9
$CHAMFERC
 40
0.0
  9
$CHAMFERD
 40
0.0
  9
$SKPOLY
 70
         0
  9
$TDCREATE
 40
0.000000000
  9
$TDUPDATE
 40
0.000000000
  9
$TDINDWG
 40
0.0000000000
  9
$TDUSRTIMER
 40
0.0000000000
  9
$USRTIMER
 70
         1
  9
$ANGBASE
 50
0.0
  9
$ANGDIR
 70
         0
  9
$PDMODE
 70
         0
  9
$PDSIZE
 40
0.0
  9
$PLINEWID
 40
0.0
  9
$COORDS
 70
         0
  9
$SPLFRAME
 70
         0
  9
$SPLINETYPE
 70
         6
  9
$SPLINESEGS
 70
         8
  9
$ATTDIA
 70
         0
  9
$ATTREQ
 70
         1
  9
$HANDLING
 70
         1
  9
$HANDSEED
  5
F4
  9
$SURFTAB1
 70
         6
  9
$SURFTAB2
 70
         6
  9
$SURFTYPE
 70
         6
  9
$SURFU
 70
         6
  9
$SURFV
 70
         6
  9
$UCSNAME
  2

  9
$UCSORG
 10
0.0
 20
0.0
 30
0.0
  9
$UCSXDIR
 10
1.0
 20
0.0
 30
0.0
  9
$UCSYDIR
 10
0.0
 20
1.0
 30
0.0
  9
$PUCSNAME
  2

  9
$PUCSORG
 10
0.0
 20
0.0
 30
0.0
  9
$PUCSXDIR
 10
1.0
 20
0.0
 30
0.0
  9
$PUCSYDIR
 10
0.0
 20
1.0
 30
0.0
  9
$USERI1
 70
         0
  9
$USERI2
 70
         0
  9
$USERI3
 70
         0
  9
$USERI4
 70
         0
  9
$USERI5
 70
         0
  9
$USERR1
 40
0.0
  9
$USERR2
 40
0.0
  9
$USERR3
 40
0.0
  9
$USERR4
 40
0.0
  9
$USERR5
 40
0.0
  9
$WORLDVIEW
 70
         1
  9
$SHADEDGE
 70
         3
  9
$SHADEDIF
 70
        70
  9
$TILEMODE
 70
         1
  9
$MAXACTVP
 70
        16
  9
$PINSBASE
 10
0.0
 20
0.0
 30
0.0
  9
$PLIMCHECK
 70
         0
  9
$PEXTMIN
 10
1.0000000000E+20
 20
1.0000000000E+20
 30
1.0000000000E+20
  9
$PEXTMAX
 10
-1.0000000000E+20
 20
-1.0000000000E+20
 30
-1.0000000000E+20
  9
$PLIMMIN
 10
0.0
 20
0.0
  9
$PLIMMAX
 10
12.0
 20
9.0
  9
$UNITMODE
 70
         0
  9
$VISRETAIN
 70
         0
  9
$PLINEGEN
 70
         1
  9
$PSLTSCALE
 70
         0
  9
$TREEDEPTH
 70
      3020
  9
$PICKSTYLE
 70
         1
  9
$CMLSTYLE
  2
STANDARD
  9
$CMLJUST
 70
         0
  9
$CMLSCALE
 40
1.0
  9
$SAVEIMAGES
 70
         0
  0
ENDSEC
  0
SECTION
  2
CLASSES
  0
CLASS
  1
LWPOLYLINE
  2
AcDbPolyline
  3
"AutoCAD"
 90
        0
280
         0
281
         1
  0
CLASS
  1
IMAGE
  2
AcDbRasterImage
  3
ISM
 90
      127
280
         0
281
         1
  0
CLASS
  1
OLE2FRAME
  2
AcDbOle2Frame
  3
""
 90
        0
280
         0
281
         1
  0
CLASS
  1
HATCH
  2
AcDbHatch
  3
"ACAD_SEDONA"
 90
        0
280
         0
281
         1
  0
CLASS
  1
DICTIONARYVAR
  2
AcDbDictionaryVar
  3
"AutoCAD"
 90
        0
280
         0
281
         0
  0
CLASS
  1
RASTERVARIABLES
  2
AcDbRasterVariables
  3
ISM
 90
        0
280
         0
281
         0
  0
CLASS
  1
IMAGEDEF
  2
AcDbRasterImageDef
  3
ISM
 90
        0
280
         0
281
         0
  0
CLASS
  1
IMAGEDEF_REACTOR
  2
AcDbRasterImageDefReactor
  3
ISM
 90
        1
280
         0
281
         0
  0
CLASS
  1
IDBUFFER
  2
AcDbIdBuffer
  3
"Acad"
 90
        0
280
         0
281
         0
  0
CLASS
  1
SPATIAL_FILTER
  2
AcDbSpatialFilter
  3
"Acad"
 90
        0
280
         0
281
         0
  0
CLASS
  1
XRECORD
  2
AcDbXrecord
  3
"<Built In>"
 90
        0
280
         0
281
         0
  0
CLASS
  1
SORTENTSTABLE
  2
AcDbSortentsTable
  3
"AutoCAD"
 90
        0
280
         0
281
         0
  0
CLASS
  1
LAYER_INDEX
  2
AcDbLayerIndex
  3
"Acad"
 90
        0
280
         0
281
         0
  0
CLASS
  1
SPATIAL_INDEX
  2
AcDbSpatialIndex
  3
"Acad"
 90
        0
280
         0
281
         0
  0
CLASS
  1
OBJECT_PTR
  2
CAseDLPNTableRecord
  3
"ASE-LPNTableRecord"
 90
        1
280
         0
281
         0
  0
CLASS
  1
LAYOUT
  2
AcDbLayout
  3
"AutoCAD 2000"
 90
        1
280
         0
281
         0
  0
CLASS
  1
PLOTSETTINGS
  2
AcDbPlotSettings
  3
"AutoCAD 2000"
 90
        1
280
         0
281
         0
  0
CLASS
  1
ACDBDICTIONARYWDFLT
  2
AcDbDictionaryWithDefault
  3
"AutoCAD 2000"
 90
        1
280
         0
281
         0
  0
CLASS
  1
ACDBPLACEHOLDER
  2
AcDbPlaceHolder
  3
"AutoCAD 2000"
 90
        1
280
         0
281
         0
  0
CLASS
  1
VBA_PROJECT
  2
AcDbVbaProject
  3
"acadvba"
 90
        1
280
         0
281
         0
  0
CLASS
  1
WIPEOUT
  2
AcDbWipeout
  3
WipeOut|AutoCAD Express Tool|expresstools@autodesk.com
 90
      127
280
         0
281
         1
  0
CLASS
  1
WIPEOUTVARIABLES
  2
AcDbWipeoutVariables
  3
WipeOut|AutoCAD Express Tool|expresstools@autodesk.com
 90
        0
280
         0
281
         0
  0
CLASS
  1
RTEXT
  2
RText
  3
RText|AutoCAD Express Tool|expresstools@autodesk.com
 90
        0
280
         0
281
         1
  0
CLASS
  1
ARCALIGNEDTEXT
  2
AcDbArcAlignedText
  3
ATEXT|AutoCAD Express Tool|expresstools@autodesk.com
 90
        0
280
         0
281
         1
  0
ENDSEC
  0
SECTION
  2
TABLES
  0
TABLE
  2
VPORT
  5
7
100
AcDbSymbolTable
 70
         1
  0
VPORT
  5
15
100
AcDbSymbolTableRecord
100
AcDbViewportTableRecord
  2
*ACTIVE
 70
         0
 10
0.0
 20
0.0
 11
1.0
 21
1.0
 12
17.0
 22
11.0
 13
0.0
 23
0.0
 14
1.0
 24
1.0
 15
0.0
 25
0.0
 16
0.0
 26
0.0
 36
1.0
 17
0.0
 27
0.0
 37
0.0
 40
22.0
 41
1.604229
 42
50.0
 43
0.0
 44
0.0
 50
0.0
 51
0.0
 71
         0
 72
       100
 73
         1
 74
         1
 75
         0
 76
         0
 77
         0
 78
         0
  0
ENDTAB
  0
TABLE
  2
LTYPE
  5
4
100
AcDbSymbolTable
 70
         7
  0
LTYPE
  5
11
100
AcDbSymbolTableRecord
100
AcDbLinetypeTableRecord
  2
BYBLOCK
 70
        64
  3

 72
        65
 73
         0
 40
0.0
  0
LTYPE
  5
12
100
AcDbSymbolTableRecord
100
AcDbLinetypeTableRecord
  2
BYLAYER
 70
        64
  3

 72
        65
 73
         0
 40
0.0
  0
LTYPE
  5
13
100
AcDbSymbolTableRecord
100
AcDbLinetypeTableRecord
  2
CONTINUOUS
 70
         0
  3
Solid line
 72
        65
 73
         0
 40
0.0
  0
LTYPE
  5
21
100
AcDbSymbolTableRecord
100
AcDbLinetypeTableRecord
  2
HIDDEN2
 70
        64
  3
_ _ _ _ _ _ _ _ _ _ _ _ _ _ _ _ _ _ _ _ _ _ _ _
 72
        65
 73
         2
 40
0.1875
 49
0.125
 74
         0
 49
-0.0625
 74
         0
  0
LTYPE
  5
22
100
AcDbSymbolTableRecord
100
AcDbLinetypeTableRecord
  2
CENTER2
 70
        64
  3
___ _ ___ _ ___ _ ___ _ ___ _ ___ _ ___ _ ___ _
 72
        65
 73
         4
 40
1.125
 49
0.75
 74
         0
 49
-0.125
 74
         0
 49
0.125
 74
         0
 49
-0.125
 74
         0
  0
LTYPE
  5
23
100
AcDbSymbolTableRecord
100
AcDbLinetypeTableRecord
  2
PHANTOM2
 70
        64
  3
___ _ _ ___ _ _ ___ _ _ ___ _ _ ___ _ _ ___ _ _
 72
        65
 73
         6
 40
1.25
 49
0.625
 74
         0
 49
-0.125
 74
         0
 49
0.125
 74
         0
 49
-0.125
 74
         0
 49
0.125
 74
         0
 49
-0.125
 74
         0
  0
LTYPE
  5
24
100
AcDbSymbolTableRecord
100
AcDbLinetypeTableRecord
  2
DOT2
 70
        64
  3
...............................................
 72
        65
 73
         2
 40
0.125
 49
0.0
 74
         0
 49
-0.125
 74
         0
  0
ENDTAB
  0
TABLE
  2
LAYER
  5
2
100
AcDbSymbolTable
 70
         3
  0
LAYER
  5
14
100
AcDbSymbolTableRecord
100
AcDbLayerTableRecord
  2
0
 70
         0
 62
         7
  6
CONTINUOUS
  0
LAYER
  5
26
100
AcDbSymbolTableRecord
100
AcDbLayerTableRecord
  2
DEFAULT
 70
         0
 62
         7
  6
CONTINUOUS
  0
LAYER
  5
28
100
AcDbSymbolTableRecord
100
AcDbLayerTableRecord
  2
939016
 70
         0
 62
         7
  6
CONTINUOUS
  0
ENDTAB
  0
TABLE
  2
STYLE
  5
3
100
AcDbSymbolTable
 70
         2
  0
STYLE
  5
17
100
AcDbSymbolTableRecord
100
AcDbTextStyleTableRecord
  2
STANDARD
 70
         0
 40
0.0
 41
1.0
 50
0.0
 71
         0
 42
0.2
  3
txt
  4

  0
STYLE
  5
29
100
AcDbSymbolTableRecord
100
AcDbTextStyleTableRecord
  2
ARIAL_TTF
 70
         0
 40
0.0
 41
1.0
 50
0.0
 71
         0
 42
0.2
  3
arial.ttf
  4

1001
ACAD
1000
Arial
1071
        2
  0
ENDTAB
  0
TABLE
  2
VIEW
  5
5
100
AcDbSymbolTable
 70
         0
  0
ENDTAB
  0
TABLE
  2
UCS
  5
6
100
AcDbSymbolTable
 70
         0
  0
ENDTAB
  0
TABLE
  2
APPID
  5
8
100
AcDbSymbolTable
 70
         1
  0
APPID
  5
16
100
AcDbSymbolTableRecord
100
AcDbRegAppTableRecord
  2
ACAD
 70
         0
  0
ENDTAB
  0
TABLE
  2
DIMSTYLE
  5
9
100
AcDbSymbolTable
 70
         1
  0
DIMSTYLE
105
18
100
AcDbSymbolTableRecord
100
AcDbDimStyleTableRecord
  2
STANDARD
 70
         0
  3

  4

  5

  6

  7

 40
1.0
 41
0.18
 42
0.0625
 43
0.38
 44
0.18
 45
0.0
 46
0.0
 47
0.0
 48
0.0
 71
         0
 72
         0
 73
         1
 74
         1
 75
         0
 76
         0
 77
         0
 78
         0
140
0.18
141
0.09
142
0.0
143
25.4
144
1.0
145
0.0
146
1.0
147
0.09
170
         0
171
         2
172
         0
173
         0
174
         0
175
         0
176
         0
177
         0
178
         0
270
         2
271
         4
272
         4
273
         2
274
         2
275
         0
280
         0
281
         0
282
         0
283
         1
284
         0
285
         0
286
         0
287
         0
288
         0
340
17
  0
ENDTAB
  0
TABLE
  2
BLOCK_RECORD
  5
1
100
AcDbSymbolTable
 70
         0
  0
BLOCK_RECORD
  5
A
100
AcDbSymbolTableRecord
100
AcDbBlockTableRecord
  2
*MODEL_SPACE
  0
BLOCK_RECORD
  5
B
100
AcDbSymbolTableRecord
100
AcDbBlockTableRecord
  2
*PAPER_SPACE
  0
ENDTAB
  0
ENDSEC
  0
SECTION
  2
BLOCKS
  0
BLOCK
  5
D
100
AcDbEntity
  8
0
100
AcDbBlockBegin
  2
*MODEL_SPACE
 70
         0
 10
0.0
 20
0.0
 30
0.0
  3
*MODEL_SPACE
  1

  0
ENDBLK
  5
E
100
AcDbEntity
  8
0
100
AcDbBlockEnd
  0
BLOCK
  5
F
100
AcDbEntity
 67
         1
  8
0
100
AcDbBlockBegin
  2
*PAPER_SPACE
 70
         0
 10
0.0
 20
0.0
 30
0.0
  3
*PAPER_SPACE
  1

  0
ENDBLK
  5
10
100
AcDbEntity
 67
         1
  8
0
100
AcDbBlockEnd
  0
ENDSEC
  0
SECTION
  2
ENTITIES
  0
ARC
  5
2A
100
AcDbEntity
  8
939016
  6
CONTINUOUS
 62
         7
100
AcDbCircle
 10
18.0806948099
 20
17.5587455001
 30
0.0
 40
0.125
100
AcDbArc
 50
0.0
 51
90.0
  0
LINE
  5
2B
100
AcDbEntity
  8
939016
  6
CONTINUOUS
 62
         7
100
AcDbLine
 10
18.0806948099
 20
17.6837455001
 30
0.0
 11
14.8366948099
 21
17.6837455001
 31
0.0
  0
LINE
  5
2C
100
AcDbEntity
  8
939016
  6
CONTINUOUS
 62
         7
100
AcDbLine
 10
14.7116948099
 20
17.5587455001
 30
0.0
 11
14.7116948099
 21
13.2847455001
 31
0.0
  0
ARC
  5
2D
100
AcDbEntity
  8
939016
  6
CONTINUOUS
 62
         7
100
AcDbCircle
 10
18.0806948099
 20
13.2847455001
 30
0.0
 40
0.125
100
AcDbArc
 50
270.0
 51
360.0
  0
LINE
  5
2E
100
AcDbEntity
  8
939016
  6
CONTINUOUS
 62
         7
100
AcDbLine
 10
18.2056948099
 20
13.2847455001
 30
0.0
 11
18.2056948099
 21
17.5587455001
 31
0.0
  0
CIRCLE
  5
2F
100
AcDbEntity
  8
939016
  6
CONTINUOUS
 62
         7
100
AcDbCircle
 10
17.2716948099
 20
13.5957455001
 30
0.0
 40
0.1005
  0
ARC
  5
30
100
AcDbEntity
  8
939016
  6
CONTINUOUS
 62
         7
100
AcDbCircle
 10
14.8366948099
 20
17.5587455001
 30
0.0
 40
0.125
100
AcDbArc
 50
90.0
 51
180.0
  0
ARC
  5
31
100
AcDbEntity
  8
939016
  6
CONTINUOUS
 62
         7
100
AcDbCircle
 10
14.8366948099
 20
13.2847455001
 30
0.0
 40
0.125
100
AcDbArc
 50
180.0
 51
270.0
  0
LINE
  5
32
100
AcDbEntity
  8
939016
  6
CONTINUOUS
 62
         7
100
AcDbLine
 10
14.8366948099
 20
13.1597455001
 30
0.0
 11
18.0806948099
 21
13.1597455001
 31
0.0
  0
CIRCLE
  5
33
100
AcDbEntity
  8
939016
  6
CONTINUOUS
 62
         7
100
AcDbCircle
 10
15.6456948099
 20
13.5957455001
 30
0.0
 40
0.1005
  0
CIRCLE
  5
34
100
AcDbEntity
  8
939016
  6
CONTINUOUS
 62
         7
100
AcDbCircle
 10
17.8036948099
 20
13.5957455001
 30
0.0
 40
0.068
  0
ARC
  5
35
100
AcDbEntity
  8
939016
  6
CONTINUOUS
 62
         7
100
AcDbCircle
 10
17.8036948099
 20
13.5957455001
 30
0.0
 40
0.188
100
AcDbArc
 50
90.0
 51
180.0
  0
LINE
  5
36
100
AcDbEntity
  8
939016
  6
CONTINUOUS
 62
         7
100
AcDbLine
 10
18.0526948099
 20
13.7837455001
 30
0.0
 11
17.8036948099
 21
13.7837455001
 31
0.0
  0
LINE
  5
37
100
AcDbEntity
  8
939016
  6
CONTINUOUS
 62
         7
100
AcDbLine
 10
17.6156948099
 20
13.5957455001
 30
0.0
 11
17.6156948099
 21
13.3157455001
 31
0.0
  0
CIRCLE
  5
38
100
AcDbEntity
  8
939016
  6
CONTINUOUS
 62
         7
100
AcDbCircle
 10
15.1136948099
 20
13.5957455001
 30
0.0
 40
0.068
  0
LINE
  5
39
100
AcDbEntity
  8
939016
  6
CONTINUOUS
 62
         7
100
AcDbLine
 10
15.3016948099
 20
13.3157455001
 30
0.0
 11
15.3016948099
 21
13.5957455001
 31
0.0
  0
ARC
  5
3A
100
AcDbEntity
  8
939016
  6
CONTINUOUS
 62
         7
100
AcDbCircle
 10
15.1136948099
 20
13.5957455001
 30
0.0
 40
0.188
100
AcDbArc
 50
0.0
 51
90.0
  0
LINE
  5
3B
100
AcDbEntity
  8
939016
  6
CONTINUOUS
 62
         7
100
AcDbLine
 10
15.1136948099
 20
13.7837455001
 30
0.0
 11
14.8646948099
 21
13.7837455001
 31
0.0
  0
LINE
  5
3C
100
AcDbEntity
  8
939016
  6
CONTINUOUS
 62
         7
100
AcDbLine
 10
15.9896948099
 20
13.9567455001
 30
0.0
 11
16.9276948099
 21
13.9567455001
 31
0.0
  0
CIRCLE
  5
3D
100
AcDbEntity
  8
939016
  6
CONTINUOUS
 62
         7
100
AcDbCircle
 10
16.4586948099
 20
13.7807455001
 30
0.0
 40
0.05325
  0
LINE
  5
3E
100
AcDbEntity
  8
939016
  6
CONTINUOUS
 62
         7
100
AcDbLine
 10
16.9276948099
 20
13.5137455001
 30
0.0
 11
16.9276948099
 21
13.9567455001
 31
0.0
  0
LINE
  5
3F
100
AcDbEntity
  8
939016
  6
CONTINUOUS
 62
         7
100
AcDbLine
 10
15.9896948099
 20
13.9567455001
 30
0.0
 11
15.9896948099
 21
13.5137455001
 31
0.0
  0
CIRCLE
  5
40
100
AcDbEntity
  8
939016
  6
CONTINUOUS
 62
         7
100
AcDbCircle
 10
17.2716948099
 20
17.2477455001
 30
0.0
 40
0.1005
  0
CIRCLE
  5
41
100
AcDbEntity
  8
939016
  6
CONTINUOUS
 62
         7
100
AcDbCircle
 10
15.6456948099
 20
17.2477455001
 30
0.0
 40
0.1005
  0
CIRCLE
  5
42
100
AcDbEntity
  8
939016
  6
CONTINUOUS
 62
         7
100
AcDbCircle
 10
17.8036948099
 20
17.2477455001
 30
0.0
 40
0.068
  0
LINE
  5
43
100
AcDbEntity
  8
939016
  6
CONTINUOUS
 62
         7
100
AcDbLine
 10
17.6156948099
 20
17.5277455001
 30
0.0
 11
17.6156948099
 21
17.2477455001
 31
0.0
  0
ARC
  5
44
100
AcDbEntity
  8
939016
  6
CONTINUOUS
 62
         7
100
AcDbCircle
 10
17.8036948099
 20
17.2477455001
 30
0.0
 40
0.188
100
AcDbArc
 50
180.0
 51
270.0
  0
LINE
  5
45
100
AcDbEntity
  8
939016
  6
CONTINUOUS
 62
         7
100
AcDbLine
 10
17.8036948099
 20
17.0597455001
 30
0.0
 11
18.0526948099
 21
17.0597455001
 31
0.0
  0
CIRCLE
  5
46
100
AcDbEntity
  8
939016
  6
CONTINUOUS
 62
         7
100
AcDbCircle
 10
15.1136948099
 20
17.2477455001
 30
0.0
 40
0.068
  0
LINE
  5
47
100
AcDbEntity
  8
939016
  6
CONTINUOUS
 62
         7
100
AcDbLine
 10
15.3016948099
 20
17.2477455001
 30
0.0
 11
15.3016948099
 21
17.5277455001
 31
0.0
  0
LINE
  5
48
100
AcDbEntity
  8
939016
  6
CONTINUOUS
 62
         7
100
AcDbLine
 10
14.8646948099
 20
17.0597455001
 30
0.0
 11
15.1136948099
 21
17.0597455001
 31
0.0
  0
ARC
  5
49
100
AcDbEntity
  8
939016
  6
CONTINUOUS
 62
         7
100
AcDbCircle
 10
15.1136948099
 20
17.2477455001
 30
0.0
 40
0.188
100
AcDbArc
 50
270.0
 51
360.0
  0
LINE
  5
4A
100
AcDbEntity
  8
939016
  6
CONTINUOUS
 62
         7
100
AcDbLine
 10
16.9276948099
 20
16.8867455001
 30
0.0
 11
15.9896948099
 21
16.8867455001
 31
0.0
  0
CIRCLE
  5
4B
100
AcDbEntity
  8
939016
  6
CONTINUOUS
 62
         7
100
AcDbCircle
 10
16.4586948099
 20
17.0627455001
 30
0.0
 40
0.05325
  0
LINE
  5
4C
100
AcDbEntity
  8
939016
  6
CONTINUOUS
 62
         7
100
AcDbLine
 10
16.9276948099
 20
16.8867455001
 30
0.0
 11
16.9276948099
 21
17.3297455001
 31
0.0
  0
LINE
  5
4D
100
AcDbEntity
  8
939016
  6
CONTINUOUS
 62
         7
100
AcDbLine
 10
15.9896948099
 20
17.3297455001
 30
0.0
 11
15.9896948099
 21
16.8867455001
 31
0.0
  0
LINE
  5
4E
100
AcDbEntity
  8
939016
  6
CONTINUOUS
 62
         7
100
AcDbLine
 10
15.5136948099
 20
16.7617455001
 30
0.0
 11
15.5136948099
 21
14.0817455001
 31
0.0
  0
LINE
  5
4F
100
AcDbEntity
  8
939016
  6
CONTINUOUS
 62
         7
100
AcDbLine
 10
15.6386948099
 20
13.9567455001
 30
0.0
 11
15.9896948099
 21
13.9567455001
 31
0.0
  0
LINE
  5
50
100
AcDbEntity
  8
939016
  6
CONTINUOUS
 62
         7
100
AcDbLine
 10
15.9896948099
 20
16.8867455001
 30
0.0
 11
15.6386948099
 21
16.8867455001
 31
0.0
  0
LINE
  5
51
100
AcDbEntity
  8
939016
  6
CONTINUOUS
 62
         7
100
AcDbLine
 10
17.2786948099
 20
16.8867455001
 30
0.0
 11
16.9276948099
 21
16.8867455001
 31
0.0
  0
LINE
  5
52
100
AcDbEntity
  8
939016
  6
CONTINUOUS
 62
         7
100
AcDbLine
 10
17.4036948099
 20
14.0817455001
 30
0.0
 11
17.4036948099
 21
16.7617455001
 31
0.0
  0
LINE
  5
53
100
AcDbEntity
  8
939016
  6
CONTINUOUS
 62
         7
100
AcDbLine
 10
16.9276948099
 20
13.9567455001
 30
0.0
 11
17.2786948099
 21
13.9567455001
 31
0.0
  0
LINE
  5
54
100
AcDbEntity
  8
939016
  6
CONTINUOUS
 62
         7
100
AcDbLine
 10
18.0526948099
 20
13.3157455001
 30
0.0
 11
14.8646948099
 21
13.3157455001
 31
0.0
  0
LINE
  5
55
100
AcDbEntity
  8
939016
  6
CONTINUOUS
 62
         7
100
AcDbLine
 10
14.8646948099
 20
13.3157455001
 30
0.0
 11
14.8646948099
 21
17.5277455001
 31
0.0
  0
LINE
  5
56
100
AcDbEntity
  8
939016
  6
CONTINUOUS
 62
         7
100
AcDbLine
 10
14.8646948099
 20
17.5277455001
 30
0.0
 11
18.0526948099
 21
17.5277455001
 31
0.0
  0
LINE
  5
57
100
AcDbEntity
  8
939016
  6
CONTINUOUS
 62
         7
100
AcDbLine
 10
18.0526948099
 20
17.5277455001
 30
0.0
 11
18.0526948099
 21
13.3157455001
 31
0.0
  0
LINE
  5
58
100
AcDbEntity
  8
939016
  6
CONTINUOUS
 62
         7
100
AcDbLine
 10
16.8656948099
 20
17.3917455001
 30
0.0
 11
16.0516948099
 21
17.3917455001
 31
0.0
  0
LINE
  5
59
100
AcDbEntity
  8
939016
  6
CONTINUOUS
 62
         7
100
AcDbLine
 10
16.0516948099
 20
13.4517455001
 30
0.0
 11
16.8656948099
 21
13.4517455001
 31
0.0
  0
ARC
  5
5A
100
AcDbEntity
  8
939016
  6
CONTINUOUS
 62
         7
100
AcDbCircle
 10
16.0516948099
 20
17.3297455001
 30
0.0
 40
0.062
100
AcDbArc
 50
90.0
 51
180.0
  0
ARC
  5
5B
100
AcDbEntity
  8
939016
  6
CONTINUOUS
 62
         7
100
AcDbCircle
 10
16.0516948099
 20
13.5137455001
 30
0.0
 40
0.062
100
AcDbArc
 50
180.0
 51
270.0
  0
ARC
  5
5C
100
AcDbEntity
  8
939016
  6
CONTINUOUS
 62
         7
100
AcDbCircle
 10
16.8656948099
 20
17.3297455001
 30
0.0
 40
0.062
100
AcDbArc
 50
0.0
 51
90.0
  0
ARC
  5
5D
100
AcDbEntity
  8
939016
  6
CONTINUOUS
 62
         7
100
AcDbCircle
 10
16.8656948099
 20
13.5137455001
 30
0.0
 40
0.062
100
AcDbArc
 50
270.0
 51
360.0
  0
ARC
  5
5E
100
AcDbEntity
  8
939016
  6
CONTINUOUS
 62
         7
100
AcDbCircle
 10
15.6386948099
 20
14.0817455001
 30
0.0
 40
0.125
100
AcDbArc
 50
180.0
 51
270.0
  0
ARC
  5
5F
100
AcDbEntity
  8
939016
  6
CONTINUOUS
 62
         7
100
AcDbCircle
 10
15.6386948099
 20
16.7617455001
 30
0.0
 40
0.125
100
AcDbArc
 50
90.0
 51
180.0
  0
ARC
  5
60
100
AcDbEntity
  8
939016
  6
CONTINUOUS
 62
         7
100
AcDbCircle
 10
17.2786948099
 20
14.0817455001
 30
0.0
 40
0.125
100
AcDbArc
 50
270.0
 51
360.0
  0
ARC
  5
61
100
AcDbEntity
  8
939016
  6
CONTINUOUS
 62
         7
100
AcDbCircle
 10
17.2786948099
 20
16.7617455001
 30
0.0
 40
0.125
100
AcDbArc
 50
0.0
 51
90.0
  0
POLYLINE
  5
62
100
AcDbEntity
  8
0
  6
CONTINUOUS
 62
       136
100
AcDb2dPolyline
 66
         1
 10
0.0
 20
0.0
 30
0.0
  0
VERTEX
  5
63
100
AcDbEntity
  8
0
  6
CONTINUOUS
 62
       136
100
AcDbVertex
100
AcDb2dVertex
 10
14.8366948084
 20
19.2931251049
 30
0.0
  0
VERTEX
  5
64
100
AcDbEntity
  8
0
  6
CONTINUOUS
 62
       136
100
AcDbVertex
100
AcDb2dVertex
 10
14.7116948099
 20
19.2722917718
 30
0.0
  0
VERTEX
  5
65
100
AcDbEntity
  8
0
  6
CONTINUOUS
 62
       136
100
AcDbVertex
100
AcDb2dVertex
 10
14.8366948084
 20
19.2514584387
 30
0.0
  0
VERTEX
  5
66
100
AcDbEntity
  8
0
  6
CONTINUOUS
 62
       136
100
AcDbVertex
100
AcDb2dVertex
 10
14.8366948084
 20
19.2931251049
 30
0.0
  0
SEQEND
  5
67
100
AcDbEntity
  8
0
  6
CONTINUOUS
 62
       136
  0
POLYLINE
  5
68
100
AcDbEntity
  8
0
  6
CONTINUOUS
 62
       136
100
AcDb2dPolyline
 66
         1
 10
0.0
 20
0.0
 30
0.0
  0
VERTEX
  5
69
100
AcDbEntity
  8
0
  6
CONTINUOUS
 62
       136
100
AcDbVertex
100
AcDb2dVertex
 10
18.0806948114
 20
19.2931251049
 30
0.0
  0
VERTEX
  5
6A
100
AcDbEntity
  8
0
  6
CONTINUOUS
 62
       136
100
AcDbVertex
100
AcDb2dVertex
 10
18.2056948099
 20
19.2722917718
 30
0.0
  0
VERTEX
  5
6B
100
AcDbEntity
  8
0
  6
CONTINUOUS
 62
       136
100
AcDbVertex
100
AcDb2dVertex
 10
18.0806948114
 20
19.2514584387
 30
0.0
  0
VERTEX
  5
6C
100
AcDbEntity
  8
0
  6
CONTINUOUS
 62
       136
100
AcDbVertex
100
AcDb2dVertex
 10
18.0806948114
 20
19.2931251049
 30
0.0
  0
SEQEND
  5
6D
100
AcDbEntity
  8
0
  6
CONTINUOUS
 62
       136
  0
LINE
  5
6E
100
AcDbEntity
  8
0
  6
CONTINUOUS
 62
       136
100
AcDbLine
 10
14.7116948099
 20
17.6212454994
 30
0.0
 11
14.7116948099
 21
19.334791771
 31
0.0
  0
LINE
  5
6F
100
AcDbEntity
  8
0
  6
CONTINUOUS
 62
       136
100
AcDbLine
 10
18.2056948099
 20
17.6212454994
 30
0.0
 11
18.2056948099
 21
19.334791771
 31
0.0
  0
LINE
  5
70
100
AcDbEntity
  8
0
  6
CONTINUOUS
 62
       136
100
AcDbLine
 10
14.7116948099
 20
19.2722917718
 30
0.0
 11
16.2192926607
 21
19.2722917718
 31
0.0
  0
LINE
  5
71
100
AcDbEntity
  8
0
  6
CONTINUOUS
 62
       136
100
AcDbLine
 10
16.6980969591
 20
19.2722917718
 30
0.0
 11
18.2056948099
 21
19.2722917718
 31
0.0
  0
TEXT
  5
72
100
AcDbEntity
  8
0
  6
CONTINUOUS
 62
       136
100
AcDbText
 10
16.2630426012
 20
19.2097917718
 30
0.0
 40
0.125
  1
3 1/2
  7
ARIAL_TTF
 11
16.2630426012
 21
19.3347917718
 31
0.0
100
AcDbText
 73
         3
  0
POLYLINE
  5
73
100
AcDbEntity
  8
0
  6
CONTINUOUS
 62
       136
100
AcDb2dPolyline
 66
         1
 10
0.0
 20
0.0
 30
0.0
  0
VERTEX
  5
74
100
AcDbEntity
  8
0
  6
CONTINUOUS
 62
       136
100
AcDbVertex
100
AcDb2dVertex
 10
17.9276948114
 20
18.8072517596
 30
0.0
  0
VERTEX
  5
75
100
AcDbEntity
  8
0
  6
CONTINUOUS
 62
       136
100
AcDbVertex
100
AcDb2dVertex
 10
18.0526948099
 20
18.7864184265
 30
0.0
  0
VERTEX
  5
76
100
AcDbEntity
  8
0
  6
CONTINUOUS
 62
       136
100
AcDbVertex
100
AcDb2dVertex
 10
17.9276948114
 20
18.7655850934
 30
0.0
  0
VERTEX
  5
77
100
AcDbEntity
  8
0
  6
CONTINUOUS
 62
       136
100
AcDbVertex
100
AcDb2dVertex
 10
17.9276948114
 20
18.8072517596
 30
0.0
  0
SEQEND
  5
78
100
AcDbEntity
  8
0
  6
CONTINUOUS
 62
       136
  0
POLYLINE
  5
79
100
AcDbEntity
  8
0
  6
CONTINUOUS
 62
       136
100
AcDb2dPolyline
 66
         1
 10
0.0
 20
0.0
 30
0.0
  0
VERTEX
  5
7A
100
AcDbEntity
  8
0
  6
CONTINUOUS
 62
       136
100
AcDbVertex
100
AcDb2dVertex
 10
14.9896948084
 20
18.8072517596
 30
0.0
  0
VERTEX
  5
7B
100
AcDbEntity
  8
0
  6
CONTINUOUS
 62
       136
100
AcDbVertex
100
AcDb2dVertex
 10
14.8646948099
 20
18.7864184265
 30
0.0
  0
VERTEX
  5
7C
100
AcDbEntity
  8
0
  6
CONTINUOUS
 62
       136
100
AcDbVertex
100
AcDb2dVertex
 10
14.9896948084
 20
18.7655850934
 30
0.0
  0
VERTEX
  5
7D
100
AcDbEntity
  8
0
  6
CONTINUOUS
 62
       136
100
AcDbVertex
100
AcDb2dVertex
 10
14.9896948084
 20
18.8072517596
 30
0.0
  0
SEQEND
  5
7E
100
AcDbEntity
  8
0
  6
CONTINUOUS
 62
       136
  0
LINE
  5
7F
100
AcDbEntity
  8
0
  6
CONTINUOUS
 62
       136
100
AcDbLine
 10
18.0526948099
 20
17.5902454994
 30
0.0
 11
18.0526948099
 21
18.8489184258
 31
0.0
  0
LINE
  5
80
100
AcDbEntity
  8
0
  6
CONTINUOUS
 62
       136
100
AcDbLine
 10
14.8646948099
 20
17.5902454994
 30
0.0
 11
14.8646948099
 21
18.8489184258
 31
0.0
  0
LINE
  5
81
100
AcDbEntity
  8
0
  6
CONTINUOUS
 62
       136
100
AcDbLine
 10
18.0526948099
 20
18.7864184265
 30
0.0
 11
16.7470100399
 21
18.7864184265
 31
0.0
  0
LINE
  5
82
100
AcDbEntity
  8
0
  6
CONTINUOUS
 62
       136
100
AcDbLine
 10
16.1703795798
 20
18.7864184265
 30
0.0
 11
14.8646948099
 21
18.7864184265
 31
0.0
  0
TEXT
  5
83
100
AcDbEntity
  8
0
  6
CONTINUOUS
 62
       136
100
AcDbText
 10
16.2141296465
 20
18.7239184265
 30
0.0
 40
0.125
  1
3 3/16
  7
ARIAL_TTF
 11
16.2141296465
 21
18.8489184265
 31
0.0
100
AcDbText
 73
         3
  0
POLYLINE
  5
84
100
AcDbEntity
  8
0
  6
CONTINUOUS
 62
       136
100
AcDb2dPolyline
 66
         1
 10
0.0
 20
0.0
 30
0.0
  0
VERTEX
  5
85
100
AcDbEntity
  8
0
  6
CONTINUOUS
 62
       136
100
AcDbVertex
100
AcDb2dVertex
 10
17.2786948114
 20
18.127029062
 30
0.0
  0
VERTEX
  5
86
100
AcDbEntity
  8
0
  6
CONTINUOUS
 62
       136
100
AcDbVertex
100
AcDb2dVertex
 10
17.4036948099
 20
18.1061957289
 30
0.0
  0
VERTEX
  5
87
100
AcDbEntity
  8
0
  6
CONTINUOUS
 62
       136
100
AcDbVertex
100
AcDb2dVertex
 10
17.2786948114
 20
18.0853623959
 30
0.0
  0
VERTEX
  5
88
100
AcDbEntity
  8
0
  6
CONTINUOUS
 62
       136
100
AcDbVertex
100
AcDb2dVertex
 10
17.2786948114
 20
18.127029062
 30
0.0
  0
SEQEND
  5
89
100
AcDbEntity
  8
0
  6
CONTINUOUS
 62
       136
  0
POLYLINE
  5
8A
100
AcDbEntity
  8
0
  6
CONTINUOUS
 62
       136
100
AcDb2dPolyline
 66
         1
 10
0.0
 20
0.0
 30
0.0
  0
VERTEX
  5
8B
100
AcDbEntity
  8
0
  6
CONTINUOUS
 62
       136
100
AcDbVertex
100
AcDb2dVertex
 10
15.6386948084
 20
18.127029062
 30
0.0
  0
VERTEX
  5
8C
100
AcDbEntity
  8
0
  6
CONTINUOUS
 62
       136
100
AcDbVertex
100
AcDb2dVertex
 10
15.5136948099
 20
18.1061957289
 30
0.0
  0
VERTEX
  5
8D
100
AcDbEntity
  8
0
  6
CONTINUOUS
 62
       136
100
AcDbVertex
100
AcDb2dVertex
 10
15.6386948084
 20
18.0853623959
 30
0.0
  0
VERTEX
  5
8E
100
AcDbEntity
  8
0
  6
CONTINUOUS
 62
       136
100
AcDbVertex
100
AcDb2dVertex
 10
15.6386948084
 20
18.127029062
 30
0.0
  0
SEQEND
  5
8F
100
AcDbEntity
  8
0
  6
CONTINUOUS
 62
       136
  0
LINE
  5
90
100
AcDbEntity
  8
0
  6
CONTINUOUS
 62
       136
100
AcDbLine
 10
17.4036948099
 20
16.8242454994
 30
0.0
 11
17.4036948099
 21
18.1686957282
 31
0.0
  0
LINE
  5
91
100
AcDbEntity
  8
0
  6
CONTINUOUS
 62
       136
100
AcDbLine
 10
15.5136948099
 20
16.8242454994
 30
0.0
 11
15.5136948099
 21
18.1686957282
 31
0.0
  0
LINE
  5
92
100
AcDbEntity
  8
0
  6
CONTINUOUS
 62
       136
100
AcDbLine
 10
17.4036948099
 20
18.1061957289
 30
0.0
 11
16.698096961
 21
18.1061957289
 31
0.0
  0
LINE
  5
93
100
AcDbEntity
  8
0
  6
CONTINUOUS
 62
       136
100
AcDbLine
 10
16.2192925854
 20
18.1061957289
 30
0.0
 11
15.5136948099
 21
18.1061957289
 31
0.0
  0
TEXT
  5
94
100
AcDbEntity
  8
0
  6
CONTINUOUS
 62
       136
100
AcDbText
 10
16.2630425994
 20
18.0436957289
 30
0.0
 40
0.125
  1
1 7/8
  7
ARIAL_TTF
 11
16.2630425994
 21
18.1686957289
 31
0.0
100
AcDbText
 73
         3
  0
POLYLINE
  5
95
100
AcDbEntity
  8
0
  6
CONTINUOUS
 62
       136
100
AcDb2dPolyline
 66
         1
 10
0.0
 20
0.0
 30
0.0
  0
VERTEX
  5
96
100
AcDbEntity
  8
0
  6
CONTINUOUS
 62
       136
100
AcDbVertex
100
AcDb2dVertex
 10
20.2450466875
 20
17.5587455017
 30
0.0
  0
VERTEX
  5
97
100
AcDbEntity
  8
0
  6
CONTINUOUS
 62
       136
100
AcDbVertex
100
AcDb2dVertex
 10
20.2242133545
 20
17.6837455001
 30
0.0
  0
VERTEX
  5
98
100
AcDbEntity
  8
0
  6
CONTINUOUS
 62
       136
100
AcDbVertex
100
AcDb2dVertex
 10
20.2033800214
 20
17.5587455017
 30
0.0
  0
VERTEX
  5
99
100
AcDbEntity
  8
0
  6
CONTINUOUS
 62
       136
100
AcDbVertex
100
AcDb2dVertex
 10
20.2450466875
 20
17.5587455017
 30
0.0
  0
SEQEND
  5
9A
100
AcDbEntity
  8
0
  6
CONTINUOUS
 62
       136
  0
POLYLINE
  5
9B
100
AcDbEntity
  8
0
  6
CONTINUOUS
 62
       136
100
AcDb2dPolyline
 66
         1
 10
0.0
 20
0.0
 30
0.0
  0
VERTEX
  5
9C
100
AcDbEntity
  8
0
  6
CONTINUOUS
 62
       136
100
AcDbVertex
100
AcDb2dVertex
 10
20.2450466875
 20
13.2847454986
 30
0.0
  0
VERTEX
  5
9D
100
AcDbEntity
  8
0
  6
CONTINUOUS
 62
       136
100
AcDbVertex
100
AcDb2dVertex
 10
20.2242133545
 20
13.1597455001
 30
0.0
  0
VERTEX
  5
9E
100
AcDbEntity
  8
0
  6
CONTINUOUS
 62
       136
100
AcDbVertex
100
AcDb2dVertex
 10
20.2033800214
 20
13.2847454986
 30
0.0
  0
VERTEX
  5
9F
100
AcDbEntity
  8
0
  6
CONTINUOUS
 62
       136
100
AcDbVertex
100
AcDb2dVertex
 10
20.2450466875
 20
13.2847454986
 30
0.0
  0
SEQEND
  5
A0
100
AcDbEntity
  8
0
  6
CONTINUOUS
 62
       136
  0
LINE
  5
A1
100
AcDbEntity
  8
0
  6
CONTINUOUS
 62
       136
100
AcDbLine
 10
18.1431948091
 20
17.6837455001
 30
0.0
 11
20.2867133537
 21
17.6837455001
 31
0.0
  0
LINE
  5
A2
100
AcDbEntity
  8
0
  6
CONTINUOUS
 62
       136
100
AcDbLine
 10
18.1431948091
 20
13.1597455001
 30
0.0
 11
20.2867133537
 21
13.1597455001
 31
0.0
  0
LINE
  5
A3
100
AcDbEntity
  8
0
  6
CONTINUOUS
 62
       136
100
AcDbLine
 10
20.2242133545
 20
17.6837455001
 30
0.0
 11
20.2242133545
 21
15.5279955369
 31
0.0
  0
LINE
  5
A4
100
AcDbEntity
  8
0
  6
CONTINUOUS
 62
       136
100
AcDbLine
 10
20.2242133545
 20
15.3154956101
 30
0.0
 11
20.2242133545
 21
13.1597455001
 31
0.0
  0
TEXT
  5
A5
100
AcDbEntity
  8
0
  6
CONTINUOUS
 62
       136
100
AcDbText
 10
20.0285611805
 20
15.3592455643
 30
0.0
 40
0.125
  1
4 1/2
  7
ARIAL_TTF
 11
20.0285611805
 21
15.4842455643
 31
0.0
100
AcDbText
 73
         3
  0
POLYLINE
  5
A6
100
AcDbEntity
  8
0
  6
CONTINUOUS
 62
       136
100
AcDb2dPolyline
 66
         1
 10
0.0
 20
0.0
 30
0.0
  0
VERTEX
  5
A7
100
AcDbEntity
  8
0
  6
CONTINUOUS
 62
       136
100
AcDbVertex
100
AcDb2dVertex
 10
19.4676492513
 20
17.4027455017
 30
0.0
  0
VERTEX
  5
A8
100
AcDbEntity
  8
0
  6
CONTINUOUS
 62
       136
100
AcDbVertex
100
AcDb2dVertex
 10
19.4468159182
 20
17.5277455001
 30
0.0
  0
VERTEX
  5
A9
100
AcDbEntity
  8
0
  6
CONTINUOUS
 62
       136
100
AcDbVertex
100
AcDb2dVertex
 10
19.4259825851
 20
17.4027455017
 30
0.0
  0
VERTEX
  5
AA
100
AcDbEntity
  8
0
  6
CONTINUOUS
 62
       136
100
AcDbVertex
100
AcDb2dVertex
 10
19.4676492513
 20
17.4027455017
 30
0.0
  0
SEQEND
  5
AB
100
AcDbEntity
  8
0
  6
CONTINUOUS
 62
       136
  0
POLYLINE
  5
AC
100
AcDbEntity
  8
0
  6
CONTINUOUS
 62
       136
100
AcDb2dPolyline
 66
         1
 10
0.0
 20
0.0
 30
0.0
  0
VERTEX
  5
AD
100
AcDbEntity
  8
0
  6
CONTINUOUS
 62
       136
100
AcDbVertex
100
AcDb2dVertex
 10
19.4676492513
 20
13.4407454986
 30
0.0
  0
VERTEX
  5
AE
100
AcDbEntity
  8
0
  6
CONTINUOUS
 62
       136
100
AcDbVertex
100
AcDb2dVertex
 10
19.4468159182
 20
13.3157455001
 30
0.0
  0
VERTEX
  5
AF
100
AcDbEntity
  8
0
  6
CONTINUOUS
 62
       136
100
AcDbVertex
100
AcDb2dVertex
 10
19.4259825851
 20
13.4407454986
 30
0.0
  0
VERTEX
  5
B0
100
AcDbEntity
  8
0
  6
CONTINUOUS
 62
       136
100
AcDbVertex
100
AcDb2dVertex
 10
19.4676492513
 20
13.4407454986
 30
0.0
  0
SEQEND
  5
B1
100
AcDbEntity
  8
0
  6
CONTINUOUS
 62
       136
  0
LINE
  5
B2
100
AcDbEntity
  8
0
  6
CONTINUOUS
 62
       136
100
AcDbLine
 10
18.1151948091
 20
17.5277455001
 30
0.0
 11
19.5093159175
 21
17.5277455001
 31
0.0
  0
LINE
  5
B3
100
AcDbEntity
  8
0
  6
CONTINUOUS
 62
       136
100
AcDbLine
 10
18.1151948091
 20
13.3157455001
 30
0.0
 11
19.5093159175
 21
13.3157455001
 31
0.0
  0
LINE
  5
B4
100
AcDbEntity
  8
0
  6
CONTINUOUS
 62
       136
100
AcDbLine
 10
19.4468159182
 20
17.5277455001
 30
0.0
 11
19.4468159182
 21
15.5279954414
 31
0.0
  0
LINE
  5
B5
100
AcDbEntity
  8
0
  6
CONTINUOUS
 62
       136
100
AcDbLine
 10
19.4468159182
 20
15.3154954122
 30
0.0
 11
19.4468159182
 21
13.3157455001
 31
0.0
  0
TEXT
  5
B6
100
AcDbEntity
  8
0
  6
CONTINUOUS
 62
       136
100
AcDbText
 10
19.2022507008
 20
15.3592454688
 30
0.0
 40
0.125
  1
4 3/16
  7
ARIAL_TTF
 11
19.2022507008
 21
15.4842454688
 31
0.0
100
AcDbText
 73
         3
  0
POLYLINE
  5
B7
100
AcDbEntity
  8
0
  6
CONTINUOUS
 62
       136
100
AcDb2dPolyline
 66
         1
 10
0.0
 20
0.0
 30
0.0
  0
VERTEX
  5
B8
100
AcDbEntity
  8
0
  6
CONTINUOUS
 62
       136
100
AcDbVertex
100
AcDb2dVertex
 10
18.7388392619
 20
16.7617455017
 30
0.0
  0
VERTEX
  5
B9
100
AcDbEntity
  8
0
  6
CONTINUOUS
 62
       136
100
AcDbVertex
100
AcDb2dVertex
 10
18.7180059288
 20
16.8867455001
 30
0.0
  0
VERTEX
  5
BA
100
AcDbEntity
  8
0
  6
CONTINUOUS
 62
       136
100
AcDbVertex
100
AcDb2dVertex
 10
18.6971725957
 20
16.7617455017
 30
0.0
  0
VERTEX
  5
BB
100
AcDbEntity
  8
0
  6
CONTINUOUS
 62
       136
100
AcDbVertex
100
AcDb2dVertex
 10
18.7388392619
 20
16.7617455017
 30
0.0
  0
SEQEND
  5
BC
100
AcDbEntity
  8
0
  6
CONTINUOUS
 62
       136
  0
POLYLINE
  5
BD
100
AcDbEntity
  8
0
  6
CONTINUOUS
 62
       136
100
AcDb2dPolyline
 66
         1
 10
0.0
 20
0.0
 30
0.0
  0
VERTEX
  5
BE
100
AcDbEntity
  8
0
  6
CONTINUOUS
 62
       136
100
AcDbVertex
100
AcDb2dVertex
 10
18.7388392619
 20
14.0817454986
 30
0.0
  0
VERTEX
  5
BF
100
AcDbEntity
  8
0
  6
CONTINUOUS
 62
       136
100
AcDbVertex
100
AcDb2dVertex
 10
18.7180059288
 20
13.9567455001
 30
0.0
  0
VERTEX
  5
C0
100
AcDbEntity
  8
0
  6
CONTINUOUS
 62
       136
100
AcDbVertex
100
AcDb2dVertex
 10
18.6971725957
 20
14.0817454986
 30
0.0
  0
VERTEX
  5
C1
100
AcDbEntity
  8
0
  6
CONTINUOUS
 62
       136
100
AcDbVertex
100
AcDb2dVertex
 10
18.7388392619
 20
14.0817454986
 30
0.0
  0
SEQEND
  5
C2
100
AcDbEntity
  8
0
  6
CONTINUOUS
 62
       136
  0
LINE
  5
C3
100
AcDbEntity
  8
0
  6
CONTINUOUS
 62
       136
100
AcDbLine
 10
17.1656948091
 20
16.8867455001
 30
0.0
 11
18.780505928
 21
16.8867455001
 31
0.0
  0
LINE
  5
C4
100
AcDbEntity
  8
0
  6
CONTINUOUS
 62
       136
100
AcDbLine
 10
17.1656948091
 20
13.9567455001
 30
0.0
 11
18.780505928
 21
13.9567455001
 31
0.0
  0
LINE
  5
C5
100
AcDbEntity
  8
0
  6
CONTINUOUS
 62
       136
100
AcDbLine
 10
18.7180059288
 20
16.8867455001
 30
0.0
 11
18.7180059288
 21
15.5279954365
 31
0.0
  0
LINE
  5
C6
100
AcDbEntity
  8
0
  6
CONTINUOUS
 62
       136
100
AcDbLine
 10
18.7180059288
 20
15.3154954171
 30
0.0
 11
18.7180059288
 21
13.9567455001
 31
0.0
  0
TEXT
  5
C7
100
AcDbEntity
  8
0
  6
CONTINUOUS
 62
       136
100
AcDbText
 10
18.4245276679
 20
15.359245464
 30
0.0
 40
0.125
  1
2 15/16
  7
ARIAL_TTF
 11
18.4245276679
 21
15.484245464
 31
0.0
100
AcDbText
 73
         3
  0
LINE
  5
C8
100
AcDbEntity
  8
939016
  6
CONTINUOUS
 62
         7
100
AcDbLine
 10
18.0806948099
 20
11.2446737025
 30
0.0
 11
18.2056948099
 21
11.2446737025
 31
0.0
  0
LINE
  5
C9
100
AcDbEntity
  8
939016
  6
CONTINUOUS
 62
         7
100
AcDbLine
 10
14.8366948099
 20
11.2446737025
 30
0.0
 11
18.0806948099
 21
11.2446737025
 31
0.0
  0
LINE
  5
CA
100
AcDbEntity
  8
939016
  6
CONTINUOUS
 62
         7
100
AcDbLine
 10
14.7116948099
 20
11.2446737025
 30
0.0
 11
14.8366948099
 21
11.2446737025
 31
0.0
  0
LINE
  5
CB
100
AcDbEntity
  8
939016
  6
CONTINUOUS
 62
         7
100
AcDbLine
 10
14.8366948099
 20
10.3596737025
 30
0.0
 11
18.0806948099
 21
10.3596737025
 31
0.0
  0
LINE
  5
CC
100
AcDbEntity
  8
939016
  6
CONTINUOUS
 62
         7
100
AcDbLine
 10
14.8366948099
 20
10.3596737025
 30
0.0
 11
14.7116948099
 21
10.3596737025
 31
0.0
  0
LINE
  5
CD
100
AcDbEntity
  8
939016
  6
CONTINUOUS
 62
         7
100
AcDbLine
 10
14.7116948099
 20
10.3596737025
 30
0.0
 11
14.7116948099
 21
11.2446737025
 31
0.0
  0
LINE
  5
CE
100
AcDbEntity
  8
939016
  6
CONTINUOUS
 62
         7
100
AcDbLine
 10
18.2056948099
 20
10.3596737025
 30
0.0
 11
18.0806948099
 21
10.3596737025
 31
0.0
  0
LINE
  5
CF
100
AcDbEntity
  8
939016
  6
CONTINUOUS
 62
         7
100
AcDbLine
 10
18.2056948099
 20
11.2446737025
 30
0.0
 11
18.2056948099
 21
10.3596737025
 31
0.0
  0
POLYLINE
  5
D0
100
AcDbEntity
  8
0
  6
CONTINUOUS
 62
       136
100
AcDb2dPolyline
 66
         1
 10
0.0
 20
0.0
 30
0.0
  0
VERTEX
  5
D1
100
AcDbEntity
  8
0
  6
CONTINUOUS
 62
       136
100
AcDbVertex
100
AcDb2dVertex
 10
14.8366948084
 20
11.6105921158
 30
0.0
  0
VERTEX
  5
D2
100
AcDbEntity
  8
0
  6
CONTINUOUS
 62
       136
100
AcDbVertex
100
AcDb2dVertex
 10
14.7116948099
 20
11.5897587827
 30
0.0
  0
VERTEX
  5
D3
100
AcDbEntity
  8
0
  6
CONTINUOUS
 62
       136
100
AcDbVertex
100
AcDb2dVertex
 10
14.8366948084
 20
11.5689254496
 30
0.0
  0
VERTEX
  5
D4
100
AcDbEntity
  8
0
  6
CONTINUOUS
 62
       136
100
AcDbVertex
100
AcDb2dVertex
 10
14.8366948084
 20
11.6105921158
 30
0.0
  0
SEQEND
  5
D5
100
AcDbEntity
  8
0
  6
CONTINUOUS
 62
       136
  0
POLYLINE
  5
D6
100
AcDbEntity
  8
0
  6
CONTINUOUS
 62
       136
100
AcDb2dPolyline
 66
         1
 10
0.0
 20
0.0
 30
0.0
  0
VERTEX
  5
D7
100
AcDbEntity
  8
0
  6
CONTINUOUS
 62
       136
100
AcDbVertex
100
AcDb2dVertex
 10
18.0806948114
 20
11.6105921158
 30
0.0
  0
VERTEX
  5
D8
100
AcDbEntity
  8
0
  6
CONTINUOUS
 62
       136
100
AcDbVertex
100
AcDb2dVertex
 10
18.2056948099
 20
11.5897587827
 30
0.0
  0
VERTEX
  5
D9
100
AcDbEntity
  8
0
  6
CONTINUOUS
 62
       136
100
AcDbVertex
100
AcDb2dVertex
 10
18.0806948114
 20
11.5689254496
 30
0.0
  0
VERTEX
  5
DA
100
AcDbEntity
  8
0
  6
CONTINUOUS
 62
       136
100
AcDbVertex
100
AcDb2dVertex
 10
18.0806948114
 20
11.6105921158
 30
0.0
  0
SEQEND
  5
DB
100
AcDbEntity
  8
0
  6
CONTINUOUS
 62
       136
  0
LINE
  5
DC
100
AcDbEntity
  8
0
  6
CONTINUOUS
 62
       136
100
AcDbLine
 10
14.7116948099
 20
11.3071737017
 30
0.0
 11
14.7116948099
 21
11.6522587819
 31
0.0
  0
LINE
  5
DD
100
AcDbEntity
  8
0
  6
CONTINUOUS
 62
       136
100
AcDbLine
 10
18.2056948099
 20
11.3071737017
 30
0.0
 11
18.2056948099
 21
11.6522587819
 31
0.0
  0
LINE
  5
DE
100
AcDbEntity
  8
0
  6
CONTINUOUS
 62
       136
100
AcDbLine
 10
14.7116948099
 20
11.5897587827
 30
0.0
 11
16.2192926607
 21
11.5897587827
 31
0.0
  0
LINE
  5
DF
100
AcDbEntity
  8
0
  6
CONTINUOUS
 62
       136
100
AcDbLine
 10
16.6980969591
 20
11.5897587827
 30
0.0
 11
18.2056948099
 21
11.5897587827
 31
0.0
  0
TEXT
  5
E0
100
AcDbEntity
  8
0
  6
CONTINUOUS
 62
       136
100
AcDbText
 10
16.2630426012
 20
11.5272587827
 30
0.0
 40
0.125
  1
3 1/2
  7
ARIAL_TTF
 11
16.2630426012
 21
11.6522587827
 31
0.0
100
AcDbText
 73
         3
  0
POLYLINE
  5
E1
100
AcDbEntity
  8
0
  6
CONTINUOUS
 62
       136
100
AcDb2dPolyline
 66
         1
 10
0.0
 20
0.0
 30
0.0
  0
VERTEX
  5
E2
100
AcDbEntity
  8
0
  6
CONTINUOUS
 62
       136
100
AcDbVertex
100
AcDb2dVertex
 10
19.0263942322
 20
11.119673704
 30
0.0
  0
VERTEX
  5
E3
100
AcDbEntity
  8
0
  6
CONTINUOUS
 62
       136
100
AcDbVertex
100
AcDb2dVertex
 10
19.0055608991
 20
11.2446737025
 30
0.0
  0
VERTEX
  5
E4
100
AcDbEntity
  8
0
  6
CONTINUOUS
 62
       136
100
AcDbVertex
100
AcDb2dVertex
 10
18.984727566
 20
11.119673704
 30
0.0
  0
VERTEX
  5
E5
100
AcDbEntity
  8
0
  6
CONTINUOUS
 62
       136
100
AcDbVertex
100
AcDb2dVertex
 10
19.0263942322
 20
11.119673704
 30
0.0
  0
SEQEND
  5
E6
100
AcDbEntity
  8
0
  6
CONTINUOUS
 62
       136
  0
POLYLINE
  5
E7
100
AcDbEntity
  8
0
  6
CONTINUOUS
 62
       136
100
AcDb2dPolyline
 66
         1
 10
0.0
 20
0.0
 30
0.0
  0
VERTEX
  5
E8
100
AcDbEntity
  8
0
  6
CONTINUOUS
 62
       136
100
AcDbVertex
100
AcDb2dVertex
 10
19.0263942322
 20
10.484673701
 30
0.0
  0
VERTEX
  5
E9
100
AcDbEntity
  8
0
  6
CONTINUOUS
 62
       136
100
AcDbVertex
100
AcDb2dVertex
 10
19.0055608991
 20
10.3596737025
 30
0.0
  0
VERTEX
  5
EA
100
AcDbEntity
  8
0
  6
CONTINUOUS
 62
       136
100
AcDbVertex
100
AcDb2dVertex
 10
18.984727566
 20
10.484673701
 30
0.0
  0
VERTEX
  5
EB
100
AcDbEntity
  8
0
  6
CONTINUOUS
 62
       136
100
AcDbVertex
100
AcDb2dVertex
 10
19.0263942322
 20
10.484673701
 30
0.0
  0
SEQEND
  5
EC
100
AcDbEntity
  8
0
  6
CONTINUOUS
 62
       136
  0
LINE
  5
ED
100
AcDbEntity
  8
0
  6
CONTINUOUS
 62
       136
100
AcDbLine
 10
18.1431948091
 20
11.2446737025
 30
0.0
 11
19.0680608983
 21
11.2446737025
 31
0.0
  0
LINE
  5
EE
100
AcDbEntity
  8
0
  6
CONTINUOUS
 62
       136
100
AcDbLine
 10
18.1431948091
 20
10.3596737025
 30
0.0
 11
19.0680608983
 21
10.3596737025
 31
0.0
  0
LINE
  5
EF
100
AcDbEntity
  8
0
  6
CONTINUOUS
 62
       136
100
AcDbLine
 10
19.0055608991
 20
11.2446737025
 30
0.0
 11
19.0055608991
 21
10.9084237202
 31
0.0
  0
LINE
  5
F0
100
AcDbEntity
  8
0
  6
CONTINUOUS
 62
       136
100
AcDbLine
 10
19.0055608991
 20
10.6959237214
 30
0.0
 11
19.0055608991
 21
10.3596737025
 31
0.0
  0
TEXT
  5
F1
100
AcDbEntity
  8
0
  6
CONTINUOUS
 62
       136
100
AcDbText
 10
18.8832782904
 20
10.7396737109
 30
0.0
 40
0.125
  1
7/8
  7
ARIAL_TTF
 11
18.8832782904
 21
10.8646737109
 31
0.0
100
AcDbText
 73
         3
  0
ENDSEC
  0
SECTION
  2
OBJECTS
  0
DICTIONARY
  5
19
100
AcDbDictionary
  3
ACAD_GROUP
350
1A
  3
ACAD_MLINESTYLE
350
1B
  0
DICTIONARY
  5
1A
102
{ACAD_REACTORS
330
19
102
}
100
AcDbDictionary
  0
DICTIONARY
  5
1B
102
{ACAD_REACTORS
330
19
102
}
100
AcDbDictionary
  3
STANDARD
350
1C
  0
MLINESTYLE
  5
1C
102
{ACAD_REACTORS
330
1B
102
}
100
AcDbMlineStyle
  2
STANDARD
 70
         0
  3

 62
         0
 51
90.0
 52
90.0
 71
         2
 49
0.5
 62
       256
  6
BYLAYER
 49
-0.5
 62
       256
  6
BYLAYER
  0
ENDSEC
  0
EOF
