  0
SECTION
  2
HEADER
  9
$ACADVER
  1
AC1014
  9
$ACADMAINTVER
 70
     9
  9
$DWGCODEPAGE
  3
ANSI_1252
  9
$INSBASE
 10
0.0
 20
0.0
 30
0.0
  9
$EXTMIN
 10
2.459231119696985
 20
0.4279162089773047
 30
0.0
  9
$EXTMAX
 10
19.4263182832655
 20
14.95761071872332
 30
0.0
  9
$LIMMIN
 10
0.0
 20
0.0
  9
$LIMMAX
 10
21.99995599999999
 20
16.99996599999999
  9
$ORTHOMODE
 70
     0
  9
$REGENMODE
 70
     1
  9
$FILLMODE
 70
     1
  9
$QTEXTMODE
 70
     0
  9
$MIRRTEXT
 70
     1
  9
$DRAGMODE
 70
     2
  9
$LTSCALE
 40
1.0
  9
$OSMODE
 70
    37
  9
$ATTMODE
 70
     1
  9
$TEXTSIZE
 40
0.2
  9
$TRACEWID
 40
0.05
  9
$TEXTSTYLE
  7
STANDARD
  9
$CLAYER
  8
0
  9
$CELTYPE
  6
CONTINUOUS
  9
$CECOLOR
 62
   256
  9
$CELTSCALE
 40
1.0
  9
$DELOBJ
 70
     1
  9
$DISPSILH
 70
     0
  9
$DIMSCALE
 40
1.0
  9
$DIMASZ
 40
0.18
  9
$DIMEXO
 40
0.0625
  9
$DIMDLI
 40
0.38
  9
$DIMRND
 40
0.0
  9
$DIMDLE
 40
0.0
  9
$DIMEXE
 40
0.18
  9
$DIMTP
 40
0.0
  9
$DIMTM
 40
0.0
  9
$DIMTXT
 40
0.18
  9
$DIMCEN
 40
0.09
  9
$DIMTSZ
 40
0.0
  9
$DIMTOL
 70
     0
  9
$DIMLIM
 70
     0
  9
$DIMTIH
 70
     1
  9
$DIMTOH
 70
     1
  9
$DIMSE1
 70
     0
  9
$DIMSE2
 70
     0
  9
$DIMTAD
 70
     0
  9
$DIMZIN
 70
     0
  9
$DIMBLK
  1

  9
$DIMASO
 70
     1
  9
$DIMSHO
 70
     1
  9
$DIMPOST
  1

  9
$DIMAPOST
  1

  9
$DIMALT
 70
     0
  9
$DIMALTD
 70
     2
  9
$DIMALTF
 40
25.4
  9
$DIMLFAC
 40
1.0
  9
$DIMTOFL
 70
     0
  9
$DIMTVP
 40
0.0
  9
$DIMTIX
 70
     0
  9
$DIMSOXD
 70
     0
  9
$DIMSAH
 70
     0
  9
$DIMBLK1
  1

  9
$DIMBLK2
  1

  9
$DIMSTYLE
  2
STANDARD
  9
$DIMCLRD
 70
     0
  9
$DIMCLRE
 70
     0
  9
$DIMCLRT
 70
     0
  9
$DIMTFAC
 40
1.0
  9
$DIMGAP
 40
0.09
  9
$DIMJUST
 70
     0
  9
$DIMSD1
 70
     0
  9
$DIMSD2
 70
     0
  9
$DIMTOLJ
 70
     1
  9
$DIMTZIN
 70
     0
  9
$DIMALTZ
 70
     0
  9
$DIMALTTZ
 70
     0
  9
$DIMFIT
 70
     3
  9
$DIMUPT
 70
     0
  9
$DIMUNIT
 70
     2
  9
$DIMDEC
 70
     4
  9
$DIMTDEC
 70
     4
  9
$DIMALTU
 70
     2
  9
$DIMALTTD
 70
     2
  9
$DIMTXSTY
  7
STANDARD
  9
$DIMAUNIT
 70
     0
  9
$LUNITS
 70
     2
  9
$LUPREC
 70
     4
  9
$SKETCHINC
 40
0.1
  9
$FILLETRAD
 40
0.0
  9
$AUNITS
 70
     0
  9
$AUPREC
 70
     0
  9
$MENU
  1
acad
  9
$ELEVATION
 40
0.0
  9
$PELEVATION
 40
0.0
  9
$THICKNESS
 40
0.0
  9
$LIMCHECK
 70
     0
  9
$BLIPMODE
 70
     0
  9
$CHAMFERA
 40
0.0
  9
$CHAMFERB
 40
0.0
  9
$CHAMFERC
 40
0.0
  9
$CHAMFERD
 40
0.0
  9
$SKPOLY
 70
     0
  9
$TDCREATE
 40
2444971.791666666
  9
$TDUPDATE
 40
2452653.389147789
  9
$TDINDWG
 40
0.0005012963
  9
$TDUSRTIMER
 40
0.0005012963
  9
$USRTIMER
 70
     1
  9
$ANGBASE
 50
0.0
  9
$ANGDIR
 70
     0
  9
$PDMODE
 70
     0
  9
$PDSIZE
 40
0.0
  9
$PLINEWID
 40
0.0
  9
$COORDS
 70
     0
  9
$SPLFRAME
 70
     0
  9
$SPLINETYPE
 70
     6
  9
$SPLINESEGS
 70
     8
  9
$ATTDIA
 70
     0
  9
$ATTREQ
 70
     1
  9
$HANDLING
 70
-16383
  9
$HANDSEED
  5
1DC
  9
$SURFTAB1
 70
     6
  9
$SURFTAB2
 70
     6
  9
$SURFTYPE
 70
     6
  9
$SURFU
 70
     6
  9
$SURFV
 70
     6
  9
$UCSNAME
  2

  9
$UCSORG
 10
0.0
 20
0.0
 30
0.0
  9
$UCSXDIR
 10
1.0
 20
0.0
 30
0.0
  9
$UCSYDIR
 10
0.0
 20
1.0
 30
0.0
  9
$PUCSNAME
  2

  9
$PUCSORG
 10
0.0
 20
0.0
 30
0.0
  9
$PUCSXDIR
 10
1.0
 20
0.0
 30
0.0
  9
$PUCSYDIR
 10
0.0
 20
1.0
 30
0.0
  9
$USERI1
 70
     0
  9
$USERI2
 70
     0
  9
$USERI3
 70
     0
  9
$USERI4
 70
     0
  9
$USERI5
 70
     0
  9
$USERR1
 40
0.0
  9
$USERR2
 40
0.0
  9
$USERR3
 40
0.0
  9
$USERR4
 40
0.0
  9
$USERR5
 40
0.0
  9
$WORLDVIEW
 70
     1
  9
$SHADEDGE
 70
     3
  9
$SHADEDIF
 70
    70
  9
$TILEMODE
 70
     1
  9
$MAXACTVP
 70
    16
  9
$PINSBASE
 10
0.0
 20
0.0
 30
0.0
  9
$PLIMCHECK
 70
     0
  9
$PEXTMIN
 10
1.000000000000000E+20
 20
1.000000000000000E+20
 30
1.000000000000000E+20
  9
$PEXTMAX
 10
-1.000000000000000E+20
 20
-1.000000000000000E+20
 30
-1.000000000000000E+20
  9
$PLIMMIN
 10
0.0
 20
0.0
  9
$PLIMMAX
 10
12.0
 20
9.0
  9
$UNITMODE
 70
     0
  9
$VISRETAIN
 70
     0
  9
$PLINEGEN
 70
     1
  9
$PSLTSCALE
 70
     0
  9
$TREEDEPTH
 70
  3020
  9
$PICKSTYLE
 70
     1
  9
$CMLSTYLE
  2
STANDARD
  9
$CMLJUST
 70
     0
  9
$CMLSCALE
 40
1.0
  9
$PROXYGRAPHICS
 70
     0
  9
$MEASUREMENT
 70
     0
  0
ENDSEC
  0
SECTION
  2
CLASSES
  0
CLASS
  1
LWPOLYLINE
  2
AcDbPolyline
  3
AutoCAD 2000
 90
        0
280
     0
281
     1
  0
CLASS
  1
IMAGE
  2
AcDbRasterImage
  3
ISM
 90
      127
280
     0
281
     1
  0
CLASS
  1
OLE2FRAME
  2
AcDbOle2Frame
  3
AutoCAD 2000
 90
        0
280
     0
281
     1
  0
CLASS
  1
HATCH
  2
AcDbHatch
  3
AutoCAD 2000
 90
        0
280
     0
281
     1
  0
CLASS
  1
DICTIONARYVAR
  2
AcDbDictionaryVar
  3
AutoCAD 2000
 90
        0
280
     0
281
     0
  0
CLASS
  1
RASTERVARIABLES
  2
AcDbRasterVariables
  3
ISM
 90
        0
280
     0
281
     0
  0
CLASS
  1
IMAGEDEF
  2
AcDbRasterImageDef
  3
ISM
 90
        0
280
     0
281
     0
  0
CLASS
  1
IMAGEDEF_REACTOR
  2
AcDbRasterImageDefReactor
  3
ISM
 90
        1
280
     0
281
     0
  0
CLASS
  1
IDBUFFER
  2
AcDbIdBuffer
  3
AutoCAD 2000
 90
        0
280
     0
281
     0
  0
CLASS
  1
SPATIAL_FILTER
  2
AcDbSpatialFilter
  3
AutoCAD 2000
 90
        0
280
     0
281
     0
  0
CLASS
  1
XRECORD
  2
AcDbXrecord
  3
AutoCAD 2000
 90
        0
280
     0
281
     0
  0
CLASS
  1
SORTENTSTABLE
  2
AcDbSortentsTable
  3
AutoCAD 2000
 90
        0
280
     0
281
     0
  0
CLASS
  1
LAYER_INDEX
  2
AcDbLayerIndex
  3
AutoCAD 2000
 90
        0
280
     0
281
     0
  0
CLASS
  1
SPATIAL_INDEX
  2
AcDbSpatialIndex
  3
AutoCAD 2000
 90
        0
280
     0
281
     0
  0
CLASS
  1
OBJECT_PTR
  2
CAseDLPNTableRecord
  3
ASE-LPNTableRecord
 90
        1
280
     0
281
     0
  0
CLASS
  1
LAYOUT
  2
AcDbLayout
  3
AutoCAD 2000
 90
        0
280
     0
281
     0
  0
CLASS
  1
PLOTSETTINGS
  2
AcDbPlotSettings
  3
AutoCAD 2000
 90
        0
280
     0
281
     0
  0
CLASS
  1
ACDBDICTIONARYWDFLT
  2
AcDbDictionaryWithDefault
  3
AutoCAD 2000
 90
        0
280
     0
281
     0
  0
CLASS
  1
ACDBPLACEHOLDER
  2
AcDbPlaceHolder
  3
AutoCAD 2000
 90
        0
280
     0
281
     0
  0
CLASS
  1
VBA_PROJECT
  2
AcDbVbaProject
  3
acadvba
 90
        0
280
     0
281
     0
  0
CLASS
  1
WIPEOUT
  2
AcDbWipeout
  3
WipeOut|AutoCAD Express Tool|expresstools@autodesk.com
 90
      127
280
     0
281
     1
  0
CLASS
  1
WIPEOUTVARIABLES
  2
AcDbWipeoutVariables
  3
WipeOut|AutoCAD Express Tool|expresstools@autodesk.com
 90
        0
280
     0
281
     0
  0
CLASS
  1
RTEXT
  2
RText
  3
RText|AutoCAD Express Tool|expresstools@autodesk.com
 90
        0
280
     0
281
     1
  0
CLASS
  1
ARCALIGNEDTEXT
  2
AcDbArcAlignedText
  3
ATEXT|AutoCAD Express Tool|expresstools@autodesk.com
 90
        0
280
     0
281
     1
  0
CLASS
  1
LONG_TRANSACTION
  2
AcDbLongTransaction
  3
AutoCAD 2000
 90
        0
280
     0
281
     0
  0
CLASS
  1
LWPOLYLINE
  2
AcDbPolyline
  3
AutoCAD 2000
 90
        0
280
     0
281
     1
  0
CLASS
  1
HATCH
  2
AcDbHatch
  3
AutoCAD 2000
 90
        0
280
     0
281
     1
  0
CLASS
  1
XRECORD
  2
AcDbXrecord
  3
AutoCAD 2000
 90
        0
280
     0
281
     0
  0
ENDSEC
  0
SECTION
  2
TABLES
  0
TABLE
  2
VPORT
  5
7
330
0
100
AcDbSymbolTable
 70
     3
  0
VPORT
  5
1B7
330
7
100
AcDbSymbolTableRecord
100
AcDbViewportTableRecord
  2
*ACTIVE
 70
     0
 10
0.0
 20
0.0
 11
1.0
 21
1.0
 12
10.99997799999999
 22
8.710252449753143
 13
0.0
 23
0.0
 14
1.0
 24
1.0
 15
0.0
 25
0.0
 16
0.0
 26
0.0
 36
1.0
 17
0.0
 27
0.0
 37
0.0
 40
17.42050489950628
 41
1.565502183406113
 42
50.0
 43
0.0
 44
0.0
 50
0.0
 51
0.0
 71
     0
 72
   100
 73
     1
 74
     1
 75
     0
 76
     0
 77
     0
 78
     0
  0
ENDTAB
  0
TABLE
  2
LTYPE
  5
4
330
0
100
AcDbSymbolTable
 70
     5
  0
LTYPE
  5
11
330
4
100
AcDbSymbolTableRecord
100
AcDbLinetypeTableRecord
  2
BYBLOCK
 70
     0
  3

 72
    65
 73
     0
 40
0.0
  0
LTYPE
  5
12
330
4
100
AcDbSymbolTableRecord
100
AcDbLinetypeTableRecord
  2
BYLAYER
 70
     0
  3

 72
    65
 73
     0
 40
0.0
  0
LTYPE
  5
13
330
4
100
AcDbSymbolTableRecord
100
AcDbLinetypeTableRecord
  2
CONTINUOUS
 70
     0
  3
Solid line
 72
    65
 73
     0
 40
0.0
  0
LTYPE
  5
21
330
4
100
AcDbSymbolTableRecord
100
AcDbLinetypeTableRecord
  2
HIDDEN2
 70
     0
  3
_ _ _ _ _ _ _ _ _ _ _ _ _ _ _ _ _ _ _ _ _ _ _ _
 72
    65
 73
     2
 40
0.1875
 49
0.125
 74
     0
 49
-0.0625
 74
     0
  0
LTYPE
  5
22
330
4
100
AcDbSymbolTableRecord
100
AcDbLinetypeTableRecord
  2
CENTER2
 70
     0
  3
___ _ ___ _ ___ _ ___ _ ___ _ ___ _ ___ _ ___ _
 72
    65
 73
     4
 40
1.125
 49
0.75
 74
     0
 49
-0.125
 74
     0
 49
0.125
 74
     0
 49
-0.125
 74
     0
  0
LTYPE
  5
23
330
4
100
AcDbSymbolTableRecord
100
AcDbLinetypeTableRecord
  2
PHANTOM2
 70
     0
  3
___ _ _ ___ _ _ ___ _ _ ___ _ _ ___ _ _ ___ _ _
 72
    65
 73
     6
 40
1.25
 49
0.625
 74
     0
 49
-0.125
 74
     0
 49
0.125
 74
     0
 49
-0.125
 74
     0
 49
0.125
 74
     0
 49
-0.125
 74
     0
  0
LTYPE
  5
24
330
4
100
AcDbSymbolTableRecord
100
AcDbLinetypeTableRecord
  2
DOT2
 70
     0
  3
...............................................
 72
    65
 73
     2
 40
0.125
 49
0.0
 74
     0
 49
-0.125
 74
     0
  0
ENDTAB
  0
TABLE
  2
LAYER
  5
2
330
0
100
AcDbSymbolTable
 70
     2
  0
LAYER
  5
14
330
2
100
AcDbSymbolTableRecord
100
AcDbLayerTableRecord
  2
0
 70
     0
 62
     7
  6
CONTINUOUS
  0
LAYER
  5
26
330
2
100
AcDbSymbolTableRecord
100
AcDbLayerTableRecord
  2
DEFAULT
 70
     0
 62
     7
  6
CONTINUOUS
  0
ENDTAB
  0
TABLE
  2
STYLE
  5
3
330
0
100
AcDbSymbolTable
 70
     3
  0
STYLE
  5
17
330
3
100
AcDbSymbolTableRecord
100
AcDbTextStyleTableRecord
  2
STANDARD
 70
     0
 40
0.0
 41
1.0
 50
0.0
 71
     0
 42
0.2
  3
txt
  4

  0
STYLE
  5
5B
330
3
100
AcDbSymbolTableRecord
100
AcDbTextStyleTableRecord
  2
ARIAL_TTF
 70
     0
 40
0.0
 41
1.0
 50
0.0
 71
     0
 42
0.2
  3
ARIAL.TTF
  4

1001
ACAD
1000
Arial
1071
        2
  0
STYLE
  5
6C
330
3
100
AcDbSymbolTableRecord
100
AcDbTextStyleTableRecord
  2
SEMECA1_TTF
 70
     0
 40
0.0
 41
1.0
 50
0.0
 71
     0
 42
0.2
  3

  4

1001
ACAD
1000
Solid Edge ANSI1 Symbols
1071
        2
  0
ENDTAB
  0
TABLE
  2
VIEW
  5
5
330
0
100
AcDbSymbolTable
 70
     0
  0
ENDTAB
  0
TABLE
  2
UCS
  5
6
330
0
100
AcDbSymbolTable
 70
     0
  0
ENDTAB
  0
TABLE
  2
APPID
  5
8
330
0
100
AcDbSymbolTable
 70
     1
  0
APPID
  5
16
330
8
100
AcDbSymbolTableRecord
100
AcDbRegAppTableRecord
  2
ACAD
 70
     0
  0
ENDTAB
  0
TABLE
  2
DIMSTYLE
  5
9
330
0
100
AcDbSymbolTable
 70
     1
  0
DIMSTYLE
105
18
330
9
100
AcDbSymbolTableRecord
100
AcDbDimStyleTableRecord
  2
STANDARD
 70
     0
  3

  4

  5

  6

  7

 40
1.0
 41
0.18
 42
0.0625
 43
0.38
 44
0.18
 45
0.0
 46
0.0
 47
0.0
 48
0.0
140
0.18
141
0.09
142
0.0
143
25.4
144
1.0
145
0.0
146
1.0
147
0.09
 71
     0
 72
     0
 73
     1
 74
     1
 75
     0
 76
     0
 77
     0
 78
     0
170
     0
171
     2
172
     0
173
     0
174
     0
175
     0
176
     0
177
     0
178
     0
270
     2
271
     4
272
     4
273
     2
274
     2
340
17
275
     0
280
     0
281
     0
282
     0
283
     1
284
     0
285
     0
286
     0
287
     0
288
     0
  0
ENDTAB
  0
TABLE
  2
BLOCK_RECORD
  5
1
330
0
100
AcDbSymbolTable
 70
    10
  0
BLOCK_RECORD
  5
A
102
{ACAD_XDICTIONARY
360
1D8
102
}
330
1
100
AcDbSymbolTableRecord
100
AcDbBlockTableRecord
  2
*MODEL_SPACE
  0
BLOCK_RECORD
  5
B
102
{ACAD_XDICTIONARY
360
1DA
102
}
330
1
100
AcDbSymbolTableRecord
100
AcDbBlockTableRecord
  2
*PAPER_SPACE
  0
BLOCK_RECORD
  5
5E
330
1
100
AcDbSymbolTableRecord
100
AcDbBlockTableRecord
  2
SE0
  0
BLOCK_RECORD
  5
5F
330
1
100
AcDbSymbolTableRecord
100
AcDbBlockTableRecord
  2
SE1
  0
BLOCK_RECORD
  5
61
330
1
100
AcDbSymbolTableRecord
100
AcDbBlockTableRecord
  2
SE2
  0
BLOCK_RECORD
  5
62
330
1
100
AcDbSymbolTableRecord
100
AcDbBlockTableRecord
  2
SE3
  0
BLOCK_RECORD
  5
64
330
1
100
AcDbSymbolTableRecord
100
AcDbBlockTableRecord
  2
SE4
  0
BLOCK_RECORD
  5
65
330
1
100
AcDbSymbolTableRecord
100
AcDbBlockTableRecord
  2
SE5
  0
BLOCK_RECORD
  5
67
330
1
100
AcDbSymbolTableRecord
100
AcDbBlockTableRecord
  2
SE6
  0
BLOCK_RECORD
  5
68
330
1
100
AcDbSymbolTableRecord
100
AcDbBlockTableRecord
  2
SE7
  0
BLOCK_RECORD
  5
6A
330
1
100
AcDbSymbolTableRecord
100
AcDbBlockTableRecord
  2
SE8
  0
BLOCK_RECORD
  5
6E
330
1
100
AcDbSymbolTableRecord
100
AcDbBlockTableRecord
  2
SE9
  0
ENDTAB
  0
ENDSEC
  0
SECTION
  2
BLOCKS
  0
BLOCK
  5
D
330
A
100
AcDbEntity
  8
0
100
AcDbBlockBegin
  2
*MODEL_SPACE
 70
     0
 10
0.0
 20
0.0
 30
0.0
  3
*MODEL_SPACE
  1

  0
ENDBLK
  5
E
330
A
100
AcDbEntity
  8
0
100
AcDbBlockEnd
  0
BLOCK
  5
F
330
B
100
AcDbEntity
 67
     1
  8
0
100
AcDbBlockBegin
  2
*PAPER_SPACE
 70
     0
 10
0.0
 20
0.0
 30
0.0
  3
*PAPER_SPACE
  1

  0
ENDBLK
  5
10
330
B
100
AcDbEntity
 67
     1
  8
0
100
AcDbBlockEnd
  0
BLOCK
  5
81
330
5E
100
AcDbEntity
  8
0
 62
     1
 48
0.0
100
AcDbBlockBegin
  2
SE0
 70
     0
 10
0.0
 20
0.0
 30
0.0
  3
SE0
  1

  0
INSERT
  5
82
330
5E
100
AcDbEntity
  8
0
 62
     0
 48
0.0
100
AcDbBlockReference
  2
SE1
 10
0.0
 20
0.0
 30
0.0
  0
ENDBLK
  5
83
330
5E
100
AcDbEntity
  8
0
 62
     0
 48
0.0
100
AcDbBlockEnd
  0
BLOCK
  5
72
330
5F
100
AcDbEntity
  8
0
 62
     1
 48
0.0
100
AcDbBlockBegin
  2
SE1
 70
     0
 10
0.0
 20
0.0
 30
0.0
  3
SE1
  1

  0
LINE
  5
73
330
5F
100
AcDbEntity
  8
0
  6
CONTINUOUS
 62
     7
100
AcDbLine
 10
2.498483724814767
 20
4.15621181867544
 30
0.0
 11
8.677427280779664
 21
4.15621181867544
 31
0.0
  0
LINE
  5
74
330
5F
100
AcDbEntity
  8
0
  6
CONTINUOUS
 62
     7
100
AcDbLine
 10
3.146545033677855
 20
4.16121181867544
 30
0.0
 11
3.146545033677855
 21
4.15621181867544
 31
0.0
  0
LINE
  5
75
330
5F
100
AcDbEntity
  8
0
  6
CONTINUOUS
 62
     7
100
AcDbLine
 10
3.169373147119031
 20
4.16121181867544
 30
0.0
 11
3.146545033677855
 21
4.16121181867544
 31
0.0
  0
LINE
  5
76
330
5F
100
AcDbEntity
  8
0
  6
CONTINUOUS
 62
     7
100
AcDbLine
 10
3.353038276586425
 20
4.16121181867544
 30
0.0
 11
3.169373147119031
 21
4.16121181867544
 31
0.0
  0
LINE
  5
77
330
5F
100
AcDbEntity
  8
0
  6
CONTINUOUS
 62
     7
100
AcDbLine
 10
3.374021331591384
 20
4.16121181867544
 30
0.0
 11
3.353038276586425
 21
4.16121181867544
 31
0.0
  0
LINE
  5
78
330
5F
100
AcDbEntity
  8
0
  6
CONTINUOUS
 62
     7
100
AcDbLine
 10
3.374021331591384
 20
4.16121181867544
 30
0.0
 11
3.374021331591384
 21
4.15621181867544
 31
0.0
  0
LINE
  5
79
330
5F
100
AcDbEntity
  8
0
  6
CONTINUOUS
 62
     7
100
AcDbLine
 10
2.46848829396399
 20
4.125688246257984
 30
0.0
 11
2.471290244544139
 21
3.965164673840452
 31
0.0
  0
LINE
  5
7A
330
5F
100
AcDbEntity
  8
0
  6
CONTINUOUS
 62
     7
100
AcDbLine
 10
8.704620761050291
 20
3.965164673840452
 30
0.0
 11
8.707422711630441
 21
4.125688246257984
 31
0.0
  0
ARC
  5
7B
330
5F
100
AcDbEntity
  8
0
  6
CONTINUOUS
 62
     7
100
AcDbCircle
 10
8.677427280779664
 20
4.12621181867544
 30
0.0
 40
0.03
100
AcDbArc
 50
358.9999995714817
 51
90.0
  0
ARC
  5
7C
330
5F
100
AcDbEntity
  8
0
  6
CONTINUOUS
 62
     7
100
AcDbCircle
 10
2.498483724814767
 20
4.12621181867544
 30
0.0
 40
0.03
100
AcDbArc
 50
90.0
 51
181.0000004285181
  0
ARC
  5
7D
330
5F
100
AcDbEntity
  8
0
  6
CONTINUOUS
 62
     7
100
AcDbCircle
 10
2.531281106245691
 20
3.966211818675441
 30
0.0
 40
0.0600000000000003
100
AcDbArc
 50
181.0000004285911
 51
270.0
  0
ARC
  5
7E
330
5F
100
AcDbEntity
  8
0
  6
CONTINUOUS
 62
     7
100
AcDbCircle
 10
8.644629899348739
 20
3.966211818675441
 30
0.0
 40
0.06
100
AcDbArc
 50
270.0
 51
358.9999995714088
  0
LINE
  5
7F
330
5F
100
AcDbEntity
  8
0
  6
CONTINUOUS
 62
     7
100
AcDbLine
 10
2.531281106245691
 20
3.906211818675441
 30
0.0
 11
8.644629899348739
 21
3.906211818675441
 31
0.0
  0
ENDBLK
  5
80
330
5F
100
AcDbEntity
  8
0
  6
CONTINUOUS
 62
     7
100
AcDbBlockEnd
  0
BLOCK
  5
E7
330
61
100
AcDbEntity
  8
0
 62
     1
 48
0.0
100
AcDbBlockBegin
  2
SE2
 70
     0
 10
0.0
 20
0.0
 30
0.0
  3
SE2
  1

  0
INSERT
  5
E8
330
61
100
AcDbEntity
  8
0
 62
     0
 48
0.0
100
AcDbBlockReference
  2
SE3
 10
0.0
 20
0.0
 30
0.0
  0
ENDBLK
  5
E9
330
61
100
AcDbEntity
  8
0
 62
     0
 48
0.0
100
AcDbBlockEnd
  0
BLOCK
  5
84
330
62
100
AcDbEntity
  8
0
 62
     1
 48
0.0
100
AcDbBlockBegin
  2
SE3
 70
     0
 10
0.0
 20
0.0
 30
0.0
  3
SE3
  1

  0
CIRCLE
  5
85
330
62
100
AcDbEntity
  8
0
  6
CONTINUOUS
 62
     7
100
AcDbCircle
 10
5.587955502797215
 20
11.31349065818689
 30
0.0
 40
3.089471777982448
  0
ARC
  5
86
330
62
100
AcDbEntity
  8
0
  6
CONTINUOUS
 62
     7
100
AcDbCircle
 10
3.177683162103105
 20
11.155924871342
 30
0.0
 40
0.03113812842525
100
AcDbArc
 50
180.0
 51
254.5215531004182
  0
CIRCLE
  5
87
330
62
100
AcDbEntity
  8
0
  6
CONTINUOUS
 62
     7
100
AcDbCircle
 10
3.264070613915236
 20
11.58556142470393
 30
0.0
 40
0.026109024558361
  0
LINE
  5
88
330
62
100
AcDbEntity
  8
0
  6
CONTINUOUS
 62
     7
100
AcDbLine
 10
3.374021331591384
 20
11.46977893433371
 30
0.0
 11
3.374021331591384
 21
11.09101775715632
 31
0.0
  0
ARC
  5
89
330
62
100
AcDbEntity
  8
0
  6
CONTINUOUS
 62
     7
100
AcDbCircle
 10
3.342883203166134
 20
11.46977893433371
 30
0.0
 40
0.03113812842525
100
AcDbArc
 50
0.0
 51
74.5215531004166
  0
LINE
  5
8A
330
62
100
AcDbEntity
  8
0
  6
CONTINUOUS
 62
     7
100
AcDbLine
 10
3.167528088682815
 20
11.55064816390731
 30
0.0
 11
3.351193218150209
 21
11.49978771126299
 31
0.0
  0
ARC
  5
8B
330
62
100
AcDbEntity
  8
0
  6
CONTINUOUS
 62
     7
100
AcDbCircle
 10
3.163107867946605
 20
11.53468604851939
 30
0.0
 40
0.0165628342687496
100
AcDbArc
 50
74.5215531004184
 51
179.9999999999938
  0
LINE
  5
8C
330
62
100
AcDbEntity
  8
0
  6
CONTINUOUS
 62
     7
100
AcDbLine
 10
3.146545033677855
 20
11.155924871342
 30
0.0
 11
3.146545033677855
 21
11.53468604851939
 31
0.0
  0
ARC
  5
8D
330
62
100
AcDbEntity
  8
0
  6
CONTINUOUS
 62
     7
100
AcDbCircle
 10
3.357458497322634
 20
11.09101775715632
 30
0.0
 40
0.0165628342687496
100
AcDbArc
 50
254.5215531004183
 51
360.0
  0
LINE
  5
8E
330
62
100
AcDbEntity
  8
0
  6
CONTINUOUS
 62
     7
100
AcDbLine
 10
3.167449337688287
 20
11.15361181651584
 30
0.0
 11
3.167449337688287
 21
11.23860385476482
 31
0.0
  0
LINE
  5
8F
330
62
100
AcDbEntity
  8
0
  6
CONTINUOUS
 62
     7
100
AcDbLine
 10
3.353038276586425
 20
11.0750556417684
 30
0.0
 11
3.169373147119031
 21
11.12591609441271
 31
0.0
  0
LINE
  5
90
330
62
100
AcDbEntity
  8
0
  6
CONTINUOUS
 62
     7
100
AcDbLine
 10
3.259463377987892
 20
11.27664079237539
 30
0.0
 11
3.343861014608239
 21
11.197895125304
 31
0.0
  0
LINE
  5
91
330
62
100
AcDbEntity
  8
0
  6
CONTINUOUS
 62
     7
100
AcDbLine
 10
3.343861014608239
 20
11.197895125304
 30
0.0
 11
3.167449337688287
 21
11.15361181651584
 31
0.0
  0
LINE
  5
92
330
62
100
AcDbEntity
  8
0
  6
CONTINUOUS
 62
     7
100
AcDbLine
 10
3.259427494958034
 20
11.47574008646177
 30
0.0
 11
3.219482865321257
 21
11.46622687399396
 31
0.0
  0
LINE
  5
93
330
62
100
AcDbEntity
  8
0
  6
CONTINUOUS
 62
     7
100
AcDbLine
 10
3.219482865321257
 20
11.46622687399396
 30
0.0
 11
3.259427494958032
 21
11.42775599552357
 31
0.0
  0
LINE
  5
94
330
62
100
AcDbEntity
  8
0
  6
CONTINUOUS
 62
     7
100
AcDbLine
 10
3.259427494958032
 20
11.42775599552357
 30
0.0
 11
3.220687356860112
 21
11.40953836848303
 31
0.0
  0
LINE
  5
95
330
62
100
AcDbEntity
  8
0
  6
CONTINUOUS
 62
     7
100
AcDbLine
 10
3.220687356860112
 20
11.40953836848303
 30
0.0
 11
3.343861014608239
 21
11.31349065818689
 31
0.0
  0
LINE
  5
96
330
62
100
AcDbEntity
  8
0
  6
CONTINUOUS
 62
     7
100
AcDbLine
 10
3.343861014608239
 20
11.31349065818689
 30
0.0
 11
3.259463377987892
 21
11.27664079237539
 31
0.0
  0
LINE
  5
97
330
62
100
AcDbEntity
  8
0
  6
CONTINUOUS
 62
     7
100
AcDbLine
 10
3.212266154104475
 20
11.44917489963745
 30
0.0
 11
3.166974663390123
 21
11.49279536754162
 31
0.0
  0
LINE
  5
98
330
62
100
AcDbEntity
  8
0
  6
CONTINUOUS
 62
     7
100
AcDbLine
 10
3.16714540907307
 20
11.42795677948786
 30
0.0
 11
3.212266154104474
 21
11.44917489963745
 31
0.0
  0
LINE
  5
99
330
62
100
AcDbEntity
  8
0
  6
CONTINUOUS
 62
     7
100
AcDbLine
 10
3.246989349112471
 20
11.36569648973104
 30
0.0
 11
3.167145409073071
 21
11.42795677948786
 31
0.0
  0
LINE
  5
9A
330
62
100
AcDbEntity
  8
0
  6
CONTINUOUS
 62
     7
100
AcDbLine
 10
3.166974663390123
 20
11.49279536754162
 30
0.0
 11
3.259427494958034
 21
11.51481393268927
 31
0.0
  0
LINE
  5
9B
330
62
100
AcDbEntity
  8
0
  6
CONTINUOUS
 62
     7
100
AcDbLine
 10
3.259427494958034
 20
11.51481393268927
 30
0.0
 11
3.259427494958034
 21
11.47574008646177
 31
0.0
  0
LINE
  5
9C
330
62
100
AcDbEntity
  8
0
  6
CONTINUOUS
 62
     7
100
AcDbLine
 10
3.167449337688287
 20
11.23860385476482
 30
0.0
 11
3.246951903644498
 21
11.25856079151162
 31
0.0
  0
LINE
  5
9D
330
62
100
AcDbEntity
  8
0
  6
CONTINUOUS
 62
     7
100
AcDbLine
 10
3.167449337688287
 20
11.33273920267107
 30
0.0
 11
3.246989349112471
 21
11.36569648973104
 31
0.0
  0
LINE
  5
9E
330
62
100
AcDbEntity
  8
0
  6
CONTINUOUS
 62
     7
100
AcDbLine
 10
3.246951903644498
 20
11.25856079151162
 30
0.0
 11
3.167449337688287
 21
11.33273920267107
 31
0.0
  0
CIRCLE
  5
9F
330
62
100
AcDbEntity
  8
0
  6
CONTINUOUS
 62
     7
100
AcDbCircle
 10
5.587955502797215
 20
11.31349065818689
 30
0.0
 40
3.119471777982448
  0
CIRCLE
  5
A0
330
62
100
AcDbEntity
  8
0
  6
CONTINUOUS
 62
     7
100
AcDbCircle
 10
5.587955502797215
 20
9.32049065818674
 30
0.0
 40
0.18
  0
CIRCLE
  5
A1
330
62
100
AcDbEntity
  8
0
  6
CONTINUOUS
 62
     7
100
AcDbCircle
 10
5.587955502797063
 20
13.30649065818704
 30
0.0
 40
0.15
  0
CIRCLE
  5
A2
330
62
100
AcDbEntity
  8
0
  6
CONTINUOUS
 62
     7
100
AcDbCircle
 10
5.587955502797063
 20
13.30649065818704
 30
0.0
 40
0.18
  0
CIRCLE
  5
A3
330
62
100
AcDbEntity
  8
0
  6
CONTINUOUS
 62
     7
100
AcDbCircle
 10
5.587955502797215
 20
9.32049065818674
 30
0.0
 40
0.15
  0
CIRCLE
  5
A4
330
62
100
AcDbEntity
  8
0
  6
CONTINUOUS
 62
     7
100
AcDbCircle
 10
5.587955502797063
 20
13.30649065818704
 30
0.0
 40
0.135
  0
ARC
  5
A5
330
62
100
AcDbEntity
  8
0
  6
CONTINUOUS
 62
     7
100
AcDbCircle
 10
5.587955502797063
 20
13.30649065818704
 30
0.0
 40
0.089
100
AcDbArc
 50
192.9863608540639
 51
257.0136391459365
  0
ARC
  5
A6
330
62
100
AcDbEntity
  8
0
  6
CONTINUOUS
 62
     7
100
AcDbCircle
 10
5.587955502797063
 20
13.30649065818704
 30
0.0
 40
0.0889999999999999
100
AcDbArc
 50
102.9863608540645
 51
167.0136391459348
  0
ARC
  5
A7
330
62
100
AcDbEntity
  8
0
  6
CONTINUOUS
 62
     7
100
AcDbCircle
 10
5.587955502797063
 20
13.30649065818704
 30
0.0
 40
0.089
100
AcDbArc
 50
12.98636085406499
 51
77.01363914593542
  0
ARC
  5
A8
330
62
100
AcDbEntity
  8
0
  6
CONTINUOUS
 62
     7
100
AcDbCircle
 10
5.587955502797063
 20
13.30649065818704
 30
0.0
 40
0.0890000000000002
100
AcDbArc
 50
282.9863608540645
 51
347.0136391459361
  0
LINE
  5
A9
330
62
100
AcDbEntity
  8
0
  6
CONTINUOUS
 62
     7
100
AcDbLine
 10
5.674679201980159
 20
13.28649065818704
 30
0.0
 11
5.648455502797064
 21
13.28649065818704
 31
0.0
  0
LINE
  5
AA
330
62
100
AcDbEntity
  8
0
  6
CONTINUOUS
 62
     7
100
AcDbLine
 10
5.607955502797064
 20
13.21976695900395
 30
0.0
 11
5.607955502797064
 21
13.24599065818704
 31
0.0
  0
LINE
  5
AB
330
62
100
AcDbEntity
  8
0
  6
CONTINUOUS
 62
     7
100
AcDbLine
 10
5.527455502797064
 20
13.28649065818704
 30
0.0
 11
5.501231803613968
 21
13.28649065818704
 31
0.0
  0
LINE
  5
AC
330
62
100
AcDbEntity
  8
0
  6
CONTINUOUS
 62
     7
100
AcDbLine
 10
5.648455502797063
 20
13.28649065818704
 30
0.0
 11
5.648455502797063
 21
13.32649065818704
 31
0.0
  0
LINE
  5
AD
330
62
100
AcDbEntity
  8
0
  6
CONTINUOUS
 62
     7
100
AcDbLine
 10
5.67881845795106
 20
13.28649065818704
 30
0.0
 11
5.67881845795106
 21
13.32649065818704
 31
0.0
  0
LINE
  5
AE
330
62
100
AcDbEntity
  8
0
  6
CONTINUOUS
 62
     7
100
AcDbLine
 10
5.67881845795106
 20
13.28649065818704
 30
0.0
 11
5.674679201980159
 21
13.28649065818704
 31
0.0
  0
LINE
  5
AF
330
62
100
AcDbEntity
  8
0
  6
CONTINUOUS
 62
     7
100
AcDbLine
 10
5.674679201980159
 20
13.32649065818704
 30
0.0
 11
5.648455502797064
 21
13.32649065818704
 31
0.0
  0
LINE
  5
B0
330
62
100
AcDbEntity
  8
0
  6
CONTINUOUS
 62
     7
100
AcDbLine
 10
5.527455502797064
 20
13.32649065818704
 30
0.0
 11
5.527455502797064
 21
13.28649065818704
 31
0.0
  0
LINE
  5
B1
330
62
100
AcDbEntity
  8
0
  6
CONTINUOUS
 62
     7
100
AcDbLine
 10
5.501231803613968
 20
13.28649065818704
 30
0.0
 11
5.497092547643038
 21
13.28649065818704
 31
0.0
  0
LINE
  5
B2
330
62
100
AcDbEntity
  8
0
  6
CONTINUOUS
 62
     7
100
AcDbLine
 10
5.497092547643038
 20
13.32649065818704
 30
0.0
 11
5.497092547643038
 21
13.28649065818704
 31
0.0
  0
LINE
  5
B3
330
62
100
AcDbEntity
  8
0
  6
CONTINUOUS
 62
     7
100
AcDbLine
 10
5.501231803613968
 20
13.32649065818704
 30
0.0
 11
5.497092547643038
 21
13.32649065818704
 31
0.0
  0
LINE
  5
B4
330
62
100
AcDbEntity
  8
0
  6
CONTINUOUS
 62
     7
100
AcDbLine
 10
5.67881845795106
 20
13.32649065818704
 30
0.0
 11
5.674679201980159
 21
13.32649065818704
 31
0.0
  0
LINE
  5
B5
330
62
100
AcDbEntity
  8
0
  6
CONTINUOUS
 62
     7
100
AcDbLine
 10
5.527455502797064
 20
13.32649065818704
 30
0.0
 11
5.501231803613968
 21
13.32649065818704
 31
0.0
  0
LINE
  5
B6
330
62
100
AcDbEntity
  8
0
  6
CONTINUOUS
 62
     7
100
AcDbLine
 10
5.607955502797064
 20
13.39321435737014
 30
0.0
 11
5.607955502797064
 21
13.39735361334107
 31
0.0
  0
LINE
  5
B7
330
62
100
AcDbEntity
  8
0
  6
CONTINUOUS
 62
     7
100
AcDbLine
 10
5.607955502797064
 20
13.36699065818704
 30
0.0
 11
5.607955502797064
 21
13.39321435737014
 31
0.0
  0
LINE
  5
B8
330
62
100
AcDbEntity
  8
0
  6
CONTINUOUS
 62
     7
100
AcDbLine
 10
5.607955502797064
 20
13.21562770303279
 30
0.0
 11
5.607955502797064
 21
13.21976695900395
 31
0.0
  0
LINE
  5
B9
330
62
100
AcDbEntity
  8
0
  6
CONTINUOUS
 62
     7
100
AcDbLine
 10
5.607955502797064
 20
13.39735361334107
 30
0.0
 11
5.567955502797063
 21
13.39735361334107
 31
0.0
  0
LINE
  5
BA
330
62
100
AcDbEntity
  8
0
  6
CONTINUOUS
 62
     7
100
AcDbLine
 10
5.607955502797064
 20
13.36699065818704
 30
0.0
 11
5.567955502797063
 21
13.36699065818704
 31
0.0
  0
LINE
  5
BB
330
62
100
AcDbEntity
  8
0
  6
CONTINUOUS
 62
     7
100
AcDbLine
 10
5.567955502797063
 20
13.21562770303279
 30
0.0
 11
5.567955502797063
 21
13.21976695900395
 31
0.0
  0
LINE
  5
BC
330
62
100
AcDbEntity
  8
0
  6
CONTINUOUS
 62
     7
100
AcDbLine
 10
5.567955502797064
 20
13.39321435737014
 30
0.0
 11
5.567955502797064
 21
13.39735361334107
 31
0.0
  0
LINE
  5
BD
330
62
100
AcDbEntity
  8
0
  6
CONTINUOUS
 62
     7
100
AcDbLine
 10
5.567955502797063
 20
13.21562770303279
 30
0.0
 11
5.607955502797063
 21
13.21562770303279
 31
0.0
  0
LINE
  5
BE
330
62
100
AcDbEntity
  8
0
  6
CONTINUOUS
 62
     7
100
AcDbLine
 10
5.567955502797063
 20
13.24599065818704
 30
0.0
 11
5.607955502797063
 21
13.24599065818704
 31
0.0
  0
LINE
  5
BF
330
62
100
AcDbEntity
  8
0
  6
CONTINUOUS
 62
     7
100
AcDbLine
 10
5.567955502797064
 20
13.36699065818704
 30
0.0
 11
5.567955502797064
 21
13.39321435737014
 31
0.0
  0
ARC
  5
C0
330
62
100
AcDbEntity
  8
0
  6
CONTINUOUS
 62
     7
100
AcDbCircle
 10
5.527455502797064
 20
13.36699065818704
 30
0.0
 40
0.0405
100
AcDbArc
 50
270.0
 51
360.0
  0
ARC
  5
C1
330
62
100
AcDbEntity
  8
0
  6
CONTINUOUS
 62
     7
100
AcDbCircle
 10
5.648455502797063
 20
13.24599065818704
 30
0.0
 40
0.0405
100
AcDbArc
 50
90.0
 51
180.0
  0
ARC
  5
C2
330
62
100
AcDbEntity
  8
0
  6
CONTINUOUS
 62
     7
100
AcDbCircle
 10
5.527455502797064
 20
13.24599065818704
 30
0.0
 40
0.0405
100
AcDbArc
 50
0.0
 51
90.0
  0
ARC
  5
C3
330
62
100
AcDbEntity
  8
0
  6
CONTINUOUS
 62
     7
100
AcDbCircle
 10
5.648455502797063
 20
13.36699065818704
 30
0.0
 40
0.0405
100
AcDbArc
 50
180.0
 51
270.0
  0
LINE
  5
C4
330
62
100
AcDbEntity
  8
0
  6
CONTINUOUS
 62
     7
100
AcDbLine
 10
5.567955502797063
 20
13.21976695900395
 30
0.0
 11
5.567955502797063
 21
13.24599065818704
 31
0.0
  0
CIRCLE
  5
C5
330
62
100
AcDbEntity
  8
0
  6
CONTINUOUS
 62
     7
100
AcDbCircle
 10
5.587955502797215
 20
9.32049065818674
 30
0.0
 40
0.135
  0
ARC
  5
C6
330
62
100
AcDbEntity
  8
0
  6
CONTINUOUS
 62
     7
100
AcDbCircle
 10
5.587955502797215
 20
9.32049065818674
 30
0.0
 40
0.089
100
AcDbArc
 50
192.9863608540651
 51
257.0136391459367
  0
ARC
  5
C7
330
62
100
AcDbEntity
  8
0
  6
CONTINUOUS
 62
     7
100
AcDbCircle
 10
5.587955502797215
 20
9.32049065818674
 30
0.0
 40
0.0889999999999999
100
AcDbArc
 50
102.9863608540634
 51
167.013639145936
  0
ARC
  5
C8
330
62
100
AcDbEntity
  8
0
  6
CONTINUOUS
 62
     7
100
AcDbCircle
 10
5.587955502797215
 20
9.32049065818674
 30
0.0
 40
0.089
100
AcDbArc
 50
12.98636085406375
 51
77.01363914593542
  0
ARC
  5
C9
330
62
100
AcDbEntity
  8
0
  6
CONTINUOUS
 62
     7
100
AcDbCircle
 10
5.587955502797215
 20
9.32049065818674
 30
0.0
 40
0.0890000000000002
100
AcDbArc
 50
282.9863608540645
 51
347.0136391459349
  0
LINE
  5
CA
330
62
100
AcDbEntity
  8
0
  6
CONTINUOUS
 62
     7
100
AcDbLine
 10
5.674679201980311
 20
9.300490658186738
 30
0.0
 11
5.648455502797216
 21
9.300490658186738
 31
0.0
  0
LINE
  5
CB
330
62
100
AcDbEntity
  8
0
  6
CONTINUOUS
 62
     7
100
AcDbLine
 10
5.527455502797216
 20
9.300490658186738
 30
0.0
 11
5.50123180361412
 21
9.300490658186738
 31
0.0
  0
LINE
  5
CC
330
62
100
AcDbEntity
  8
0
  6
CONTINUOUS
 62
     7
100
AcDbLine
 10
5.607955502797215
 20
9.233766959003643
 30
0.0
 11
5.607955502797215
 21
9.259990658186739
 31
0.0
  0
LINE
  5
CD
330
62
100
AcDbEntity
  8
0
  6
CONTINUOUS
 62
     7
100
AcDbLine
 10
5.648455502797215
 20
9.300490658186738
 30
0.0
 11
5.648455502797215
 21
9.340490658186739
 31
0.0
  0
LINE
  5
CE
330
62
100
AcDbEntity
  8
0
  6
CONTINUOUS
 62
     7
100
AcDbLine
 10
5.678818457951212
 20
9.300490658186738
 30
0.0
 11
5.678818457951212
 21
9.340490658186739
 31
0.0
  0
LINE
  5
CF
330
62
100
AcDbEntity
  8
0
  6
CONTINUOUS
 62
     7
100
AcDbLine
 10
5.678818457951212
 20
9.300490658186738
 30
0.0
 11
5.67467920198031
 21
9.300490658186738
 31
0.0
  0
LINE
  5
D0
330
62
100
AcDbEntity
  8
0
  6
CONTINUOUS
 62
     7
100
AcDbLine
 10
5.674679201980311
 20
9.340490658186739
 30
0.0
 11
5.648455502797216
 21
9.340490658186739
 31
0.0
  0
LINE
  5
D1
330
62
100
AcDbEntity
  8
0
  6
CONTINUOUS
 62
     7
100
AcDbLine
 10
5.527455502797216
 20
9.340490658186739
 30
0.0
 11
5.527455502797216
 21
9.300490658186738
 31
0.0
  0
LINE
  5
D2
330
62
100
AcDbEntity
  8
0
  6
CONTINUOUS
 62
     7
100
AcDbLine
 10
5.50123180361412
 20
9.300490658186738
 30
0.0
 11
5.49709254764319
 21
9.300490658186738
 31
0.0
  0
LINE
  5
D3
330
62
100
AcDbEntity
  8
0
  6
CONTINUOUS
 62
     7
100
AcDbLine
 10
5.49709254764319
 20
9.340490658186739
 30
0.0
 11
5.49709254764319
 21
9.300490658186738
 31
0.0
  0
LINE
  5
D4
330
62
100
AcDbEntity
  8
0
  6
CONTINUOUS
 62
     7
100
AcDbLine
 10
5.50123180361412
 20
9.340490658186739
 30
0.0
 11
5.49709254764319
 21
9.340490658186739
 31
0.0
  0
LINE
  5
D5
330
62
100
AcDbEntity
  8
0
  6
CONTINUOUS
 62
     7
100
AcDbLine
 10
5.678818457951212
 20
9.340490658186739
 30
0.0
 11
5.67467920198031
 21
9.340490658186739
 31
0.0
  0
LINE
  5
D6
330
62
100
AcDbEntity
  8
0
  6
CONTINUOUS
 62
     7
100
AcDbLine
 10
5.527455502797216
 20
9.340490658186739
 30
0.0
 11
5.50123180361412
 21
9.340490658186739
 31
0.0
  0
LINE
  5
D7
330
62
100
AcDbEntity
  8
0
  6
CONTINUOUS
 62
     7
100
AcDbLine
 10
5.607955502797215
 20
9.407214357369834
 30
0.0
 11
5.607955502797215
 21
9.411353613340764
 31
0.0
  0
LINE
  5
D8
330
62
100
AcDbEntity
  8
0
  6
CONTINUOUS
 62
     7
100
AcDbLine
 10
5.607955502797215
 20
9.380990658186739
 30
0.0
 11
5.607955502797215
 21
9.407214357369834
 31
0.0
  0
LINE
  5
D9
330
62
100
AcDbEntity
  8
0
  6
CONTINUOUS
 62
     7
100
AcDbLine
 10
5.607955502797215
 20
9.229627703032482
 30
0.0
 11
5.607955502797215
 21
9.233766959003643
 31
0.0
  0
LINE
  5
DA
330
62
100
AcDbEntity
  8
0
  6
CONTINUOUS
 62
     7
100
AcDbLine
 10
5.607955502797215
 20
9.411353613340764
 30
0.0
 11
5.567955502797215
 21
9.411353613340764
 31
0.0
  0
LINE
  5
DB
330
62
100
AcDbEntity
  8
0
  6
CONTINUOUS
 62
     7
100
AcDbLine
 10
5.607955502797215
 20
9.380990658186739
 30
0.0
 11
5.567955502797215
 21
9.380990658186739
 31
0.0
  0
LINE
  5
DC
330
62
100
AcDbEntity
  8
0
  6
CONTINUOUS
 62
     7
100
AcDbLine
 10
5.567955502797216
 20
9.259990658186739
 30
0.0
 11
5.607955502797216
 21
9.259990658186739
 31
0.0
  0
LINE
  5
DD
330
62
100
AcDbEntity
  8
0
  6
CONTINUOUS
 62
     7
100
AcDbLine
 10
5.567955502797216
 20
9.229627703032482
 30
0.0
 11
5.607955502797216
 21
9.229627703032482
 31
0.0
  0
LINE
  5
DE
330
62
100
AcDbEntity
  8
0
  6
CONTINUOUS
 62
     7
100
AcDbLine
 10
5.567955502797216
 20
9.229627703032482
 30
0.0
 11
5.567955502797216
 21
9.233766959003643
 31
0.0
  0
LINE
  5
DF
330
62
100
AcDbEntity
  8
0
  6
CONTINUOUS
 62
     7
100
AcDbLine
 10
5.567955502797216
 20
9.407214357369834
 30
0.0
 11
5.567955502797216
 21
9.411353613340764
 31
0.0
  0
ARC
  5
E0
330
62
100
AcDbEntity
  8
0
  6
CONTINUOUS
 62
     7
100
AcDbCircle
 10
5.527455502797216
 20
9.259990658186739
 30
0.0
 40
0.0405
100
AcDbArc
 50
0.0
 51
90.0
  0
ARC
  5
E1
330
62
100
AcDbEntity
  8
0
  6
CONTINUOUS
 62
     7
100
AcDbCircle
 10
5.648455502797215
 20
9.259990658186739
 30
0.0
 40
0.0405
100
AcDbArc
 50
90.0
 51
180.0
  0
LINE
  5
E2
330
62
100
AcDbEntity
  8
0
  6
CONTINUOUS
 62
     7
100
AcDbLine
 10
5.567955502797216
 20
9.380990658186739
 30
0.0
 11
5.567955502797216
 21
9.407214357369834
 31
0.0
  0
ARC
  5
E3
330
62
100
AcDbEntity
  8
0
  6
CONTINUOUS
 62
     7
100
AcDbCircle
 10
5.527455502797216
 20
9.380990658186739
 30
0.0
 40
0.0405
100
AcDbArc
 50
270.0
 51
360.0
  0
ARC
  5
E4
330
62
100
AcDbEntity
  8
0
  6
CONTINUOUS
 62
     7
100
AcDbCircle
 10
5.648455502797215
 20
9.380990658186739
 30
0.0
 40
0.0405
100
AcDbArc
 50
180.0
 51
270.0
  0
LINE
  5
E5
330
62
100
AcDbEntity
  8
0
  6
CONTINUOUS
 62
     7
100
AcDbLine
 10
5.567955502797216
 20
9.233766959003643
 30
0.0
 11
5.567955502797216
 21
9.259990658186739
 31
0.0
  0
ENDBLK
  5
E6
330
62
100
AcDbEntity
  8
0
  6
CONTINUOUS
 62
     7
100
AcDbBlockEnd
  0
BLOCK
  5
FE
330
64
100
AcDbEntity
  8
0
 62
     1
 48
0.0
100
AcDbBlockBegin
  2
SE4
 70
     0
 10
0.0
 20
0.0
 30
0.0
  3
SE4
  1

  0
INSERT
  5
FF
330
64
100
AcDbEntity
  8
0
 62
     0
 48
0.0
100
AcDbBlockReference
  2
SE5
 10
0.0
 20
0.0
 30
0.0
  0
ENDBLK
  5
100
330
64
100
AcDbEntity
  8
0
 62
     0
 48
0.0
100
AcDbBlockEnd
  0
BLOCK
  5
EA
330
65
100
AcDbEntity
  8
0
 62
     1
 48
0.0
100
AcDbBlockBegin
  2
SE5
 70
     0
 10
0.0
 20
0.0
 30
0.0
  3
SE5
  1

  0
LINE
  5
EB
330
65
100
AcDbEntity
  8
0
  6
CONTINUOUS
 62
     7
100
AcDbLine
 10
18.3522080930617
 20
4.15621181867544
 30
0.0
 11
12.1732645370968
 21
4.15621181867544
 31
0.0
  0
LINE
  5
EC
330
65
100
AcDbEntity
  8
0
  6
CONTINUOUS
 62
     7
100
AcDbLine
 10
15.56091610615465
 20
4.16121181867544
 30
0.0
 11
15.50869805703793
 21
4.16121181867544
 31
0.0
  0
LINE
  5
ED
330
65
100
AcDbEntity
  8
0
  6
CONTINUOUS
 62
     7
100
AcDbLine
 10
15.49989382079967
 20
4.16121181867544
 30
0.0
 11
15.50049453968049
 21
4.16121181867544
 31
0.0
  0
LINE
  5
EE
330
65
100
AcDbEntity
  8
0
  6
CONTINUOUS
 62
     7
100
AcDbLine
 10
15.49989382079967
 20
4.16121181867544
 30
0.0
 11
15.44903336815536
 21
4.16121181867544
 31
0.0
  0
LINE
  5
EF
330
65
100
AcDbEntity
  8
0
  6
CONTINUOUS
 62
     7
100
AcDbLine
 10
15.44903336815536
 20
4.16121181867544
 30
0.0
 11
15.41902459122607
 21
4.16121181867544
 31
0.0
  0
LINE
  5
F0
330
65
100
AcDbEntity
  8
0
  6
CONTINUOUS
 62
     7
100
AcDbLine
 10
15.41902459122607
 20
4.16121181867544
 30
0.0
 11
15.04026341404868
 21
4.16121181867544
 31
0.0
  0
LINE
  5
F1
330
65
100
AcDbEntity
  8
0
  6
CONTINUOUS
 62
     7
100
AcDbLine
 10
15.04026341404868
 20
4.16121181867544
 30
0.0
 11
15.02370057977994
 21
4.16121181867544
 31
0.0
  0
LINE
  5
F2
330
65
100
AcDbEntity
  8
0
  6
CONTINUOUS
 62
     7
100
AcDbLine
 10
12.14326910624603
 20
4.125688246257984
 30
0.0
 11
12.14607105682617
 21
3.965164673840452
 31
0.0
  0
LINE
  5
F3
330
65
100
AcDbEntity
  8
0
  6
CONTINUOUS
 62
     7
100
AcDbLine
 10
18.37940157333233
 20
3.965164673840452
 30
0.0
 11
18.38220352391248
 21
4.125688246257984
 31
0.0
  0
ARC
  5
F4
330
65
100
AcDbEntity
  8
0
  6
CONTINUOUS
 62
     7
100
AcDbCircle
 10
18.3522080930617
 20
4.12621181867544
 30
0.0
 40
0.03
100
AcDbArc
 50
358.9999995714819
 51
90.0
  0
ARC
  5
F5
330
65
100
AcDbEntity
  8
0
  6
CONTINUOUS
 62
     7
100
AcDbCircle
 10
12.1732645370968
 20
4.12621181867544
 30
0.0
 40
0.03
100
AcDbArc
 50
90.0
 51
181.0000004285181
  0
LINE
  5
F6
330
65
100
AcDbEntity
  8
0
  6
CONTINUOUS
 62
     7
100
AcDbLine
 10
15.56091610615465
 20
4.15621181867544
 30
0.0
 11
15.56091610615465
 21
4.16121181867544
 31
0.0
  0
ARC
  5
F7
330
65
100
AcDbEntity
  8
0
  6
CONTINUOUS
 62
     7
100
AcDbCircle
 10
12.20606191852773
 20
3.966211818675441
 30
0.0
 40
0.0600000000000003
100
AcDbArc
 50
181.0000004285911
 51
270.0
  0
LINE
  5
F8
330
65
100
AcDbEntity
  8
0
  6
CONTINUOUS
 62
     7
100
AcDbLine
 10
15.02370057977993
 20
4.16121181867544
 30
0.0
 11
15.02370057977993
 21
4.15621181867544
 31
0.0
  0
LINE
  5
F9
330
65
100
AcDbEntity
  8
0
  6
CONTINUOUS
 62
     7
100
AcDbLine
 10
15.50869805703793
 20
4.16121181867544
 30
0.0
 11
15.50869805703793
 21
4.15621181867544
 31
0.0
  0
ARC
  5
FA
330
65
100
AcDbEntity
  8
0
  6
CONTINUOUS
 62
     7
100
AcDbCircle
 10
18.31941071163078
 20
3.966211818675441
 30
0.0
 40
0.06
100
AcDbArc
 50
270.0
 51
358.9999995714088
  0
LINE
  5
FB
330
65
100
AcDbEntity
  8
0
  6
CONTINUOUS
 62
     7
100
AcDbLine
 10
15.5004945396805
 20
4.15621181867544
 30
0.0
 11
15.5004945396805
 21
4.16121181867544
 31
0.0
  0
LINE
  5
FC
330
65
100
AcDbEntity
  8
0
  6
CONTINUOUS
 62
     7
100
AcDbLine
 10
12.20606191852773
 20
3.906211818675441
 30
0.0
 11
18.31941071163078
 21
3.906211818675441
 31
0.0
  0
ENDBLK
  5
FD
330
65
100
AcDbEntity
  8
0
  6
CONTINUOUS
 62
     7
100
AcDbBlockEnd
  0
BLOCK
  5
163
330
67
100
AcDbEntity
  8
0
 62
     1
 48
0.0
100
AcDbBlockBegin
  2
SE6
 70
     0
 10
0.0
 20
0.0
 30
0.0
  3
SE6
  1

  0
INSERT
  5
164
330
67
100
AcDbEntity
  8
0
 62
     0
 48
0.0
100
AcDbBlockReference
  2
SE7
 10
0.0
 20
0.0
 30
0.0
  0
ENDBLK
  5
165
330
67
100
AcDbEntity
  8
0
 62
     0
 48
0.0
100
AcDbBlockEnd
  0
BLOCK
  5
101
330
68
100
AcDbEntity
  8
0
 62
     1
 48
0.0
100
AcDbBlockBegin
  2
SE7
 70
     0
 10
0.0
 20
0.0
 30
0.0
  3
SE7
  1

  0
ELLIPSE
  5
102
330
68
100
AcDbEntity
  8
0
  6
CONTINUOUS
 62
     7
100
AcDbEllipse
 10
14.87729806201572
 20
11.21113661551139
 30
0.0
 11
3.089471777982446
 21
0.0
 31
0.0
210
0.0
220
0.0
230
1.0
 40
0.5773502691895598
 41
0.0
 42
6.283185307179586
  0
ELLIPSE
  5
103
330
68
100
AcDbEntity
  8
0
  6
CONTINUOUS
 62
     7
100
AcDbEllipse
 10
14.87729806201572
 20
11.18621422299484
 30
0.0
 11
-3.119467208833224
 21
0.0000000000000003
 31
0.0
210
0.0
220
0.0
230
1.0
 40
0.5773502691895592
 41
0.0000000000000002
 42
0.0973097338975348
  0
ELLIPSE
  5
104
330
68
100
AcDbEntity
  8
0
  6
CONTINUOUS
 62
     7
100
AcDbEllipse
 10
14.87729806201572
 20
11.18621422299484
 30
0.0
 11
-3.119467208833224
 21
0.0000000000000003
 31
0.0
210
0.0
220
0.0
230
1.0
 40
0.5773502691895592
 41
0.0973097338975348
 42
3.043808765095966
  0
ELLIPSE
  5
105
330
68
100
AcDbEntity
  8
0
  6
CONTINUOUS
 62
     7
100
AcDbEllipse
 10
14.87729806201572
 20
11.18621422299484
 30
0.0
 11
-3.119467208833224
 21
0.0000000000000003
 31
0.0
210
0.0
220
0.0
230
1.0
 40
0.5773502691895592
 41
3.043808765095966
 42
3.209430949280828
  0
ELLIPSE
  5
106
330
68
100
AcDbEntity
  8
0
  6
CONTINUOUS
 62
     7
100
AcDbEllipse
 10
14.87729806201572
 20
11.18621422299484
 30
0.0
 11
-3.119467208833224
 21
0.0000000000000003
 31
0.0
210
0.0
220
0.0
230
1.0
 40
0.5773502691895592
 41
6.209399338841097
 42
6.283185307179586
  0
ELLIPSE
  5
107
330
68
100
AcDbEntity
  8
0
  6
CONTINUOUS
 62
     7
100
AcDbEllipse
 10
13.06156230904352
 20
12.13488269794161
 30
0.0
 11
0.0311381284252499
 21
-0.0000000000000006
 31
0.0
210
0.0
220
0.0
230
1.0
 40
0.5773502691895624
 41
2.356194490192354
 42
3.656840955494538
  0
ELLIPSE
  5
108
330
68
100
AcDbEntity
  8
0
  6
CONTINUOUS
 62
     7
100
AcDbEllipse
 10
13.06156230904352
 20
12.13080021503697
 30
0.0
 11
0.03113812842525
 21
0.0000000000000001
 31
0.0
210
0.0
220
0.0
230
1.0
 40
0.5773502691895636
 41
3.14159265358979
 42
3.656840955494532
  0
ELLIPSE
  5
109
330
68
100
AcDbEntity
  8
0
  6
CONTINUOUS
 62
     7
100
AcDbEllipse
 10
13.42644638235714
 20
12.27501355685256
 30
0.0
 11
-0.0261090245583611
 21
-0.0000000000000002
 31
0.0
210
0.0
220
0.0
230
1.0
 40
0.5773502691895641
 41
0.0
 42
6.283185307179586
  0
LINE
  5
10A
330
68
100
AcDbEntity
  8
0
  6
CONTINUOUS
 62
     7
100
AcDbLine
 10
13.12837391898959
 20
12.02619706460052
 30
0.0
 11
13.03446683143471
 21
12.12194173256766
 31
0.0
  0
LINE
  5
10B
330
68
100
AcDbEntity
  8
0
  6
CONTINUOUS
 62
     7
100
AcDbLine
 10
13.05711335828806
 20
12.13658749476521
 30
0.0
 11
13.11278877224221
 21
12.16873170999888
 31
0.0
  0
LINE
  5
10C
330
68
100
AcDbEntity
  8
0
  6
CONTINUOUS
 62
     7
100
AcDbLine
 10
13.20474870062245
 20
12.14669565010189
 30
0.0
 11
13.20849508649215
 21
12.08426162729869
 31
0.0
  0
ELLIPSE
  5
10D
330
68
100
AcDbEntity
  8
0
  6
CONTINUOUS
 62
     7
100
AcDbEllipse
 10
13.42644638235714
 20
12.27093107394792
 30
0.0
 11
-0.0261090245583611
 21
0.0000000000000002
 31
0.0
210
0.0
220
0.0
230
1.0
 40
0.57735026918956
 41
0.0
 42
3.141592653589793
  0
LINE
  5
10E
330
68
100
AcDbEntity
  8
0
  6
CONTINUOUS
 62
     7
100
AcDbLine
 10
13.27130269040452
 20
12.21678110269103
 30
0.0
 11
13.28956405217083
 21
12.1315750394213
 31
0.0
  0
LINE
  5
10F
330
68
100
AcDbEntity
  8
0
  6
CONTINUOUS
 62
     7
100
AcDbLine
 10
13.31053581293163
 20
12.24041581976643
 30
0.0
 11
13.31144411175336
 21
12.21251313950453
 31
0.0
  0
LINE
  5
110
330
68
100
AcDbEntity
  8
0
  6
CONTINUOUS
 62
     7
100
AcDbLine
 10
13.03042418061827
 20
12.13488269794161
 30
0.0
 11
13.03042418061827
 21
12.13080021503697
 31
0.0
  0
LINE
  5
111
330
68
100
AcDbEntity
  8
0
  6
CONTINUOUS
 62
     7
100
AcDbLine
 10
13.2923281185677
 20
12.27265098323139
 30
0.0
 11
13.36875961348677
 21
12.24549917606997
 31
0.0
  0
LINE
  5
112
330
68
100
AcDbEntity
  8
0
  6
CONTINUOUS
 62
     7
100
AcDbLine
 10
13.24738238652807
 20
12.24596828891066
 30
0.0
 11
13.29337526079227
 21
12.23640059040337
 31
0.0
  0
LINE
  5
113
330
68
100
AcDbEntity
  8
0
  6
CONTINUOUS
 62
     7
100
AcDbLine
 10
13.17960105196332
 20
12.20710288754418
 30
0.0
 11
13.25890011771939
 21
12.18814498726699
 31
0.0
  0
LINE
  5
114
330
68
100
AcDbEntity
  8
0
  6
CONTINUOUS
 62
     7
100
AcDbLine
 10
13.11278877224221
 20
12.16873170999888
 30
0.0
 11
13.18311726105696
 21
12.14442230866955
 31
0.0
  0
LINE
  5
115
330
68
100
AcDbEntity
  8
0
  6
CONTINUOUS
 62
     7
100
AcDbLine
 10
13.42232269633882
 20
12.18285836056671
 30
0.0
 11
13.15449809950649
 21
12.02822975748998
 31
0.0
  0
ELLIPSE
  5
116
330
68
100
AcDbEntity
  8
0
  6
CONTINUOUS
 62
     7
100
AcDbEllipse
 10
13.40030471457587
 20
12.19557044826456
 30
0.0
 11
-0.03113812842525
 21
-0.0000000000000005
 31
0.0
210
0.0
220
0.0
230
1.0
 40
0.5773502691895636
 41
2.356194490192412
 42
3.656840955494525
  0
LINE
  5
117
330
68
100
AcDbEntity
  8
0
  6
CONTINUOUS
 62
     7
100
AcDbLine
 10
13.3334931046298
 20
12.30017359870102
 30
0.0
 11
13.42740019218469
 21
12.20442893073388
 31
0.0
  0
ELLIPSE
  5
118
330
68
100
AcDbEntity
  8
0
  6
CONTINUOUS
 62
     7
100
AcDbEllipse
 10
13.31908061654
 20
12.29546163994074
 30
0.0
 11
-0.0165628342687495
 21
0.0000000000000003
 31
0.0
210
0.0
220
0.0
230
1.0
 40
0.5773502691895508
 41
3.65684095549451
 42
5.497787143782204
  0
LINE
  5
119
330
68
100
AcDbEntity
  8
0
  6
CONTINUOUS
 62
     7
100
AcDbLine
 10
13.03954432728057
 20
12.14759478563946
 30
0.0
 11
13.3073689241129
 21
12.30222338871619
 31
0.0
  0
LINE
  5
11A
330
68
100
AcDbEntity
  8
0
  6
CONTINUOUS
 62
     7
100
AcDbLine
 10
13.20474870062245
 20
12.15077813300653
 30
0.0
 11
13.20874524661757
 21
12.08417515817376
 31
0.0
  0
LINE
  5
11B
330
68
100
AcDbEntity
  8
0
  6
CONTINUOUS
 62
     7
100
AcDbLine
 10
13.20874524661757
 20
12.08417515817376
 30
0.0
 11
13.0526903256495
 21
12.13811633858534
 31
0.0
  0
LINE
  5
11C
330
68
100
AcDbEntity
  8
0
  6
CONTINUOUS
 62
     7
100
AcDbLine
 10
13.0526903256495
 20
12.13811633858534
 30
0.0
 11
13.11278877224221
 21
12.17281419290352
 31
0.0
  0
LINE
  5
11D
330
68
100
AcDbEntity
  8
0
  6
CONTINUOUS
 62
     7
100
AcDbLine
 10
13.12837391898959
 20
12.03027954750516
 30
0.0
 11
13.03446683143471
 21
12.1260242154723
 31
0.0
  0
ELLIPSE
  5
11E
330
68
100
AcDbEntity
  8
0
  6
CONTINUOUS
 62
     7
100
AcDbEllipse
 10
13.14278640707939
 20
12.03499150626544
 30
0.0
 11
0.0165628342687498
 21
0.0000000000000001
 31
0.0
210
0.0
220
0.0
230
1.0
 40
0.5773502691895543
 41
3.656840955494528
 42
5.497787143782324
  0
LINE
  5
11F
330
68
100
AcDbEntity
  8
0
  6
CONTINUOUS
 62
     7
100
AcDbLine
 10
13.34550778846664
 20
12.23207472863545
 30
0.0
 11
13.31053581293163
 21
12.24449830267107
 31
0.0
  0
LINE
  5
120
330
68
100
AcDbEntity
  8
0
  6
CONTINUOUS
 62
     7
100
AcDbLine
 10
13.31053581293163
 20
12.24449830267107
 30
0.0
 11
13.31157791237516
 21
12.21248530554047
 31
0.0
  0
LINE
  5
121
330
68
100
AcDbEntity
  8
0
  6
CONTINUOUS
 62
     7
100
AcDbLine
 10
13.31157791237516
 20
12.21248530554047
 30
0.0
 11
13.27130269040452
 21
12.22086358559566
 31
0.0
  0
LINE
  5
122
330
68
100
AcDbEntity
  8
0
  6
CONTINUOUS
 62
     7
100
AcDbLine
 10
13.27130269040452
 20
12.22086358559566
 30
0.0
 11
13.29048363179393
 21
12.13136683685845
 31
0.0
  0
LINE
  5
123
330
68
100
AcDbEntity
  8
0
  6
CONTINUOUS
 62
     7
100
AcDbLine
 10
13.29048363179393
 20
12.13136683685845
 30
0.0
 11
13.20474870062245
 21
12.15077813300653
 31
0.0
  0
LINE
  5
124
330
68
100
AcDbEntity
  8
0
  6
CONTINUOUS
 62
     7
100
AcDbLine
 10
13.25890011771939
 20
12.19222747017163
 30
0.0
 11
13.24646659936657
 21
12.25024127905361
 31
0.0
  0
LINE
  5
125
330
68
100
AcDbEntity
  8
0
  6
CONTINUOUS
 62
     7
100
AcDbLine
 10
13.24646659936657
 20
12.25024127905361
 30
0.0
 11
13.29337526079227
 21
12.24048307330801
 31
0.0
  0
LINE
  5
126
330
68
100
AcDbEntity
  8
0
  6
CONTINUOUS
 62
     7
100
AcDbLine
 10
13.29337526079227
 20
12.24048307330801
 30
0.0
 11
13.29219366923167
 21
12.27678122841581
 31
0.0
  0
LINE
  5
127
330
68
100
AcDbEntity
  8
0
  6
CONTINUOUS
 62
     7
100
AcDbLine
 10
13.29219366923167
 20
12.27678122841582
 30
0.0
 11
13.37313717010114
 21
12.24802655955967
 31
0.0
  0
LINE
  5
128
330
68
100
AcDbEntity
  8
0
  6
CONTINUOUS
 62
     7
100
AcDbLine
 10
13.37313717010114
 20
12.24802655955967
 30
0.0
 11
13.34550778846664
 21
12.23207472863545
 31
0.0
  0
LINE
  5
129
330
68
100
AcDbEntity
  8
0
  6
CONTINUOUS
 62
     7
100
AcDbLine
 10
13.25890011771939
 20
12.19222747017163
 30
0.0
 11
13.25890011771939
 21
12.18814498726699
 31
0.0
  0
LINE
  5
12A
330
68
100
AcDbEntity
  8
0
  6
CONTINUOUS
 62
     7
100
AcDbLine
 10
13.18311726105696
 20
12.14850479157419
 30
0.0
 11
13.18311726105696
 21
12.14442230866955
 31
0.0
  0
LINE
  5
12B
330
68
100
AcDbEntity
  8
0
  6
CONTINUOUS
 62
     7
100
AcDbLine
 10
13.11278877224221
 20
12.17281419290352
 30
0.0
 11
13.18311726105696
 21
12.14850479157419
 31
0.0
  0
LINE
  5
12C
330
68
100
AcDbEntity
  8
0
  6
CONTINUOUS
 62
     7
100
AcDbLine
 10
13.18311726105696
 20
12.14850479157419
 30
0.0
 11
13.17935251509608
 21
12.21124478775847
 31
0.0
  0
LINE
  5
12D
330
68
100
AcDbEntity
  8
0
  6
CONTINUOUS
 62
     7
100
AcDbLine
 10
13.17935251509608
 20
12.21124478775847
 30
0.0
 11
13.25890011771939
 21
12.19222747017163
 31
0.0
  0
LINE
  5
12E
330
68
100
AcDbEntity
  8
0
  6
CONTINUOUS
 62
     7
100
AcDbLine
 10
13.29337526079227
 20
12.24048307330801
 30
0.0
 11
13.29337526079227
 21
12.23640059040337
 31
0.0
  0
LINE
  5
12F
330
68
100
AcDbEntity
  8
0
  6
CONTINUOUS
 62
     7
100
AcDbLine
 10
13.31053581293163
 20
12.24449830267107
 30
0.0
 11
13.31053581293163
 21
12.24041581976643
 31
0.0
  0
LINE
  5
130
330
68
100
AcDbEntity
  8
0
  6
CONTINUOUS
 62
     7
100
AcDbLine
 10
13.27130269040452
 20
12.22086358559566
 30
0.0
 11
13.27130269040452
 21
12.21678110269103
 31
0.0
  0
LINE
  5
131
330
68
100
AcDbEntity
  8
0
  6
CONTINUOUS
 62
     7
100
AcDbLine
 10
13.20474870062245
 20
12.15077813300653
 30
0.0
 11
13.20474870062245
 21
12.14669565010189
 31
0.0
  0
LINE
  5
132
330
68
100
AcDbEntity
  8
0
  6
CONTINUOUS
 62
     7
100
AcDbLine
 10
13.11278877224221
 20
12.17281419290352
 30
0.0
 11
13.11278877224221
 21
12.16873170999888
 31
0.0
  0
LINE
  5
133
330
68
100
AcDbEntity
  8
0
  6
CONTINUOUS
 62
     7
100
AcDbLine
 10
13.03446683143471
 20
12.1260242154723
 30
0.0
 11
13.03446683143471
 21
12.12194173256766
 31
0.0
  0
LINE
  5
134
330
68
100
AcDbEntity
  8
0
  6
CONTINUOUS
 62
     7
100
AcDbLine
 10
13.42232269633882
 20
12.18285836056671
 30
0.0
 11
13.42232269633882
 21
12.17877587766207
 31
0.0
  0
LINE
  5
135
330
68
100
AcDbEntity
  8
0
  6
CONTINUOUS
 62
     7
100
AcDbLine
 10
13.15449809950649
 20
12.02822975748998
 30
0.0
 11
13.15449809950649
 21
12.02414727458534
 31
0.0
  0
LINE
  5
136
330
68
100
AcDbEntity
  8
0
  6
CONTINUOUS
 62
     7
100
AcDbLine
 10
13.12837391898959
 20
12.03027954750516
 30
0.0
 11
13.12837391898959
 21
12.02619706460052
 31
0.0
  0
LINE
  5
137
330
68
100
AcDbEntity
  8
0
  6
CONTINUOUS
 62
     7
100
AcDbLine
 10
11.75806847170111
 20
11.16398488883537
 30
0.0
 11
11.76087020884887
 21
11.03293790750771
 31
0.0
  0
LINE
  5
138
330
68
100
AcDbEntity
  8
0
  6
CONTINUOUS
 62
     7
100
AcDbLine
 10
17.99372591518257
 20
11.03293790750771
 30
0.0
 11
17.99652765233032
 21
11.16398488883537
 31
0.0
  0
SPLINE
  5
139
330
68
100
AcDbEntity
  8
0
  6
CONTINUOUS
 62
     7
100
AcDbSpline
210
0.0
220
0.0
230
1.0
 70
     8
 71
     3
 72
   218
 73
   214
 74
     0
 42
0.0000000001
 43
0.0000000001
 40
0.0
 40
0.0
 40
0.0
 40
0.0
 40
0.0008274176241219
 40
0.0008274176241219
 40
0.0008274176241219
 40
0.0149844218903383
 40
0.0149844218903383
 40
0.0149844218903383
 40
0.0291465640819113
 40
0.0291465640819113
 40
0.0291465640819113
 40
0.0433162002376468
 40
0.0433162002376468
 40
0.0433162002376468
 40
0.0574952786944301
 40
0.0574952786944301
 40
0.0574952786944301
 40
0.0716852658889462
 40
0.0716852658889462
 40
0.0716852658889462
 40
0.085887114251553
 40
0.085887114251553
 40
0.085887114251553
 40
0.1001012703597714
 40
0.1001012703597714
 40
0.1001012703597714
 40
0.1143277170838719
 40
0.1143277170838719
 40
0.1143277170838719
 40
0.1285660405818947
 40
0.1285660405818947
 40
0.1285660405818947
 40
0.1428155118934151
 40
0.1428155118934151
 40
0.1428155118934151
 40
0.1570751733725014
 40
0.1570751733725014
 40
0.1570751733725014
 40
0.1713439218575306
 40
0.1713439218575306
 40
0.1713439218575306
 40
0.1856205827550736
 40
0.1856205827550736
 40
0.1856205827550736
 40
0.1999039716065077
 40
0.1999039716065077
 40
0.1999039716065077
 40
0.2141929418278717
 40
0.2141929418278717
 40
0.2141929418278717
 40
0.2284864189495002
 40
0.2284864189495002
 40
0.2284864189495002
 40
0.2427834227685565
 40
0.2427834227685565
 40
0.2427834227685565
 40
0.2570830794096057
 40
0.2570830794096057
 40
0.2570830794096057
 40
0.2713846254716259
 40
0.2713846254716259
 40
0.2713846254716259
 40
0.2856874063477859
 40
0.2856874063477859
 40
0.2856874063477859
 40
0.2999908705502546
 40
0.2999908705502546
 40
0.2999908705502546
 40
0.3142945239127768
 40
0.3142945239127768
 40
0.3142945239127768
 40
0.3285979264800244
 40
0.3285979264800244
 40
0.3285979264800244
 40
0.3429008058993909
 40
0.3429008058993909
 40
0.3429008058993909
 40
0.3572029523589939
 40
0.3572029523589939
 40
0.3572029523589939
 40
0.3715042095614236
 40
0.3715042095614236
 40
0.3715042095614236
 40
0.3858044665127171
 40
0.3858044665127171
 40
0.3858044665127171
 40
0.4001036502053408
 40
0.4001036502053408
 40
0.4001036502053408
 40
0.4144017192056814
 40
0.4144017192056814
 40
0.4144017192056814
 40
0.4286986581105288
 40
0.4286986581105288
 40
0.4286986581105288
 40
0.4429944728096211
 40
0.4429944728096211
 40
0.4429944728096211
 40
0.4572891864772405
 40
0.4572891864772405
 40
0.4572891864772405
 40
0.4715828362106436
 40
0.4715828362106436
 40
0.4715828362106436
 40
0.4858754702339775
 40
0.4858754702339775
 40
0.4858754702339775
 40
0.5001671455906834
 40
0.5001671455906834
 40
0.5001671455906834
 40
0.5144579262537134
 40
0.5144579262537134
 40
0.5144579262537134
 40
0.5287478815902404
 40
0.5287478815902404
 40
0.5287478815902404
 40
0.5430370851249046
 40
0.5430370851249046
 40
0.5430370851249046
 40
0.5573256135527786
 40
0.5573256135527786
 40
0.5573256135527786
 40
0.5716135459598688
 40
0.5716135459598688
 40
0.5716135459598688
 40
0.5859009632148834
 40
0.5859009632148834
 40
0.5859009632148834
 40
0.6001879475011448
 40
0.6001879475011448
 40
0.6001879475011448
 40
0.6144745819619759
 40
0.6144745819619759
 40
0.6144745819619759
 40
0.6287609504366837
 40
0.6287609504366837
 40
0.6287609504366837
 40
0.6430471372672352
 40
0.6430471372672352
 40
0.6430471372672352
 40
0.6573332271582966
 40
0.6573332271582966
 40
0.6573332271582966
 40
0.6716193050750555
 40
0.6716193050750555
 40
0.6716193050750555
 40
0.6859054413929351
 40
0.6859054413929351
 40
0.6859054413929351
 40
0.7001917077754813
 40
0.7001917077754813
 40
0.7001917077754813
 40
0.7144781895609533
 40
0.7144781895609533
 40
0.7144781895609533
 40
0.7287649720760472
 40
0.7287649720760472
 40
0.7287649720760472
 40
0.7430521405301054
 40
0.7430521405301054
 40
0.7430521405301054
 40
0.7573397798714404
 40
0.7573397798714404
 40
0.7573397798714404
 40
0.7716279745888098
 40
0.7716279745888098
 40
0.7716279745888098
 40
0.785916808440275
 40
0.785916808440275
 40
0.785916808440275
 40
0.8002063640891593
 40
0.8002063640891593
 40
0.8002063640891593
 40
0.8144967226235626
 40
0.8144967226235626
 40
0.8144967226235626
 40
0.8287879629320876
 40
0.8287879629320876
 40
0.8287879629320876
 40
0.8430801609037787
 40
0.8430801609037787
 40
0.8430801609037787
 40
0.857373388414917
 40
0.857373388414917
 40
0.857373388414917
 40
0.8716677120592077
 40
0.8716677120592077
 40
0.8716677120592077
 40
0.8859631915710156
 40
0.8859631915710156
 40
0.8859631915710156
 40
0.9002598778838935
 40
0.9002598778838935
 40
0.9002598778838935
 40
0.9145578107589289
 40
0.9145578107589289
 40
0.9145578107589289
 40
0.9288570159097819
 40
0.9288570159097819
 40
0.9288570159097819
 40
0.9431575015445291
 40
0.9431575015445291
 40
0.9431575015445291
 40
0.9574592542397212
 40
0.9574592542397212
 40
0.9574592542397212
 40
0.9717622340608553
 40
0.9717622340608553
 40
0.9717622340608553
 40
0.9860663688481988
 40
0.9860663688481988
 40
0.9860663688481988
 40
1.0
 40
1.0
 40
1.0
 40
1.0
 10
17.98936732068269
 20
11.31105272851099
 30
0.0
 10
17.98925145710742
 20
11.31232123298533
 30
0.0
 10
17.98915138313383
 20
11.31341398568966
 30
0.0
 10
17.98904599133912
 20
11.31451209286971
 30
0.0
 10
17.98724275190611
 20
11.33330055903174
 30
0.0
 10
17.98388273364573
 20
11.35365653456053
 30
0.0
 10
17.98024334079908
 20
11.37354868426472
 30
0.0
 10
17.97660262712717
 20
11.39344805331973
 30
0.0
 10
17.97268233604835
 20
11.41288325982142
 30
0.0
 10
17.96814347586449
 20
11.4323843784361
 30
0.0
 10
17.96360221392142
 20
11.45189581615944
 30
0.0
 10
17.95844172806259
 20
11.47147323576963
 30
0.0
 10
17.95275729463632
 20
11.49096028425478
 30
0.0
 10
17.94706907324182
 20
11.51046031843528
 30
0.0
 10
17.94085620575537
 20
11.52986986100836
 30
0.0
 10
17.93409835922604
 20
11.54921696780577
 30
0.0
 10
17.92733531351712
 20
11.56857895938675
 30
0.0
 10
17.92002644987859
 20
11.58787841908461
 30
0.0
 10
17.91218323185432
 20
11.60709429029455
 30
0.0
 10
17.90433345781797
 20
11.62632622372324
 30
0.0
 10
17.8959484357071
 20
11.64547442886521
 30
0.0
 10
17.88703183000471
 20
11.66453137904794
 30
0.0
 10
17.87810749690572
 20
11.6836048445524
 30
0.0
 10
17.86865065844355
 20
11.70258689686055
 30
0.0
 10
17.85866775201942
 20
11.72146672721693
 30
0.0
 10
17.84867621363238
 20
11.74036288247793
 30
0.0
 10
17.83815769713514
 20
11.75915663893334
 30
0.0
 10
17.82711853474127
 20
11.77783840061743
 30
0.0
 10
17.81607015643856
 20
11.79653575854029
 30
0.0
 10
17.80450026256672
 20
11.81512093461886
 30
0.0
 10
17.79241581969106
 20
11.83358431910114
 30
0.0
 10
17.78032191537035
 20
11.85206215938412
 30
0.0
 10
17.76771265600405
 20
11.87041801728409
 30
0.0
 10
17.75459542021343
 20
11.88864257586849
 30
0.0
 10
17.7414688039463
 20
11.90688016730875
 30
0.0
 10
17.72783348446077
 20
11.92498627157519
 30
0.0
 10
17.71369729589842
 20
11.9429517605091
 30
0.0
 10
17.69955209901357
 20
11.96092869799702
 30
0.0
 10
17.68490539448829
 20
11.97876484088034
 30
0.0
 10
17.66976545039024
 20
11.99645125843139
 30
0.0
 10
17.65461711077781
 20
12.01414748358623
 30
0.0
 10
17.63897498441118
 20
12.03169381730915
 30
0.0
 10
17.62284777375366
 20
12.04908150842866
 30
0.0
 10
17.60671296306065
 20
12.06647739359193
 30
0.0
 10
17.59009261077181
 20
12.0837144865942
 30
0.0
 10
17.57299585133052
 20
12.10078420932807
 30
0.0
 10
17.555892411168
 20
12.11786060221831
 30
0.0
 10
17.53831219145906
 20
12.13476949401154
 30
0.0
 10
17.5202647586165
 20
12.15150247448121
 30
0.0
 10
17.50221163341273
 20
12.16824073271917
 30
0.0
 10
17.48369100030044
 20
12.1848029686473
 30
0.0
 10
17.4647128574822
 20
12.20118093850776
 30
0.0
 10
17.44573003209674
 20
12.21756294938244
 30
0.0
 10
17.42628947121041
 20
12.23376060324857
 30
0.0
 10
17.40640160426732
 20
12.24976582406676
 30
0.0
 10
17.38651004711253
 20
12.26577401466816
 30
0.0
 10
17.36617101788951
 20
12.28158970080276
 30
0.0
 10
17.34539537578267
 20
12.29720497780178
 30
0.0
 10
17.32461698857958
 20
12.31282231805536
 30
0.0
 10
17.30340187310529
 20
12.32823919620955
 30
0.0
 10
17.28176131556852
 20
12.34344788450193
 30
0.0
 10
17.26011888955778
 20
12.3586578859323
 30
0.0
 10
17.23805094801495
 20
12.37365966154855
 30
0.0
 10
17.21556920006982
 20
12.38844566748628
 30
0.0
 10
17.19308637804196
 20
12.40323237983677
 30
0.0
 10
17.17018971007102
 20
12.41780330189114
 30
0.0
 10
17.14689132266403
 20
12.43215108172573
 30
0.0
 10
17.12359262714119
 20
12.44649905130644
 30
0.0
 10
17.09989220155692
 20
12.46062387276534
 30
0.0
 10
17.07580258271695
 20
12.47451839493216
 30
0.0
 10
17.05171338625595
 20
12.48841267347726
 30
0.0
 10
17.02723501018708
 20
12.5020766608062
 30
0.0
 10
17.0023803930389
 20
12.51550341579306
 30
0.0
 10
16.97752668494997
 20
12.52892967969548
 30
0.0
 10
16.95229676330332
 20
12.54211872860908
 30
0.0
 10
16.92670395875813
 20
12.55506384077875
 30
0.0
 10
16.90111246573179
 20
12.56800828956827
 30
0.0
 10
16.87515812699828
 20
12.58070882661459
 30
0.0
 10
16.84885465454383
 20
12.59315895889276
 30
0.0
 10
16.82255281754681
 20
12.60560831706548
 30
0.0
 10
16.79590189024333
 20
12.61780730160766
 30
0.0
 10
16.76891595406349
 20
12.62974965745859
 30
0.0
 10
16.74193190532005
 20
12.64169117804344
 30
0.0
 10
16.71461289456066
 20
12.65337610583378
 30
0.0
 10
16.68697335979578
 20
12.66479843273873
 30
0.0
 10
16.65933589942512
 20
12.67621990237857
 30
0.0
 10
16.63137796315892
 20
12.68737881054882
 30
0.0
 10
16.60311433184722
 20
12.69826940482448
 30
0.0
 10
16.57485290382575
 20
12.7091591501243
 30
0.0
 10
16.54628582841782
 20
12.71978062336071
 30
0.0
 10
16.51742821478858
 20
12.7301283361038
 30
0.0
 10
16.48857288201693
 20
12.74047523098095
 30
0.0
 10
16.45942705694948
 20
12.75054840863822
 30
0.0
 10
16.4300061618444
 20
12.76034265256271
 30
0.0
 10
16.40058758018137
 20
12.77013612634013
 30
0.0
 10
16.37089397173796
 20
12.77965071024962
 30
0.0
 10
16.34094105602313
 20
12.78888146718246
 30
0.0
 10
16.31099044721445
 20
12.79811151318318
 30
0.0
 10
16.28078057107533
 20
12.80705777592499
 30
0.0
 10
16.25032742797247
 20
12.81571560473835
 30
0.0
 10
16.21987655145162
 20
12.82437278916242
 30
0.0
 10
16.18918244417768
 20
12.83274158259185
 30
0.0
 10
16.15826137049333
 20
12.84081762736867
 30
0.0
 10
16.12734249406764
 20
12.84889309825987
 30
0.0
 10
16.09619668348696
 20
12.85667586210254
 30
0.0
 10
16.06484044975458
 20
12.86416186035493
 30
0.0
 10
16.03348631921567
 20
12.87164735649017
 30
0.0
 10
16.00192179375204
 20
12.87883612684439
 30
0.0
 10
15.97016361332795
 20
12.88572441762727
 30
0.0
 10
15.93840742104329
 20
12.89261227718638
 30
0.0
 10
15.90645759804398
 20
12.89919969479448
 30
0.0
 10
15.87433109521578
 20
12.90548322657934
 30
0.0
 10
15.84220644776938
 20
12.91176639547533
 30
0.0
 10
15.80990514090088
 20
12.9177457136473
 30
0.0
 10
15.77744431807796
 20
12.92341805184149
 30
0.0
 10
15.74498520303555
 20
12.92909009161106
 30
0.0
 10
15.71236658882271
 20
12.93445518370273
 30
0.0
 10
15.67960579288581
 20
12.93951051771839
 30
0.0
 10
15.64684654476337
 20
12.94456561289006
 30
0.0
 10
15.61394512835156
 20
12.94931097925465
 30
0.0
 10
15.58091901624176
 20
12.95374412904747
 30
0.0
 10
15.54789428175802
 20
12.95817709391926
 30
0.0
 10
15.51474486197899
 20
12.96229786826586
 30
0.0
 10
15.4814883656078
 20
12.96610429027793
 30
0.0
 10
15.44823306830116
 20
12.96991057504927
 30
0.0
 10
15.41487070212351
 20
12.97340253015364
 30
0.0
 10
15.38141899268576
 20
12.97657832260667
 30
0.0
 10
15.3479682969753
 20
12.97975401881985
 30
0.0
 10
15.31442826341959
 20
12.98261357154352
 30
0.0
 10
15.28081671518963
 20
12.98515547903888
 30
0.0
 10
15.2472059899587
 20
12.9876973242941
 30
0.0
 10
15.21352375355562
 20
12.98992153987629
 30
0.0
 10
15.17978790724614
 20
12.99182695726663
 30
0.0
 10
15.14605268902489
 20
12.99373233918224
 30
0.0
 10
15.11226386289341
 20
12.99531893477655
 30
0.0
 10
15.07843938865394
 20
12.99658591028134
 30
0.0
 10
15.04461534447603
 20
12.99785286967716
 30
0.0
 10
15.01075565309662
 20
12.99880021711102
 30
0.0
 10
14.97687831322777
 20
12.99942745465395
 30
0.0
 10
14.94300120323496
 20
13.00005468794074
 30
0.0
 10
14.9091064449922
 20
13.00036181568081
 30
0.0
 10
14.87521205644859
 20
13.00034867643256
 30
0.0
 10
14.84131769631454
 20
13.00033553719533
 30
0.0
 10
14.80742370587901
 20
13.00000213150665
 30
0.0
 10
14.77354810263763
 20
12.9993486346208
 30
0.0
 10
14.73967236091365
 20
12.99869513506347
 30
0.0
 10
14.70581500653414
 20
12.99772154169191
 30
0.0
 10
14.67199403679029
 20
12.99642836622371
 30
0.0
 10
14.63817275913162
 20
12.99513517898212
 30
0.0
 10
14.60438786677111
 20
12.99352240382473
 30
0.0
 10
14.5706573170749
 20
12.99159088825665
 30
0.0
 10
14.53692625880221
 20
12.98965934356591
 30
0.0
 10
14.50324954483255
 20
12.9874090488527
 30
0.0
 10
14.46964507299116
 20
12.9848411862941
 30
0.0
 10
14.43603989377756
 20
12.98227326968214
 30
0.0
 10
14.40250695973366
 20
12.97938777185508
 30
0.0
 10
14.36906408959694
 20
12.97618620810503
 30
0.0
 10
14.33562031604431
 20
12.97298455786888
 30
0.0
 10
14.30226661126485
 20
12.96946682463327
 30
0.0
 10
14.2690206954586
 20
12.96563485480493
 30
0.0
 10
14.23577368390838
 20
12.96180275867963
 30
0.0
 10
14.20263446843666
 20
12.95765640524755
 30
0.0
 10
14.16962065138035
 20
12.9531979695853
 30
0.0
 10
14.13660555104118
 20
12.94873936061881
 30
0.0
 10
14.10371585886636
 20
12.94396864515973
 30
0.0
 10
14.07096904014413
 20
12.93888832405791
 30
0.0
 10
14.03822075660365
 20
12.93380777570511
 30
0.0
 10
14.00561535929797
 20
12.92841759401063
 30
0.0
 10
13.97317015748845
 20
12.92272060226531
 30
0.0
 10
13.94072331671641
 20
12.91702332273766
 30
0.0
 10
13.90843668762542
 20
12.9110192021615
 30
0.0
 10
13.876327404561
 20
12.90471138242622
 30
0.0
 10
13.84421631737622
 20
12.89840320827424
 30
0.0
 10
13.81228259614761
 20
12.89179130083436
 30
0.0
 10
13.78054318208736
 20
12.88487911650535
 30
0.0
 10
13.74880180957422
 20
12.87796650566603
 30
0.0
 10
13.71725476820929
 20
12.87075358087979
 30
0.0
 10
13.68591878650481
 20
12.86324410772136
 30
0.0
 10
13.65458070496051
 20
12.85573413134938
 30
0.0
 10
13.62345371136404
 20
12.84792756686017
 30
0.0
 10
13.59255430831827
 20
12.83982848613705
 30
0.0
 10
13.56165267943191
 20
12.83172882199611
 30
0.0
 10
13.53097867388643
 20
12.82333659947689
 30
0.0
 10
13.50054853294047
 20
12.81465618251186
 30
0.0
 10
13.47011605833779
 20
12.80597509985445
 30
0.0
 10
13.43992748573953
 20
12.79700577854685
 30
0.0
 10
13.40999884428204
 20
12.78775290064015
 30
0.0
 10
13.38006778273491
 20
12.77849927452729
 30
0.0
 10
13.35039669436734
 20
12.76896204595555
 30
0.0
 10
13.32100113135642
 20
12.75914608845097
 30
0.0
 10
13.29160308682
 20
12.74932930229927
 30
0.0
 10
13.26248061416099
 20
12.73923374015304
 30
0.0
 10
13.23364969815661
 20
12.72886490820662
 30
0.0
 10
13.20481626831595
 20
12.71849517217702
 30
0.0
 10
13.17627444597517
 20
12.70785211869105
 30
0.0
 10
13.14803717704327
 20
12.69694020620926
 30
0.0
 10
13.11979739546883
 20
12.68602732275058
 30
0.0
 10
13.09186222150595
 20
12.67484553244608
 30
0.0
 10
13.06425444585223
 20
12.66340448250832
 30
0.0
 10
13.03664419794137
 20
12.65196240803247
 30
0.0
 10
13.00936140697888
 20
12.64026102748824
 30
0.0
 10
12.98239054887853
 20
12.62829186119477
 30
0.0
 10
12.95541730108958
 20
12.61632163440185
 30
0.0
 10
12.92875604144136
 20
12.60408357440455
 30
0.0
 10
12.90253262181609
 20
12.5916380619712
 30
0.0
 10
12.87630695215622
 20
12.57919148168194
 30
0.0
 10
12.85051919765805
 20
12.56653741335522
 30
0.0
 10
12.8247658206206
 20
12.55348037379388
 30
0.0
 10
12.79901036399689
 20
12.54042227987605
 30
0.0
 10
12.77328929038609
 20
12.52696114964107
 30
0.0
 10
12.7491732541067
 20
12.51385763148962
 30
0.0
 10
12.72568186791969
 20
12.50109351877482
 30
0.0
 10
12.70371344900268
 20
12.48866873243451
 30
0.0
 10
12.67771161751987
 20
12.47389405199463
 30
0.0
  0
SPLINE
  5
13A
330
68
100
AcDbEntity
  8
0
  6
CONTINUOUS
 62
     7
100
AcDbSpline
210
0.0
220
0.0
230
1.0
 70
     8
 71
     3
 72
    74
 73
    70
 74
     0
 42
0.0000000001
 43
0.0000000001
 40
0.0
 40
0.0
 40
0.0
 40
0.0
 40
0.0241900038041772
 40
0.0241900038041772
 40
0.0241900038041772
 40
0.0701193131294879
 40
0.0701193131294879
 40
0.0701193131294879
 40
0.11605248631071
 40
0.11605248631071
 40
0.11605248631071
 40
0.1619863052960353
 40
0.1619863052960353
 40
0.1619863052960353
 40
0.2079191328556674
 40
0.2079191328556674
 40
0.2079191328556674
 40
0.2538493208324204
 40
0.2538493208324204
 40
0.2538493208324204
 40
0.2997748921329573
 40
0.2997748921329573
 40
0.2997748921329573
 40
0.3456935164310537
 40
0.3456935164310537
 40
0.3456935164310537
 40
0.3916024962654694
 40
0.3916024962654694
 40
0.3916024962654694
 40
0.4374987690150465
 40
0.4374987690150465
 40
0.4374987690150465
 40
0.4833789312939775
 40
0.4833789312939775
 40
0.4833789312939775
 40
0.529239292961349
 40
0.529239292961349
 40
0.529239292961349
 40
0.5750759678784649
 40
0.5750759678784649
 40
0.5750759678784649
 40
0.6208850073625396
 40
0.6208850073625396
 40
0.6208850073625396
 40
0.666662579565589
 40
0.666662579565589
 40
0.666662579565589
 40
0.7124051934616228
 40
0.7124051934616228
 40
0.7124051934616228
 40
0.7581099597551202
 40
0.7581099597551202
 40
0.7581099597551202
 40
0.8037748732878485
 40
0.8037748732878485
 40
0.8037748732878485
 40
0.8493990934619555
 40
0.8493990934619555
 40
0.8493990934619555
 40
0.8949831923995617
 40
0.8949831923995617
 40
0.8949831923995617
 40
0.940529336918121
 40
0.940529336918121
 40
0.940529336918121
 40
0.986041371655148
 40
0.986041371655148
 40
0.986041371655148
 40
1.0
 40
1.0
 40
1.0
 40
1.0
 10
12.67771161751987
 20
12.47389405199463
 30
0.0
 10
12.66382021631963
 20
12.4658044373843
 30
0.0
 10
12.65203910465691
 20
12.45892195739299
 30
0.0
 10
12.63998905526759
 20
12.45173618525338
 30
0.0
 10
12.6171097514747
 20
12.43809263422243
 30
0.0
 10
12.59326092117918
 20
12.42335570823234
 30
0.0
 10
12.5701864825217
 20
12.40863179292311
 30
0.0
 10
12.54711010270056
 20
12.39390663894759
 30
0.0
 10
12.52480824481612
 20
12.3791944978421
 30
0.0
 10
12.50282877643983
 20
12.36420828391789
 30
0.0
 10
12.48084899904002
 20
12.34922185929282
 30
0.0
 10
12.4591916202138
 20
12.33396135414225
 30
0.0
 10
12.43799247559413
 20
12.31851334714587
 30
0.0
 10
12.41679378853225
 20
12.30306567357597
 30
0.0
 10
12.39605331589628
 20
12.28743050625418
 30
0.0
 10
12.37574881033458
 20
12.2715945323746
 30
0.0
 10
12.35544547159469
 20
12.25575946852751
 30
0.0
 10
12.33557804982381
 20
12.23972362120112
 30
0.0
 10
12.31616611477003
 20
12.2235006677268
 30
0.0
 10
12.29675613090833
 20
12.20727934490383
 30
0.0
 10
12.27780154220178
 20
12.19087095354501
 30
0.0
 10
12.25931017236043
 20
12.17428215932901
 30
0.0
 10
12.24082159964468
 20
12.15769587444258
 30
0.0
 10
12.22279610566569
 20
12.14092924127266
 30
0.0
 10
12.20524411738765
 20
12.12399102063257
 30
0.0
 10
12.18769581562062
 20
12.10705635759152
 30
0.0
 10
12.17062082067102
 20
12.08995017915107
 30
0.0
 10
12.15402831800667
 20
12.07268090163426
 30
0.0
 10
12.13744040795883
 20
12.05541640405757
 30
0.0
 10
12.12133472313642
 20
12.03798889767999
 30
0.0
 10
12.10572023731832
 20
12.0204071121382
 30
0.0
 10
12.09011123248375
 20
12.00283149813983
 30
0.0
 10
12.0749930818735
 20
11.98510171326812
 30
0.0
 10
12.06037426996329
 20
11.967226631031
 30
0.0
 10
12.04576176712876
 20
11.94935926318594
 30
0.0
 10
12.03164817208568
 20
11.93134672336106
 30
0.0
 10
12.01804155381924
 20
11.91319809148364
 30
0.0
 10
12.0044419633336
 20
11.8950588333245
 30
0.0
 10
11.99134882605563
 20
11.87678362365886
 30
0.0
 10
11.97876975960152
 20
11.85838173043047
 30
0.0
 10
11.96619827720426
 20
11.83999093190493
 30
0.0
 10
11.95414024593985
 20
11.82147360252842
 30
0.0
 10
11.94260286553402
 20
11.80283929019398
 30
0.0
 10
11.9310734104197
 20
11.78421777819653
 30
0.0
 10
11.92006389111556
 20
11.76547944390252
 30
0.0
 10
11.90958092950717
 20
11.74663386141089
 30
0.0
 10
11.89910597327287
 20
11.72780267045702
 30
0.0
 10
11.88915677082375
 20
11.7088643950444
 30
0.0
 10
11.87973987662547
 20
11.68982966012313
 30
0.0
 10
11.87033077399917
 20
11.67081067460969
 30
0.0
 10
11.86145309912062
 20
11.65169538914347
 30
0.0
 10
11.85311132468699
 20
11.6324917384154
 30
0.0
 10
11.84477682395298
 20
11.61330483251638
 30
0.0
 10
11.83697728950307
 20
11.59402971539041
 30
0.0
 10
11.82972247250415
 20
11.57468563716779
 30
0.0
 10
11.8224741204878
 20
11.55535879702692
 30
0.0
 10
11.81576951552727
 20
11.53596311864119
 30
0.0
 10
11.80959607455745
 20
11.51647700041589
 30
0.0
 10
11.80342806241654
 20
11.49700801798281
 30
0.0
 10
11.79779028048223
 20
11.47744875470304
 30
0.0
 10
11.79275051913154
 20
11.45793118167719
 30
0.0
 10
11.78771495400758
 20
11.4384298594529
 30
0.0
 10
11.78327641402913
 20
11.41897015808682
 30
0.0
 10
11.77920001557378
 20
11.39911288092939
 30
0.0
 10
11.77512666995775
 20
11.37927047500624
 30
0.0
 10
11.77141492364799
 20
11.35903108856255
 30
0.0
 10
11.76895488074074
 20
11.34008585408206
 30
0.0
 10
11.76820038086278
 20
11.33427531433037
 30
0.0
 10
11.76756362380031
 20
11.32858651036331
 30
0.0
 10
11.76682718312173
 20
11.32192592109192
 30
0.0
  0
LINE
  5
13B
330
68
100
AcDbEntity
  8
0
  6
CONTINUOUS
 62
     7
100
AcDbLine
 10
13.4525554069155
 20
12.27093107394792
 30
0.0
 11
13.4525554069155
 21
12.27501355685256
 31
0.0
  0
SPLINE
  5
13C
330
68
100
AcDbEntity
  8
0
  6
CONTINUOUS
 62
     7
100
AcDbSpline
210
0.0
220
0.0
230
1.0
 70
     8
 71
     3
 72
   218
 73
   214
 74
     0
 42
0.0000000001
 43
0.0000000001
 40
0.0
 40
0.0
 40
0.0
 40
0.0
 40
0.0080525022072219
 40
0.0080525022072219
 40
0.0080525022072219
 40
0.0220523255753807
 40
0.0220523255753807
 40
0.0220523255753807
 40
0.0360622521825859
 40
0.0360622521825859
 40
0.0360622521825859
 40
0.0500866265207703
 40
0.0500866265207703
 40
0.0500866265207703
 40
0.0641290691673936
 40
0.0641290691673936
 40
0.0641290691673936
 40
0.0781923452580108
 40
0.0781923452580108
 40
0.0781923452580108
 40
0.0922782999072431
 40
0.0922782999072431
 40
0.0922782999072431
 40
0.1063878599137964
 40
0.1063878599137964
 40
0.1063878599137964
 40
0.1205210943550636
 40
0.1205210943550636
 40
0.1205210943550636
 40
0.1346773215139979
 40
0.1346773215139979
 40
0.1346773215139979
 40
0.1488552465945988
 40
0.1488552465945988
 40
0.1488552465945988
 40
0.1630531140588089
 40
0.1630531140588089
 40
0.1630531140588089
 40
0.1772688599006271
 40
0.1772688599006271
 40
0.1772688599006271
 40
0.1915002521668876
 40
0.1915002521668876
 40
0.1915002521668876
 40
0.2057450117809358
 40
0.2057450117809358
 40
0.2057450117809358
 40
0.2200009095020682
 40
0.2200009095020682
 40
0.2200009095020682
 40
0.2342658381135457
 40
0.2342658381135457
 40
0.2342658381135457
 40
0.248537861370513
 40
0.248537861370513
 40
0.248537861370513
 40
0.2628152427807546
 40
0.2628152427807546
 40
0.2628152427807546
 40
0.2770964580269561
 40
0.2770964580269561
 40
0.2770964580269561
 40
0.2913801949526257
 40
0.2913801949526257
 40
0.2913801949526257
 40
0.3056653447314582
 40
0.3056653447314582
 40
0.3056653447314582
 40
0.3199509214141945
 40
0.3199509214141945
 40
0.3199509214141945
 40
0.3342360266945131
 40
0.3342360266945131
 40
0.3342360266945131
 40
0.3485201099173989
 40
0.3485201099173989
 40
0.3485201099173989
 40
0.3628027465918488
 40
0.3628027465918488
 40
0.3628027465918488
 40
0.3770836204028167
 40
0.3770836204028167
 40
0.3770836204028167
 40
0.3913625067260839
 40
0.3913625067260839
 40
0.3913625067260839
 40
0.405639257870073
 40
0.405639257870073
 40
0.405639257870073
 40
0.4199137901018821
 40
0.4199137901018821
 40
0.4199137901018821
 40
0.4341860724093222
 40
0.4341860724093222
 40
0.4341860724093222
 40
0.4484561168862383
 40
0.4484561168862383
 40
0.4484561168862383
 40
0.4627239705936242
 40
0.4627239705936242
 40
0.4627239705936242
 40
0.4769897087344512
 40
0.4769897087344512
 40
0.4769897087344512
 40
0.4912534289791803
 40
0.4912534289791803
 40
0.4912534289791803
 40
0.5055152467863037
 40
0.5055152467863037
 40
0.5055152467863037
 40
0.5197752915742143
 40
0.5197752915742143
 40
0.5197752915742143
 40
0.5340337036151816
 40
0.5340337036151816
 40
0.5340337036151816
 40
0.5482906315369871
 40
0.5482906315369871
 40
0.5482906315369871
 40
0.5625462303324144
 40
0.5625462303324144
 40
0.5625462303324144
 40
0.576800659790119
 40
0.576800659790119
 40
0.576800659790119
 40
0.5910540832726387
 40
0.5910540832726387
 40
0.5910540832726387
 40
0.6053066667778081
 40
0.6053066667778081
 40
0.6053066667778081
 40
0.6195585782290097
 40
0.6195585782290097
 40
0.6195585782290097
 40
0.6338099869473068
 40
0.6338099869473068
 40
0.6338099869473068
 40
0.6480610632647615
 40
0.6480610632647615
 40
0.6480610632647615
 40
0.6623119782431902
 40
0.6623119782431902
 40
0.6623119782431902
 40
0.6765629034664363
 40
0.6765629034664363
 40
0.6765629034664363
 40
0.6908139698725967
 40
0.6908139698725967
 40
0.6908139698725967
 40
0.7050653333612286
 40
0.7050653333612286
 40
0.7050653333612286
 40
0.7193171662247503
 40
0.7193171662247503
 40
0.7193171662247503
 40
0.7335696406836569
 40
0.7335696406836569
 40
0.7335696406836569
 40
0.7478229286474971
 40
0.7478229286474971
 40
0.7478229286474971
 40
0.7620772013892726
 40
0.7620772013892726
 40
0.7620772013892726
 40
0.7763326290979382
 40
0.7763326290979382
 40
0.7763326290979382
 40
0.7905893802707091
 40
0.7905893802707091
 40
0.7905893802707091
 40
0.8048476209012203
 40
0.8048476209012203
 40
0.8048476209012203
 40
0.8191075134124332
 40
0.8191075134124332
 40
0.8191075134124332
 40
0.8333692152748522
 40
0.8333692152748522
 40
0.8333692152748522
 40
0.8476328772403414
 40
0.8476328772403414
 40
0.8476328772403414
 40
0.8618986411104497
 40
0.8618986411104497
 40
0.8618986411104497
 40
0.8761666369447459
 40
0.8761666369447459
 40
0.8761666369447459
 40
0.8904369796003599
 40
0.8904369796003599
 40
0.8904369796003599
 40
0.9047097644782839
 40
0.9047097644782839
 40
0.9047097644782839
 40
0.9189850623365117
 40
0.9189850623365117
 40
0.9189850623365117
 40
0.9332629130152922
 40
0.9332629130152922
 40
0.9332629130152922
 40
0.9475433179083459
 40
0.9475433179083459
 40
0.9475433179083459
 40
0.9618262310079638
 40
0.9618262310079638
 40
0.9618262310079638
 40
0.9761115483563825
 40
0.9761115483563825
 40
0.9761115483563825
 40
0.9903990957560223
 40
0.9903990957560223
 40
0.9903990957560223
 40
1.0
 40
1.0
 40
1.0
 40
1.0
 10
11.76591168779365
 20
10.9534028690964
 30
0.0
 10
11.76703682586925
 20
10.94080576422936
 30
0.0
 10
11.76801820332864
 20
10.93011682479678
 30
0.0
 10
11.76932736782651
 20
10.91906193329949
 30
0.0
 10
11.77160343944478
 20
10.89984225172308
 30
0.0
 10
11.77487028639269
 20
10.87951643648372
 30
0.0
 10
11.77856683786118
 20
10.8595376661368
 30
0.0
 10
11.78226605701641
 20
10.83954447772993
 30
0.0
 10
11.7863956011249
 20
10.81989883529934
 30
0.0
 10
11.79110152431941
 20
10.80022671953909
 30
0.0
 10
11.79581230049525
 20
10.78053431691765
 30
0.0
 10
11.80110064515144
 20
10.76081538633717
 30
0.0
 10
11.80692186866079
 20
10.74118554610431
 30
0.0
 10
11.81275059194584
 20
10.72153041575872
 30
0.0
 10
11.81911356803791
 20
10.70196460546779
 30
0.0
 10
11.82601635212273
 20
10.68247175572214
 30
0.0
 10
11.83292937721541
 20
10.66294998627899
 30
0.0
 10
11.84038381321313
 20
10.64350139403102
 30
0.0
 10
11.84837088837041
 20
10.62414445714024
 30
0.0
 10
11.85637084355301
 20
10.60475630508841
 30
0.0
 10
11.86490515715718
 20
10.58546010424054
 30
0.0
 10
11.87396816984445
 20
10.56626438408323
 30
0.0
 10
11.88304637040207
 20
10.547036495582
 30
0.0
 10
11.892655043524
 20
10.52790942482624
 30
0.0
 10
11.90278704862424
 20
10.50889380508555
 30
0.0
 10
11.9129360542187
 20
10.48984627903114
 30
0.0
 10
11.92361014946258
 20
10.47091057831296
 30
0.0
 10
11.9348020203801
 20
10.45209624321367
 30
0.0
 10
11.94601209884446
 20
10.43325129992652
 30
0.0
 10
11.95774163904432
 20
10.4145281174679
 30
0.0
 10
11.96998285888991
 20
10.39593605227641
 30
0.0
 10
11.98224284143452
 20
10.37731549014365
 30
0.0
 10
11.99501607337835
 20
10.35882644752537
 30
0.0
 10
12.0082944232558
 20
10.34047790726509
 30
0.0
 10
12.0215914501925
 20
10.32210355831794
 30
0.0
 10
12.03539501703959
 20
10.30387010726234
 30
0.0
 10
12.04969663531842
 20
10.28578626798075
 30
0.0
 10
12.06401626262097
 20
10.26767965699009
 30
0.0
 10
12.07883519646739
 20
10.24972303480189
 30
0.0
 10
12.09414460492641
 20
10.23192486747188
 30
0.0
 10
12.10947086353916
 20
10.21410711075956
 30
0.0
 10
12.12528867703103
 20
10.19644815790102
 30
0.0
 10
12.14158886809986
 20
10.1789562638392
 30
0.0
 10
12.15790436971028
 20
10.16144793988584
 30
0.0
 10
12.17470315550428
 20
10.14410698870857
 30
0.0
 10
12.19197569822398
 20
10.12694147853764
 30
0.0
 10
12.20926174650191
 20
10.1097625464982
 30
0.0
 10
12.22702229286489
 20
10.0927593299302
 30
0.0
 10
12.24524745210785
 20
10.07593972955783
 30
0.0
 10
12.26348415670685
 20
10.05910947422921
 30
0.0
 10
12.2821860630224
 20
10.04246306780595
 30
0.0
 10
12.30134291898089
 20
10.02600825592153
 30
0.0
 10
12.32050930257919
 20
10.00954526025574
 30
0.0
 10
12.34013108847031
 20
9.99327404975482
 30
0.0
 10
12.36019764898992
 20
9.977202221777309
 30
0.0
 10
12.38027174310901
 20
9.96112435994488
 30
0.0
 10
12.40079094588323
 20
9.945246030372539
 30
0.0
 10
12.42174424654792
 20
9.929574684053255
 30
0.0
 10
12.44270317370079
 20
9.913899129583379
 30
0.0
 10
12.46409643190784
 20
9.898430669541905
 30
0.0
 10
12.48591262162372
 20
9.883176606480859
 30
0.0
 10
12.5077326634934
 20
9.867919849961518
 30
0.0
 10
12.52997578624182
 20
9.852877566142796
 30
0.0
 10
12.55263019806234
 20
9.838056903918813
 30
0.0
 10
12.57528685070803
 20
9.823234775732553
 30
0.0
 10
12.59835487379386
 20
9.808634312985894
 30
0.0
 10
12.6218220821226
 20
9.794262503340929
 30
0.0
 10
12.64528999175605
 20
9.779890264202277
 30
0.0
 10
12.66915711049164
 20
9.765746691831871
 30
0.0
 10
12.69341086114691
 20
9.751838603307298
 30
0.0
 10
12.7176638114651
 20
9.737930973728607
 30
0.0
 10
12.74230336818687
 20
9.724258812454783
 30
0.0
 10
12.76731656613393
 20
9.710828755367806
 30
0.0
 10
12.79232797445996
 20
9.697399659162067
 30
0.0
 10
12.81771297054733
 20
9.684212632500724
 30
0.0
 10
12.84345820675061
 20
9.671274119126843
 30
0.0
 10
12.86920083573504
 20
9.658336916035603
 30
0.0
 10
12.89530363187608
 20
9.645648175900515
 30
0.0
 10
12.9217528725834
 20
9.633214139041829
 30
0.0
 10
12.94819884873939
 20
9.620781636879431
 30
0.0
 10
12.97499118394568
 20
9.60860377512278
 30
0.0
 10
13.00211578993242
 20
9.596686579360159
 30
0.0
 10
13.02923662095262
 20
9.584771042129103
 30
0.0
 10
13.0566896302746
 20
9.57311609834268
 30
0.0
 10
13.08446037477686
 20
9.561727547724522
 30
0.0
 10
13.11222696660804
 20
9.550340700082125
 30
0.0
 10
13.14031119860217
 20
9.539220165944266
 30
0.0
 10
13.16869828498634
 20
9.528371508370867
 30
0.0
 10
13.19708095941074
 20
9.517524536910658
 30
0.0
 10
13.22576639409242
 20
9.50694935751062
 30
0.0
 10
13.25473947400881
 20
9.496651286210809
 30
0.0
 10
13.28370798724396
 20
9.486354838073228
 30
0.0
 10
13.31296405504479
 20
9.476335410688264
 30
0.0
 10
13.34249224758663
 20
9.466598063238265
 30
0.0
 10
13.37201581023892
 20
9.456862242561131
 30
0.0
 10
13.40181141230301
 20
9.447408413368135
 30
0.0
 10
13.43186332450728
 20
9.438241368713235
 30
0.0
 10
13.46191062307396
 20
9.429075731403779
 30
0.0
 10
13.49221415308825
 20
9.420196790583553
 30
0.0
 10
13.5227579019727
 20
9.411609064503798
 30
0.0
 10
13.55329712198161
 20
9.403022611769458
 30
0.0
 10
13.58407648962905
 20
9.394727287422236
 30
0.0
 10
13.61507972585249
 20
9.386727326847685
 30
0.0
 10
13.646078576652
 20
9.378728497871728
 30
0.0
 10
13.67730123269935
 20
9.37102494911563
 30
0.0
 10
13.70873116585475
 20
9.363620625652476
 30
0.0
 10
13.74015690701216
 20
9.356217289748189
 30
0.0
 10
13.77178986998973
 20
9.349113099323236
 30
0.0
 10
13.8036132954851
 20
9.342311702305652
 30
0.0
 10
13.83543276471447
 20
9.335511150832983
 30
0.0
 10
13.86744264910824
 20
9.329013317486236
 30
0.0
 10
13.89962597655293
 20
9.322821546823462
 30
0.0
 10
13.93180561907024
 20
9.316630485106195
 30
0.0
 10
13.96415866492296
 20
9.310745415989769
 30
0.0
 10
13.99666794791412
 20
9.305169375035854
 30
0.0
 10
14.0291738471028
 20
9.299593914476812
 30
0.0
 10
14.06183595090701
 20
9.294327417751834
 30
0.0
 10
14.09463691809636
 20
9.289372606387722
 30
0.0
 10
14.12743482735971
 20
9.284418256944334
 30
0.0
 10
14.16037157411786
 20
9.279775534749724
 30
0.0
 10
14.19342966143278
 20
9.275446842834325
 30
0.0
 10
14.22648503710653
 20
9.271118505986633
 30
0.0
 10
14.25966173343155
 20
9.267104147902619
 30
0.0
 10
14.29294211732131
 20
9.26340584922112
 30
0.0
 10
14.32622015252077
 20
9.259707811538962
 30
0.0
 10
14.35960186065044
 20
9.256325788650492
 30
0.0
 10
14.3930694922303
 20
9.253261535463963
 30
0.0
 10
14.42653515150838
 20
9.250197462858839
 30
0.0
 10
14.46008672410973
 20
9.247451122503392
 30
0.0
 10
14.49370636407725
 20
9.245023940783575
 30
0.0
 10
14.52732441877341
 20
9.242596873512979
 30
0.0
 10
14.56101053441671
 20
9.240488934780067
 30
0.0
 10
14.59474678861904
 20
9.238701220196272
 30
0.0
 10
14.62848185278274
 20
9.236913568673697
 30
0.0
 10
14.66226705196828
 20
9.235446118708972
 30
0.0
 10
14.69608440750292
 20
9.234299633419897
 30
0.0
 10
14.72990097427921
 20
9.233153174871524
 30
0.0
 10
14.76374969590459
 20
9.232327666026572
 30
0.0
 10
14.79761255763909
 20
9.23182353631814
 30
0.0
 10
14.83147503600598
 20
9.23131941231705
 30
0.0
 10
14.86535165416183
 20
9.231136660175739
 30
0.0
 10
14.8992243815655
 20
9.231275374976243
 30
0.0
 10
14.93309713331989
 20
9.231414089876469
 30
0.0
 10
14.96696599431649
 20
9.231874272180709
 30
0.0
 10
15.00081293848392
 20
9.232655682475582
 30
0.0
 10
15.03466021797065
 20
9.233437100511833
 30
0.0
 10
15.06848558019395
 20
9.234539752903515
 30
0.0
 10
15.10227102399588
 20
9.235963066125247
 30
0.0
 10
15.13605717210041
 20
9.23738640901784
 30
0.0
 10
15.16980340011925
 20
9.239130426109827
 30
0.0
 10
15.20349175210403
 20
9.241194210675123
 30
0.0
 10
15.23718121362943
 20
9.243258063212069
 30
0.0
 10
15.27081279530834
 20
9.245641704286034
 30
0.0
 10
15.30436860657736
 20
9.248343895405618
 30
0.0
 10
15.3379259284769
 20
9.251046208173649
 30
0.0
 10
15.37140747314426
 20
9.254067099669203
 30
0.0
 10
15.40479543548837
 20
9.257405001599863
 30
0.0
 10
15.43818530355574
 20
9.260743094051806
 30
0.0
 10
15.47148157861655
 20
9.26439823312863
 30
0.0
 10
15.50466656102065
 20
9.26836852323561
 30
0.0
 10
15.53785383621772
 20
9.272339087655025
 30
0.0
 10
15.57092980337887
 20
9.276624846654476
 30
0.0
 10
15.60387688811087
 20
9.281223580374836
 30
0.0
 10
15.63682664241379
 20
9.285822686712256
 30
0.0
 10
15.66964749340105
 20
9.290734818490827
 30
0.0
 10
15.70232201157797
 20
9.295957435177898
 30
0.0
 10
15.73499956323469
 20
9.301180536729111
 30
0.0
 10
15.76753075490892
 20
9.306714180841909
 30
0.0
 10
15.79989832138988
 20
9.312555510439578
 30
0.0
 10
15.83226926943525
 20
9.318397450303461
 30
0.0
 10
15.86447655809645
 20
9.324547139945753
 30
0.0
 10
15.89650310570316
 20
9.33100141050891
 30
0.0
 10
15.92853336372811
 20
9.337456428828069
 30
0.0
 10
15.96038283881682
 20
9.344216098646295
 30
0.0
 10
15.99203465129413
 20
9.351276944411166
 30
0.0
 10
16.0236904798778
 20
9.358338686083898
 30
0.0
 10
16.05514859568646
 20
9.365701680136899
 30
0.0
 10
16.08639234098383
 20
9.373362150937955
 30
0.0
 10
16.11764038036628
 20
9.381023674580566
 30
0.0
 10
16.14867399030798
 20
9.38898275674621
 30
0.0
 10
16.17947674764276
 20
9.397235325406573
 30
0.0
 10
16.21028404409647
 20
9.405489110172045
 30
0.0
 10
16.240860419901
 20
9.414036467935417
 30
0.0
 10
16.27118972434956
 20
9.422873047711792
 30
0.0
 10
16.30152377399942
 20
9.43171101002399
 30
0.0
 10
16.33161067497568
 20
9.440838284857301
 30
0.0
 10
16.36143449027102
 20
9.450250211198182
 30
0.0
 10
16.39126321103216
 20
9.459663685626804
 30
0.0
 10
16.42082875955979
 20
9.469361905210508
 30
0.0
 10
16.45011571183591
 20
9.47934005176797
 30
0.0
 10
16.47940767627257
 20
9.489319905982544
 30
0.0
 10
16.50842094909177
 20
9.499579782992316
 30
0.0
 10
16.53713957879502
 20
9.510114176504723
 30
0.0
 10
16.56586326492918
 20
9.520650424786444
 30
0.0
 10
16.59429220418381
 20
9.531461286246438
 30
0.0
 10
16.62241387480578
 20
9.542542590936998
 30
0.0
 10
16.65054057436511
 20
9.55362587727324
 30
0.0
 10
16.67835989538559
 20
9.564979703574246
 30
0.0
 10
16.70584804225768
 20
9.576593723886515
 30
0.0
 10
16.73334110657979
 20
9.588209821871194
 30
0.0
 10
16.76050287825312
 20
9.60008620696948
 30
0.0
 10
16.78735324118176
 20
9.612234448646823
 30
0.0
 10
16.81420832010109
 20
9.624384824038145
 30
0.0
 10
16.84075188087461
 20
9.636807151514549
 30
0.0
 10
16.86684240227572
 20
9.649430099024256
 30
0.0
 10
16.89293731550533
 20
9.662055171360051
 30
0.0
 10
16.91857903682906
 20
9.674880931275747
 30
0.0
 10
16.94423027434839
 20
9.688144478556521
 30
0.0
 10
16.96988551622914
 20
9.701410096382113
 30
0.0
 10
16.99555027727682
 20
9.715113638267606
 30
0.0
 10
17.01943346686223
 20
9.728339861023377
 30
0.0
 10
17.03548242263026
 20
9.737227579442487
 30
0.0
 10
17.05072690413364
 20
9.745899762889235
 30
0.0
 10
17.06869325569659
 20
9.756158644011375
 30
0.0
  0
LINE
  5
13D
330
68
100
AcDbEntity
  8
0
  6
CONTINUOUS
 62
     7
100
AcDbLine
 10
13.40033735779878
 20
12.27501355685256
 30
0.0
 11
13.40033735779878
 21
12.27093107394792
 31
0.0
  0
SPLINE
  5
13E
330
68
100
AcDbEntity
  8
0
  6
CONTINUOUS
 62
     7
100
AcDbSpline
210
0.0
220
0.0
230
1.0
 70
     8
 71
     3
 72
    77
 73
    73
 74
     0
 42
0.0000000001
 43
0.0000000001
 40
0.0
 40
0.0
 40
0.0
 40
0.0
 40
0.0235323974340487
 40
0.0235323974340487
 40
0.0235323974340487
 40
0.0681734589910142
 40
0.0681734589910142
 40
0.0681734589910142
 40
0.1128205192173232
 40
0.1128205192173232
 40
0.1128205192173232
 40
0.1574684655541091
 40
0.1574684655541091
 40
0.1574684655541091
 40
0.2021141273038472
 40
0.2021141273038472
 40
0.2021141273038472
 40
0.246754220011607
 40
0.246754220011607
 40
0.246754220011607
 40
0.2913848184203634
 40
0.2913848184203634
 40
0.2913848184203634
 40
0.3360013167095545
 40
0.3360013167095545
 40
0.3360013167095545
 40
0.3805984123682551
 40
0.3805984123682551
 40
0.3805984123682551
 40
0.4251701247176526
 40
0.4251701247176526
 40
0.4251701247176526
 40
0.4697098606767821
 40
0.4697098606767821
 40
0.4697098606767821
 40
0.5142105407817672
 40
0.5142105407817672
 40
0.5142105407817672
 40
0.5586647971376167
 40
0.5586647971376167
 40
0.5586647971376167
 40
0.6030652511951322
 40
0.6030652511951322
 40
0.6030652511951322
 40
0.6474048724810651
 40
0.6474048724810651
 40
0.6474048724810651
 40
0.6916774095939886
 40
0.6916774095939886
 40
0.6916774095939886
 40
0.7358778725644611
 40
0.7358778725644611
 40
0.7358778725644611
 40
0.7800030326109081
 40
0.7800030326109081
 40
0.7800030326109081
 40
0.8240518937623273
 40
0.8240518937623273
 40
0.8240518937623273
 40
0.8680260835425565
 40
0.8680260835425565
 40
0.8680260835425565
 40
0.9119301094176417
 40
0.9119301094176417
 40
0.9119301094176417
 40
0.9557714354419239
 40
0.9557714354419239
 40
0.9557714354419239
 40
0.9995603493061853
 40
0.9995603493061853
 40
0.9995603493061853
 40
1.0
 40
1.0
 40
1.0
 40
1.0
 10
17.06869325569659
 20
9.756158644011375
 30
0.0
 10
17.08265541608751
 20
9.764289821544178
 30
0.0
 10
17.09449654668418
 20
9.77120780261057
 30
0.0
 10
17.10660904475152
 20
9.778432081945041
 30
0.0
 10
17.12958650692247
 20
9.792136571654545
 30
0.0
 10
17.15354051904937
 20
9.80694331418552
 30
0.0
 10
17.17671985540988
 20
9.821741148953927
 30
0.0
 10
17.19990230650759
 20
9.836540972190231
 30
0.0
 10
17.22230987362987
 20
9.851331885269834
 30
0.0
 10
17.24439663316687
 20
9.866402726961222
 30
0.0
 10
17.26648383105992
 20
9.881473867763695
 30
0.0
 10
17.28825020863342
 20
9.89682494828955
 30
0.0
 10
17.30955931865669
 20
9.912369405561886
 30
0.0
 10
17.33086733831588
 20
9.927913067441181
 30
0.0
 10
17.35171813721941
 20
9.943650086277708
 30
0.0
 10
17.37213399066246
 20
9.959594292015209
 30
0.0
 10
17.39254729745841
 20
9.975536508893155
 30
0.0
 10
17.41252576729618
 20
9.991685860986848
 30
0.0
 10
17.43204963299351
 20
10.00802908700014
 30
0.0
 10
17.45156934624833
 20
10.02436883704676
 30
0.0
 10
17.47063464871754
 20
10.04090237855343
 30
0.0
 10
17.48923751079394
 20
10.05762351383944
 30
0.0
 10
17.50783449567871
 20
10.07433936642669
 30
0.0
 10
17.52596933232157
 20
10.09124269427921
 30
0.0
 10
17.54363131109069
 20
10.10832520747503
 30
0.0
 10
17.56128560909459
 20
10.12540029190112
 30
0.0
 10
17.5784674604041
 20
10.14265440585769
 30
0.0
 10
17.59516732564087
 20
10.16007960662249
 30
0.0
 10
17.61185768582268
 20
10.17749488949344
 30
0.0
 10
17.62806660843921
 20
10.19508106447324
 30
0.0
 10
17.64378468248623
 20
10.21282986226603
 30
0.0
 10
17.65949148015988
 20
10.23056592681491
 30
0.0
 10
17.6747081332951
 20
10.24846438092456
 30
0.0
 10
17.689425629767
 20
10.26651677977786
 30
0.0
 10
17.70413022081001
 20
10.28455334890426
 30
0.0
 10
17.71833653020354
 20
10.30274359291157
 30
0.0
 10
17.73203587027587
 20
10.32107881536314
 30
0.0
 10
17.74572091899972
 20
10.33939491024709
 30
0.0
 10
17.758900055606
 20
10.35785568124588
 30
0.0
 10
17.77156493794229
 20
10.37645214936332
 30
0.0
 10
17.78421449216754
 20
10.39502611046327
 30
0.0
 10
17.79635103615748
 20
10.4137354404164
 30
0.0
 10
17.80796659821528
 20
10.43257085799709
 30
0.0
 10
17.81956624586751
 20
10.4513804692954
 30
0.0
 10
17.8306463381975
 20
10.47031582295429
 30
0.0
 10
17.84119924410437
 20
10.48936720019809
 30
0.0
 10
17.85173618386301
 20
10.50838975342738
 30
0.0
 10
17.86174753121807
 20
10.52752797942855
 30
0.0
 10
17.87122625015549
 20
10.54677202652813
 30
0.0
 10
17.8806895380699
 20
10.5659847449919
 30
0.0
 10
17.88962193035596
 20
10.58530294028844
 30
0.0
 10
17.89801624024939
 20
10.60471530275469
 30
0.0
 10
17.90639624902384
 20
10.62409459299596
 30
0.0
 10
17.91424000727164
 20
10.64356772982101
 30
0.0
 10
17.92154322442886
 20
10.66312672288336
 30
0.0
 10
17.9288338132489
 20
10.68265189556846
 30
0.0
 10
17.93558572871233
 20
10.70226262783142
 30
0.0
 10
17.94178656712387
 20
10.7219363679051
 30
0.0
 10
17.94797689391048
 20
10.74157675716994
 30
0.0
 10
17.95361801042674
 20
10.76127994080563
 30
0.0
 10
17.95873076496003
 20
10.78107535099414
 30
0.0
 10
17.96383536173475
 20
10.80083917621679
 30
0.0
 10
17.96841328125858
 20
10.8206949339192
 30
0.0
 10
17.97236503560331
 20
10.84047638134938
 30
0.0
 10
17.97631114640163
 20
10.86022957866404
 30
0.0
 10
17.97963287921134
 20
10.87990867780166
 30
0.0
 10
17.98268274644563
 20
10.9000741804071
 30
0.0
 10
17.98572896757374
 20
10.92021557522099
 30
0.0
 10
17.98850397276666
 20
10.94084221121042
 30
0.0
 10
17.98968073839607
 20
10.95980569693725
 30
0.0
 10
17.98969255339169
 20
10.95999609466401
 30
0.0
 10
17.98970420727487
 20
10.96018632473493
 30
0.0
 10
17.98971769863705
 20
10.96040669090853
 30
0.0
  0
LINE
  5
13F
330
68
100
AcDbEntity
  8
0
  6
CONTINUOUS
 62
     7
100
AcDbLine
 10
13.43144284300112
 20
12.19148796535993
 30
0.0
 11
13.43144284300112
 21
12.19557044826456
 31
0.0
  0
ELLIPSE
  5
140
330
68
100
AcDbEntity
  8
0
  6
CONTINUOUS
 62
     7
100
AcDbEllipse
 10
16.2865618769205
 20
11.94149280715127
 30
0.0
 11
0.082
 21
-0.0000000000000001
 31
0.0
210
0.0
220
0.0
230
1.0
 40
0.5773502691895589
 41
0.0000000000000012
 42
0.0258930339994773
  0
ELLIPSE
  5
141
330
68
100
AcDbEntity
  8
0
  6
CONTINUOUS
 62
     7
100
AcDbEllipse
 10
16.2865618769205
 20
11.94149280715127
 30
0.0
 11
0.082
 21
-0.0000000000000001
 31
0.0
210
0.0
220
0.0
230
1.0
 40
0.5773502691895589
 41
0.0258930339994773
 42
3.143488475535797
  0
ELLIPSE
  5
142
330
68
100
AcDbEntity
  8
0
  6
CONTINUOUS
 62
     7
100
AcDbEllipse
 10
16.2865618769205
 20
11.9512907661224
 30
0.0
 11
-0.0940000000000001
 21
0.0000000000000002
 31
0.0
210
0.0
220
0.0
230
1.0
 40
0.5773502691895587
 41
0.0
 42
0.1635288847589318
  0
ELLIPSE
  5
143
330
68
100
AcDbEntity
  8
0
  6
CONTINUOUS
 62
     7
100
AcDbEllipse
 10
16.2865618769205
 20
11.9512907661224
 30
0.0
 11
-0.0940000000000001
 21
0.0000000000000002
 31
0.0
210
0.0
220
0.0
230
1.0
 40
0.5773502691895587
 41
2.979489232970844
 42
6.283185307179586
  0
ELLIPSE
  5
144
330
68
100
AcDbEntity
  8
0
  6
CONTINUOUS
 62
     7
100
AcDbEllipse
 10
13.46803424711082
 20
10.30768314871489
 30
0.0
 11
0.15
 21
0.0000000000000001
 31
0.0
210
0.0
220
0.0
230
1.0
 40
0.5773502691895603
 41
0.4292601614919553
 42
2.714153947074207
  0
ELLIPSE
  5
145
330
68
100
AcDbEntity
  8
0
  6
CONTINUOUS
 62
     7
100
AcDbEllipse
 10
14.87729806201572
 20
11.05514727495761
 30
0.0
 11
3.116665258253075
 21
0.0000000000000004
 31
0.0
210
0.0
220
0.0
230
1.0
 40
0.5773502691895598
 41
3.153935567057038
 42
3.196543180554457
  0
ELLIPSE
  5
146
330
68
100
AcDbEntity
  8
0
  6
CONTINUOUS
 62
     7
100
AcDbEllipse
 10
14.87729806201572
 20
11.05514727495761
 30
0.0
 11
3.116665258253075
 21
0.0000000000000004
 31
0.0
210
0.0
220
0.0
230
1.0
 40
0.5773502691895598
 41
3.196543180554457
 42
6.231998341910819
  0
ELLIPSE
  5
147
330
68
100
AcDbEntity
  8
0
  6
CONTINUOUS
 62
     7
100
AcDbEllipse
 10
14.87729806201572
 20
11.05514727495761
 30
0.0
 11
3.116665258253075
 21
0.0000000000000004
 31
0.0
210
0.0
220
0.0
230
1.0
 40
0.5773502691895598
 41
6.231998341910819
 42
6.270842393712385
  0
ELLIPSE
  5
148
330
68
100
AcDbEntity
  8
0
  6
CONTINUOUS
 62
     7
100
AcDbEllipse
 10
13.40030471457587
 20
12.19148796535993
 30
0.0
 11
-0.0311381284252497
 21
-0.0000000000000003
 31
0.0
210
0.0
220
0.0
230
1.0
 40
0.577350269189556
 41
2.356194490192424
 42
3.141592653589774
  0
LINE
  5
149
330
68
100
AcDbEntity
  8
0
  6
CONTINUOUS
 62
     7
100
AcDbLine
 10
13.42232269633882
 20
12.17877587766207
 30
0.0
 11
13.15449809950649
 21
12.02414727458534
 31
0.0
  0
ELLIPSE
  5
14A
330
68
100
AcDbEntity
  8
0
  6
CONTINUOUS
 62
     7
100
AcDbEllipse
 10
13.14278640707939
 20
12.0309090233608
 30
0.0
 11
0.0165628342687496
 21
0.0
 31
0.0
210
0.0
220
0.0
230
1.0
 40
0.577350269189556
 41
3.656840955494511
 42
5.497787143782188
  0
ELLIPSE
  5
14B
330
68
100
AcDbEntity
  8
0
  6
CONTINUOUS
 62
     7
100
AcDbEllipse
 10
16.2865618769205
 20
11.93496083450385
 30
0.0
 11
0.15
 21
0.0000000000000002
 31
0.0
210
0.0
220
0.0
230
1.0
 40
0.5773502691895592
 41
0.4292601614920133
 42
2.714153947074234
  0
ELLIPSE
  5
14C
330
68
100
AcDbEntity
  8
0
  6
CONTINUOUS
 62
     7
100
AcDbEllipse
 10
13.46803424711082
 20
10.39749777261694
 30
0.0
 11
-0.1799999999999999
 21
0.0
 31
0.0
210
0.0
220
0.0
230
1.0
 40
0.57735026918956
 41
0.0
 42
6.283185307179586
  0
ELLIPSE
  5
14D
330
68
100
AcDbEntity
  8
0
  6
CONTINUOUS
 62
     7
100
AcDbEllipse
 10
16.28656187692061
 20
11.93496083450379
 30
0.0
 11
-0.1199999999999999
 21
0.0000000000000001
 31
0.0
210
0.0
220
0.0
230
1.0
 40
0.5773502691895596
 41
3.427761185591287
 42
3.858871872683586
  0
ELLIPSE
  5
14E
330
68
100
AcDbEntity
  8
0
  6
CONTINUOUS
 62
     7
100
AcDbEllipse
 10
16.28656187692061
 20
11.93496083450379
 30
0.0
 11
-0.1199999999999999
 21
0.0000000000000001
 31
0.0
210
0.0
220
0.0
230
1.0
 40
0.5773502691895596
 41
5.497787143782111
 42
6.003476387248237
  0
ELLIPSE
  5
14F
330
68
100
AcDbEntity
  8
0
  6
CONTINUOUS
 62
     7
100
AcDbEllipse
 10
16.2865618769205
 20
12.00028056097807
 30
0.0
 11
0.1499999999999999
 21
0.0000000000000002
 31
0.0
210
0.0
220
0.0
230
1.0
 40
0.57735026918956
 41
0.000276353203432
 42
3.145983283509166
  0
ELLIPSE
  5
150
330
68
100
AcDbEntity
  8
0
  6
CONTINUOUS
 62
     7
100
AcDbEllipse
 10
13.46803424711082
 20
10.37300287518911
 30
0.0
 11
0.15
 21
0.0
 31
0.0
210
0.0
220
0.0
230
1.0
 40
0.5773502691895592
 41
0.0002763531624545
 42
3.145983283509292
  0
ELLIPSE
  5
151
330
68
100
AcDbEntity
  8
0
  6
CONTINUOUS
 62
     7
100
AcDbEllipse
 10
16.2865618769205
 20
12.0247754584059
 30
0.0
 11
-0.18
 21
0.0000000000000002
 31
0.0
210
0.0
220
0.0
230
1.0
 40
0.5773502691895596
 41
0.0
 42
6.283185307179586
  0
ELLIPSE
  5
152
330
68
100
AcDbEntity
  8
0
  6
CONTINUOUS
 62
     7
100
AcDbEllipse
 10
16.28656187692061
 20
11.95129076612234
 30
0.0
 11
0.0963356808676015
 21
-0.0000000000000001
 31
0.0
210
0.0
220
0.0
230
1.0
 40
0.5773502691895591
 41
0.0000000000000009
 42
3.280732594321133
  0
ELLIPSE
  5
153
330
68
100
AcDbEntity
  8
0
  6
CONTINUOUS
 62
     7
100
AcDbEllipse
 10
16.28656187692061
 20
11.95129076612234
 30
0.0
 11
0.0963356808676015
 21
-0.0000000000000001
 31
0.0
210
0.0
220
0.0
230
1.0
 40
0.5773502691895591
 41
6.143950884497519
 42
6.283185307179586
  0
ELLIPSE
  5
154
330
68
100
AcDbEntity
  8
0
  6
CONTINUOUS
 62
     7
100
AcDbEllipse
 10
16.28656187692061
 20
11.94312580031306
 30
0.0
 11
-0.1081678404338006
 21
-0.0000000000000002
 31
0.0
210
0.0
220
0.0
230
1.0
 40
0.5773502691895604
 41
6.117036752788229
 42
6.141690465220778
  0
ELLIPSE
  5
155
330
68
100
AcDbEntity
  8
0
  6
CONTINUOUS
 62
     7
100
AcDbEllipse
 10
13.46803424711082
 20
10.32401308033344
 30
0.0
 11
0.0963356808676014
 21
-0.0000000000000001
 31
0.0
210
0.0
220
0.0
230
1.0
 40
0.5773502691895588
 41
0.0000000000000015
 42
3.281255679615784
  0
ELLIPSE
  5
156
330
68
100
AcDbEntity
  8
0
  6
CONTINUOUS
 62
     7
100
AcDbEllipse
 10
13.46803424711082
 20
10.32401308033344
 30
0.0
 11
0.0963356808676014
 21
-0.0000000000000001
 31
0.0
210
0.0
220
0.0
230
1.0
 40
0.5773502691895588
 41
6.143115893341668
 42
6.283185307179586
  0
ELLIPSE
  5
157
330
68
100
AcDbEntity
  8
0
  6
CONTINUOUS
 62
     7
100
AcDbEllipse
 10
13.46803424711082
 20
10.30768314871489
 30
0.0
 11
-0.12
 21
0.0
 31
0.0
210
0.0
220
0.0
230
1.0
 40
0.5773502691895594
 41
3.427761185589925
 42
3.849970777599622
  0
ELLIPSE
  5
158
330
68
100
AcDbEntity
  8
0
  6
CONTINUOUS
 62
     7
100
AcDbEllipse
 10
13.46803424711082
 20
10.30768314871489
 30
0.0
 11
-0.12
 21
0.0
 31
0.0
210
0.0
220
0.0
230
1.0
 40
0.5773502691895594
 41
5.497787143782131
 42
6.003476387248128
  0
ELLIPSE
  5
159
330
68
100
AcDbEntity
  8
0
  6
CONTINUOUS
 62
     7
100
AcDbEllipse
 10
13.46803424711082
 20
10.31421512136231
 30
0.0
 11
0.0819999999999999
 21
-0.0000000000000001
 31
0.0
210
0.0
220
0.0
230
1.0
 40
0.5773502691895597
 41
0.0018958219338824
 42
3.141592653589793
  0
ELLIPSE
  5
15A
330
68
100
AcDbEntity
  8
0
  6
CONTINUOUS
 62
     7
100
AcDbEllipse
 10
13.46803424711082
 20
10.31421512136231
 30
0.0
 11
0.0819999999999999
 21
-0.0000000000000001
 31
0.0
210
0.0
220
0.0
230
1.0
 40
0.5773502691895597
 41
3.141592653589793
 42
3.167485687590063
  0
ELLIPSE
  5
15B
330
68
100
AcDbEntity
  8
0
  6
CONTINUOUS
 62
     7
100
AcDbEllipse
 10
13.46803424711082
 20
10.32401308033344
 30
0.0
 11
-0.094
 21
0.0000000000000001
 31
0.0
210
0.0
220
0.0
230
1.0
 40
0.5773502691895595
 41
0.0
 42
0.1638501999978119
  0
ELLIPSE
  5
15C
330
68
100
AcDbEntity
  8
0
  6
CONTINUOUS
 62
     7
100
AcDbEllipse
 10
13.46803424711082
 20
10.32401308033344
 30
0.0
 11
-0.094
 21
0.0000000000000001
 31
0.0
210
0.0
220
0.0
230
1.0
 40
0.5773502691895595
 41
2.980999120150935
 42
6.283185307179586
  0
SPLINE
  5
15D
330
68
100
AcDbEntity
  8
0
  6
CONTINUOUS
 62
     7
100
AcDbSpline
210
0.0
220
0.0
230
1.0
 70
     8
 71
     3
 72
    44
 73
    40
 74
     0
 42
0.0000000001
 43
0.0000000001
 40
0.0
 40
0.0
 40
0.0
 40
0.0
 40
0.0374023641691035
 40
0.0374023641691035
 40
0.0374023641691035
 40
0.1116946356494076
 40
0.1116946356494076
 40
0.1116946356494076
 40
0.1880054850711261
 40
0.1880054850711261
 40
0.1880054850711261
 40
0.2670433072359894
 40
0.2670433072359894
 40
0.2670433072359894
 40
0.3479931806394159
 40
0.3479931806394159
 40
0.3479931806394159
 40
0.429603176303734
 40
0.429603176303734
 40
0.429603176303734
 40
0.511073786047636
 40
0.511073786047636
 40
0.511073786047636
 40
0.59232016687771
 40
0.59232016687771
 40
0.59232016687771
 40
0.6734409790170454
 40
0.6734409790170454
 40
0.6734409790170454
 40
0.7545957897259861
 40
0.7545957897259861
 40
0.7545957897259861
 40
0.8359192364791079
 40
0.8359192364791079
 40
0.8359192364791079
 40
0.9175875768568293
 40
0.9175875768568293
 40
0.9175875768568293
 40
1.0
 40
1.0
 40
1.0
 40
1.0
 10
13.57491341028107
 20
10.32377605095301
 30
0.0
 10
13.57452457475289
 20
10.32598075065999
 30
0.0
 10
13.57417547647931
 20
10.32785696865655
 30
0.0
 10
13.57359235928726
 20
10.32974310469594
 30
0.0
 10
13.57243411430198
 20
10.33348953446848
 30
0.0
 10
13.57035257506181
 20
10.33727509471823
 30
0.0
 10
13.56793980843494
 20
10.34082801911867
 30
0.0
 10
13.56546148509007
 20
10.34447747919743
 30
0.0
 10
13.56263369042592
 20
10.34788148989477
 30
0.0
 10
13.5593723942423
 20
10.35107988921407
 30
0.0
 10
13.55599455544557
 20
10.35439258352329
 30
0.0
 10
13.55215167914514
 20
10.35748470882023
 30
0.0
 10
13.54794412532833
 20
10.3603224226167
 30
0.0
 10
13.54363478406006
 20
10.36322878524522
 30
0.0
 10
13.53894290759001
 20
10.36586827824155
 30
0.0
 10
13.53392257853902
 20
10.36822579872708
 30
0.0
 10
13.52886131019037
 20
10.37060254409448
 30
0.0
 10
13.52346621055176
 20
10.37269269939537
 30
0.0
 10
13.51781779593426
 20
10.37447374416006
 30
0.0
 10
13.5121790285354
 20
10.37625174698655
 30
0.0
 10
13.50628781071814
 20
10.37772169426678
 30
0.0
 10
13.50023019269048
 20
10.37886630721392
 30
0.0
 10
13.49418924684822
 20
10.38000776988001
 30
0.0
 10
13.48798281549085
 20
10.38082568656286
 30
0.0
 10
13.48170746336535
 20
10.38130970679488
 30
0.0
 10
13.47544180998264
 20
10.38179297895928
 30
0.0
 10
13.46910744870535
 20
10.38194338596903
 30
0.0
 10
13.46279424781525
 20
10.38175774743404
 30
0.0
 10
13.45647840099751
 20
10.38157203109603
 30
0.0
 10
13.45018373230777
 20
10.38104998747394
 30
0.0
 10
13.44403388302004
 20
10.38020298114201
 30
0.0
 10
13.43787125462228
 20
10.37935421476903
 30
0.0
 10
13.43185404810824
 20
10.37817913376728
 30
0.0
 10
13.42597010490513
 20
10.37667553360051
 30
0.0
 10
13.42006120783472
 20
10.37516555664903
 30
0.0
 10
13.41428670681444
 20
10.37332426811701
 30
0.0
 10
13.40911589899124
 20
10.3712353523839
 30
0.0
 10
13.40389797977865
 20
10.36912740447519
 30
0.0
 10
13.39929480441089
 20
10.36676729653152
 30
0.0
 10
13.39391463389911
 20
10.36393630323259
 30
0.0
  0
SPLINE
  5
15E
330
68
100
AcDbEntity
  8
0
  6
CONTINUOUS
 62
     7
100
AcDbSpline
210
0.0
220
0.0
230
1.0
 70
     8
 71
     3
 72
    56
 73
    52
 74
     0
 42
0.0000000001
 43
0.0000000001
 40
0.0
 40
0.0
 40
0.0
 40
0.0
 40
0.0247170283364036
 40
0.0247170283364036
 40
0.0247170283364036
 40
0.0819176821338859
 40
0.0819176821338859
 40
0.0819176821338859
 40
0.1403560542680278
 40
0.1403560542680278
 40
0.1403560542680278
 40
0.2008944517351853
 40
0.2008944517351853
 40
0.2008944517351853
 40
0.2631241101719816
 40
0.2631241101719816
 40
0.2631241101719816
 40
0.3260859446199526
 40
0.3260859446199526
 40
0.3260859446199526
 40
0.389014875926131
 40
0.389014875926131
 40
0.389014875926131
 40
0.4517678388921035
 40
0.4517678388921035
 40
0.4517678388921035
 40
0.5143996419981153
 40
0.5143996419981153
 40
0.5143996419981153
 40
0.5770266632156412
 40
0.5770266632156412
 40
0.5770266632156412
 40
0.6397608997495939
 40
0.6397608997495939
 40
0.6397608997495939
 40
0.7027268097775758
 40
0.7027268097775758
 40
0.7027268097775758
 40
0.7660659397140386
 40
0.7660659397140386
 40
0.7660659397140386
 40
0.8298665017827724
 40
0.8298665017827724
 40
0.8298665017827724
 40
0.8939655940151213
 40
0.8939655940151213
 40
0.8939655940151213
 40
0.9574078368832255
 40
0.9574078368832255
 40
0.9574078368832255
 40
1.0
 40
1.0
 40
1.0
 40
1.0
 10
16.39382354109605
 20
11.94913817979733
 30
0.0
 10
16.39360420625471
 20
11.95103815463234
 30
0.0
 10
16.39340380961911
 20
11.95265793526211
 30
0.0
 10
16.39302017898326
 20
11.95429235154175
 30
0.0
 10
16.39213237309945
 20
11.95807475120973
 30
0.0
 10
16.39026323617219
 20
11.96193553380638
 30
0.0
 10
16.38806218241245
 20
11.96556737442661
 30
0.0
 10
16.38581350184396
 20
11.96927780148657
 30
0.0
 10
16.38321838488012
 20
11.97274927159921
 30
0.0
 10
16.38017961838454
 20
11.97602372938767
 30
0.0
 10
16.37703165160858
 20
11.97941585719424
 30
0.0
 10
16.37340757664623
 20
11.98259655869775
 30
0.0
 10
16.36941183848956
 20
11.98553028995529
 30
0.0
 10
16.36530447141187
 20
11.98854598085133
 30
0.0
 10
16.36080438475935
 20
11.99130070953355
 30
0.0
 10
16.3559621476883
 20
11.99378081545014
 30
0.0
 10
16.35106293826817
 20
11.99629010156959
 30
0.0
 10
16.3458134797809
 20
11.99851826464412
 30
0.0
 10
16.34029177497573
 20
12.00044243115033
 30
0.0
 10
16.33477295575096
 20
12.00236559210893
 30
0.0
 10
16.32898217467962
 20
12.00398507414651
 30
0.0
 10
16.32300375395773
 20
12.00528249716857
 30
0.0
 10
16.31704205070981
 20
12.00657629220313
 30
0.0
 10
16.31089375573865
 20
12.00754982685287
 30
0.0
 10
16.30465220938106
 20
12.00819057746305
 30
0.0
 10
16.29842271384699
 20
12.00883009094831
 30
0.0
 10
16.29210032666785
 20
12.00913810419456
 30
0.0
 10
16.28578190883826
 20
12.00911053776092
 30
0.0
 10
16.27946397341487
 20
12.00908297343195
 30
0.0
 10
16.27315000673494
 20
12.00871988066361
 30
0.0
 10
16.26693695750305
 20
12.00802613780415
 30
0.0
 10
16.26071327174357
 20
12.00733120728067
 30
0.0
 10
16.25459084926232
 20
12.00630449357371
 30
0.0
 10
16.24866147449298
 20
12.00495873629231
 30
0.0
 10
16.24271020292461
 20
12.00360800921598
 30
0.0
 10
16.23695340752641
 20
12.00193587779943
 30
0.0
 10
16.231478032077
 20
11.99996256083464
 30
0.0
 10
16.2259702022547
 20
11.99797754736334
 30
0.0
 10
16.22074713840782
 20
11.99568776730816
 30
0.0
 10
16.21587469487578
 20
11.99311098204976
 30
0.0
 10
16.21096675508716
 20
11.99051542464345
 30
0.0
 10
16.20641456283248
 20
11.9876286650764
 30
0.0
 10
16.20231983820296
 20
11.98448580871668
 30
0.0
 10
16.19820595388623
 20
11.98132824657079
 30
0.0
 10
16.1945538282977
 20
11.97791218541255
 30
0.0
 10
16.1913068871722
 20
11.97420094174729
 30
0.0
 10
16.18809321876772
 20
11.97052772869927
 30
0.0
 10
16.18527647319576
 20
11.96656535185676
 30
0.0
 10
16.18341161345818
 20
11.96256174416456
 30
0.0
 10
16.18215963360151
 20
11.95987390867557
 30
0.0
 10
16.18133668329066
 20
11.95716748981022
 30
0.0
 10
16.18041195645852
 20
11.95397619559412
 30
0.0
  0
SPLINE
  5
15F
330
68
100
AcDbEntity
  8
0
  6
CONTINUOUS
 62
     7
100
AcDbSpline
210
0.0
220
0.0
230
1.0
 70
     8
 71
     3
 72
    74
 73
    70
 74
     0
 42
0.0000000001
 43
0.0000000001
 40
0.0
 40
0.0
 40
0.0
 40
0.0
 40
0.029939929149771
 40
0.029939929149771
 40
0.029939929149771
 40
0.0773407536116036
 40
0.0773407536116036
 40
0.0773407536116036
 40
0.1206975781439216
 40
0.1206975781439216
 40
0.1206975781439216
 40
0.1670082767145327
 40
0.1670082767145327
 40
0.1670082767145327
 40
0.2113300871595018
 40
0.2113300871595018
 40
0.2113300871595018
 40
0.2551163663006278
 40
0.2551163663006278
 40
0.2551163663006278
 40
0.2989068522413933
 40
0.2989068522413933
 40
0.2989068522413933
 40
0.3429260872094571
 40
0.3429260872094571
 40
0.3429260872094571
 40
0.387240112853349
 40
0.387240112853349
 40
0.387240112853349
 40
0.4318165625139891
 40
0.4318165625139891
 40
0.4318165625139891
 40
0.4765830318964522
 40
0.4765830318964522
 40
0.4765830318964522
 40
0.5214523724215339
 40
0.5214523724215339
 40
0.5214523724215339
 40
0.5663327128421697
 40
0.5663327128421697
 40
0.5663327128421697
 40
0.6111010575854559
 40
0.6111010575854559
 40
0.6111010575854559
 40
0.6556633013378161
 40
0.6556633013378161
 40
0.6556633013378161
 40
0.6999314474347346
 40
0.6999314474347346
 40
0.6999314474347346
 40
0.7438351845084439
 40
0.7438351845084439
 40
0.7438351845084439
 40
0.7873521380190536
 40
0.7873521380190536
 40
0.7873521380190536
 40
0.8305714964541381
 40
0.8305714964541381
 40
0.8305714964541381
 40
0.8737643449064636
 40
0.8737643449064636
 40
0.8737643449064636
 40
0.9174642400638575
 40
0.9174642400638575
 40
0.9174642400638575
 40
0.9630032237043012
 40
0.9630032237043012
 40
0.9630032237043012
 40
1.0
 40
1.0
 40
1.0
 40
1.0
 10
16.43624794911765
 20
12.00028729221729
 30
0.0
 10
16.43631733393333
 20
11.99847193407756
 30
0.0
 10
16.43634769285502
 20
11.99691909708716
 30
0.0
 10
16.43614450739644
 20
11.99527075535187
 30
0.0
 10
16.43582282466276
 20
11.99266110464573
 30
0.0
 10
16.43491575950868
 20
11.98981206989335
 30
0.0
 10
16.43359144767976
 20
11.98684429292158
 30
0.0
 10
16.43238011947515
 20
11.98412971175391
 30
0.0
 10
16.43081970238095
 20
11.98131578506232
 30
0.0
 10
16.42877400925875
 20
11.97840602994393
 30
0.0
 10
16.42658894431056
 20
11.97529803498222
 30
0.0
 10
16.42385022775019
 20
11.97208070933048
 30
0.0
 10
16.42056120855229
 20
11.96886800889694
 30
0.0
 10
16.41741344162287
 20
11.96579328309865
 30
0.0
 10
16.413761624351
 20
11.96272279377436
 30
0.0
 10
16.40963389579187
 20
11.95973875688971
 30
0.0
 10
16.40555604172647
 20
11.95679077550792
 30
0.0
 10
16.4010137075697
 20
11.95392717001326
 30
0.0
 10
16.39606337893219
 20
11.95121423395081
 30
0.0
 10
16.39111257468814
 20
11.94850103724098
 30
0.0
 10
16.38575369756282
 20
11.9459385389161
 30
0.0
 10
16.38005270905957
 20
11.94357534952578
 30
0.0
 10
16.37432194021599
 20
11.94119981550711
 30
0.0
 10
16.36824547647441
 20
11.93902567812781
 30
0.0
 10
16.36189587556013
 20
11.93708876485512
 30
0.0
 10
16.35550375225431
 20
11.93513888034445
 30
0.0
 10
16.34883482120307
 20
11.93342940789289
 30
0.0
 10
16.34196552173093
 20
11.93198560791
 30
0.0
 10
16.33505554283206
 20
11.93053325786231
 30
0.0
 10
16.32794281535493
 20
11.92934973618121
 30
0.0
 10
16.3207065178346
 20
11.92845135100136
 30
0.0
 10
16.31343937354985
 20
11.92754913620065
 30
0.0
 10
16.30604760347197
 20
11.92693449403242
 30
0.0
 10
16.29861209630114
 20
11.92661556378588
 30
0.0
 10
16.2911595027009
 20
11.92629590065334
 30
0.0
 10
16.28366297076537
 20
11.92627331006688
 30
0.0
 10
16.27620418144651
 20
11.92654809152101
 30
0.0
 10
16.26874356357607
 20
11.9268229403389
 30
0.0
 10
16.26132070683007
 20
11.9273953070191
 30
0.0
 10
16.25401716139474
 20
11.92825759617302
 30
0.0
 10
16.24673184143432
 20
11.92911773354607
 30
0.0
 10
16.23956523806188
 20
11.93026634823668
 30
0.0
 10
16.23259762701815
 20
11.93168755346371
 30
0.0
 10
16.22566209291514
 20
11.93310221585768
 30
0.0
 10
16.21892372314782
 20
11.9347869647036
 30
0.0
 10
16.2124603840409
 20
11.93671679526375
 30
0.0
 10
16.20603970106432
 20
11.93863388951182
 30
0.0
 10
16.19989043048504
 20
11.94079284121496
 30
0.0
 10
16.19408657192937
 20
11.94315796957652
 30
0.0
 10
16.18833048990408
 20
11.94550362854097
 30
0.0
 10
16.18291415654433
 20
11.94805208370177
 30
0.0
 10
16.17790456654267
 20
11.95075518752969
 30
0.0
 10
16.17293911007495
 20
11.95343447752764
 30
0.0
 10
16.16837326187074
 20
11.95626570334478
 30
0.0
 10
16.16426302955059
 20
11.95918477960985
 30
0.0
 10
16.1601809054687
 20
11.96208389347747
 30
0.0
 10
16.15654818702807
 20
11.96506966035315
 30
0.0
 10
16.15339415681843
 20
11.9680667652609
 30
0.0
 10
16.1502420612346
 20
11.971062031798
 30
0.0
 10
16.14756806682424
 20
11.97406862246234
 30
0.0
 10
16.14537740973757
 20
11.97699258161922
 30
0.0
 10
16.1431610362303
 20
11.97995086552915
 30
0.0
 10
16.14143941457891
 20
11.98282456649945
 30
0.0
 10
16.14010244148784
 20
11.98559811839039
 30
0.0
 10
16.13870920254521
 20
11.98848839384146
 30
0.0
 10
16.13773366890512
 20
11.9912699133896
 30
0.0
 10
16.13725597840097
 20
11.99381547863745
 30
0.0
 10
16.13686789313187
 20
11.99588354648815
 30
0.0
 10
16.13680839731892
 20
11.99779587834571
 30
0.0
 10
16.13678961674853
 20
12.00003570311397
 30
0.0
  0
SPLINE
  5
160
330
68
100
AcDbEntity
  8
0
  6
CONTINUOUS
 62
     7
100
AcDbSpline
210
0.0
220
0.0
230
1.0
 70
     8
 71
     3
 72
    74
 73
    70
 74
     0
 42
0.0000000001
 43
0.0000000001
 40
0.0
 40
0.0
 40
0.0
 40
0.0
 40
0.0299399291497819
 40
0.0299399291497819
 40
0.0299399291497819
 40
0.0773407536116124
 40
0.0773407536116124
 40
0.0773407536116124
 40
0.1206975781439272
 40
0.1206975781439272
 40
0.1206975781439272
 40
0.1670082767145383
 40
0.1670082767145383
 40
0.1670082767145383
 40
0.2113300871595077
 40
0.2113300871595077
 40
0.2113300871595077
 40
0.2551163663006335
 40
0.2551163663006335
 40
0.2551163663006335
 40
0.2989068522413985
 40
0.2989068522413985
 40
0.2989068522413985
 40
0.3429260872094618
 40
0.3429260872094618
 40
0.3429260872094618
 40
0.387240112853354
 40
0.387240112853354
 40
0.387240112853354
 40
0.4318165625139951
 40
0.4318165625139951
 40
0.4318165625139951
 40
0.4765830318964568
 40
0.4765830318964568
 40
0.4765830318964568
 40
0.5214523724215388
 40
0.5214523724215388
 40
0.5214523724215388
 40
0.5663327128421717
 40
0.5663327128421717
 40
0.5663327128421717
 40
0.6111010575854562
 40
0.6111010575854562
 40
0.6111010575854562
 40
0.6556633013378139
 40
0.6556633013378139
 40
0.6556633013378139
 40
0.6999314474347337
 40
0.6999314474347337
 40
0.6999314474347337
 40
0.7438351845084447
 40
0.7438351845084447
 40
0.7438351845084447
 40
0.7873521380190489
 40
0.7873521380190489
 40
0.7873521380190489
 40
0.8305714964541387
 40
0.8305714964541387
 40
0.8305714964541387
 40
0.8737643449064654
 40
0.8737643449064654
 40
0.8737643449064654
 40
0.9174642400638635
 40
0.9174642400638635
 40
0.9174642400638635
 40
0.9630032237043113
 40
0.9630032237043113
 40
0.9630032237043113
 40
1.0
 40
1.0
 40
1.0
 40
1.0
 10
13.61772031930797
 20
10.37300960642833
 30
0.0
 10
13.61778970412365
 20
10.3711942482886
 30
0.0
 10
13.61782006304533
 20
10.3696414112982
 30
0.0
 10
13.61761687758675
 20
10.36799306956291
 30
0.0
 10
13.61729519485307
 20
10.36538341885677
 30
0.0
 10
13.61638812969899
 20
10.36253438410439
 30
0.0
 10
13.61506381787007
 20
10.35956660713262
 30
0.0
 10
13.61385248966546
 20
10.35685202596495
 30
0.0
 10
13.61229207257126
 20
10.35403809927336
 30
0.0
 10
13.61024637944906
 20
10.35112834415497
 30
0.0
 10
13.60806131450087
 20
10.34802034919326
 30
0.0
 10
13.6053225979405
 20
10.34480302354152
 30
0.0
 10
13.6020335787426
 20
10.34159032310798
 30
0.0
 10
13.59888581181318
 20
10.33851559730969
 30
0.0
 10
13.59523399454132
 20
10.33544510798541
 30
0.0
 10
13.59110626598218
 20
10.33246107110075
 30
0.0
 10
13.58702841191678
 20
10.32951308971896
 30
0.0
 10
13.58248607776001
 20
10.3266494842243
 30
0.0
 10
13.5775357491225
 20
10.32393654816184
 30
0.0
 10
13.57258494487845
 20
10.32122335145202
 30
0.0
 10
13.56722606775313
 20
10.31866085312714
 30
0.0
 10
13.56152507924988
 20
10.31629766373682
 30
0.0
 10
13.5557943104063
 20
10.31392212971815
 30
0.0
 10
13.54971784666472
 20
10.31174799233885
 30
0.0
 10
13.54336824575044
 20
10.30981107906616
 30
0.0
 10
13.53697612244462
 20
10.30786119455549
 30
0.0
 10
13.53030719139337
 20
10.30615172210394
 30
0.0
 10
13.52343789192124
 20
10.30470792212104
 30
0.0
 10
13.51652791302237
 20
10.30325557207335
 30
0.0
 10
13.50941518554524
 20
10.30207205039225
 30
0.0
 10
13.50217888802491
 20
10.3011736652124
 30
0.0
 10
13.49491174374016
 20
10.30027145041169
 30
0.0
 10
13.48751997366228
 20
10.29965680824346
 30
0.0
 10
13.48008446649145
 20
10.29933787799692
 30
0.0
 10
13.47263187289121
 20
10.29901821486438
 30
0.0
 10
13.46513534095568
 20
10.29899562427792
 30
0.0
 10
13.45767655163682
 20
10.29927040573205
 30
0.0
 10
13.45021593376638
 20
10.29954525454994
 30
0.0
 10
13.44279307702037
 20
10.30011762123014
 30
0.0
 10
13.43548953158505
 20
10.30097991038406
 30
0.0
 10
13.42820421162463
 20
10.30184004775711
 30
0.0
 10
13.42103760825219
 20
10.30298866244772
 30
0.0
 10
13.41406999720846
 20
10.30440986767475
 30
0.0
 10
13.40713446310545
 20
10.30582453006872
 30
0.0
 10
13.40039609333813
 20
10.30750927891465
 30
0.0
 10
13.39393275423121
 20
10.30943910947479
 30
0.0
 10
13.38751207125463
 20
10.31135620372286
 30
0.0
 10
13.38136280067536
 20
10.313515155426
 30
0.0
 10
13.37555894211968
 20
10.31588028378756
 30
0.0
 10
13.36980286009439
 20
10.31822594275201
 30
0.0
 10
13.36438652673464
 20
10.32077439791281
 30
0.0
 10
13.35937693673298
 20
10.32347750174074
 30
0.0
 10
13.35441148026527
 20
10.32615679173868
 30
0.0
 10
13.34984563206105
 20
10.32898801755582
 30
0.0
 10
13.3457353997409
 20
10.33190709382089
 30
0.0
 10
13.34165327565901
 20
10.33480620768851
 30
0.0
 10
13.33802055721838
 20
10.33779197456419
 30
0.0
 10
13.33486652700874
 20
10.34078907947194
 30
0.0
 10
13.33171443142491
 20
10.34378434600905
 30
0.0
 10
13.32904043701455
 20
10.34679093667338
 30
0.0
 10
13.32684977992788
 20
10.34971489583026
 30
0.0
 10
13.32463340642061
 20
10.35267317974019
 30
0.0
 10
13.32291178476922
 20
10.35554688071049
 30
0.0
 10
13.32157481167815
 20
10.35832043260144
 30
0.0
 10
13.32018157273552
 20
10.36121070805251
 30
0.0
 10
13.31920603909543
 20
10.36399222760064
 30
0.0
 10
13.31872834859128
 20
10.36653779284849
 30
0.0
 10
13.31834026332218
 20
10.36860586069919
 30
0.0
 10
13.31828076750922
 20
10.37051819255675
 30
0.0
 10
13.31826198693884
 20
10.37275801732501
 30
0.0
  0
SPLINE
  5
161
330
68
100
AcDbEntity
  8
0
  6
CONTINUOUS
 62
     7
100
AcDbSpline
210
0.0
220
0.0
230
1.0
 70
     8
 71
     3
 72
    20
 73
    16
 74
     0
 42
0.0000000001
 43
0.0000000001
 40
0.0
 40
0.0
 40
0.0
 40
0.0
 40
0.1482559274748676
 40
0.1482559274748676
 40
0.1482559274748676
 40
0.4283678229464784
 40
0.4283678229464784
 40
0.4283678229464784
 40
0.7076447990209593
 40
0.7076447990209593
 40
0.7076447990209593
 40
0.9794192255007249
 40
0.9794192255007249
 40
0.9794192255007249
 40
1.0
 40
1.0
 40
1.0
 40
1.0
 10
13.39391463389911
 20
10.36393630323259
 30
0.0
 10
13.39122023895644
 20
10.36230487332402
 30
0.0
 10
13.38895207240903
 20
10.36090330941763
 30
0.0
 10
13.38673196399941
 20
10.35936408222241
 30
0.0
 10
13.38253733390696
 20
10.3564558959896
 30
0.0
 10
13.37851425981416
 20
10.35305628490726
 30
0.0
 10
13.37510829067922
 20
10.34947760351963
 30
0.0
 10
13.3717124735933
 20
10.3459095889782
 30
0.0
 10
13.36893008818295
 20
10.34216357003733
 30
0.0
 10
13.36643094850904
 20
10.33811474399414
 30
0.0
 10
13.36399894619681
 20
10.33417468638083
 30
0.0
 10
13.36183517570088
 20
10.32994787246869
 30
0.0
 10
13.36124386128013
 20
10.32583880260397
 30
0.0
 10
13.3611990825682
 20
10.32552763336931
 30
0.0
 10
13.36116332132772
 20
10.32521713935452
 30
0.0
 10
13.36112227573504
 20
10.3248565502034
 30
0.0
  0
ENDBLK
  5
162
330
68
100
AcDbEntity
  8
0
  6
CONTINUOUS
 62
     7
100
AcDbBlockEnd
  0
BLOCK
  5
166
330
6A
100
AcDbEntity
  8
DEFAULT
 62
     1
 48
0.0
100
AcDbBlockBegin
  2
SE8
 70
     0
 10
0.0
 20
0.0
 30
0.0
  3
SE8
  1

  0
LINE
  5
167
330
6A
100
AcDbEntity
  8
DEFAULT
  6
CONTINUOUS
 62
     7
100
AcDbLine
 10
12.93084449646891
 20
12.59631462863447
 30
0.0
 11
11.9143550904154
 21
14.76644414124265
 31
0.0
  0
HATCH
  5
168
330
6A
100
AcDbEntity
  8
DEFAULT
  6
CONTINUOUS
 62
     7
100
AcDbHatch
 10
0.0
 20
0.0
 30
0.0
210
0.0
220
0.0
230
1.0
  2
SOLID
 70
     1
 71
     1
 91
        1
 92
        1
 93
        4
 72
     1
 10
12.78706840953904
 20
12.80503584553787
 11
12.93084449646891
 21
12.59631462863447
 72
     1
 10
12.93084449646891
 20
12.59631462863447
 11
12.86253345755797
 21
12.84038369984467
 72
     1
 10
12.86253345755797
 20
12.84038369984467
 11
12.78706840953904
 21
12.80503584553787
 72
     1
 10
12.78706840953904
 20
12.80503584553787
 11
12.78706840953904
 21
12.80503584553787
 97
        0
 75
     0
 76
     1
 98
        1
 10
0.0
 20
0.0
  0
LINE
  5
169
330
6A
100
AcDbEntity
  8
DEFAULT
  6
CONTINUOUS
 62
     7
100
AcDbLine
 10
11.91435502568712
 20
14.76644427943274
 30
0.0
 11
11.16435501641789
 21
14.76644427943274
 31
0.0
  0
TEXT
  5
16A
330
6A
100
AcDbEntity
  8
DEFAULT
  6
CONTINUOUS
 62
     7
100
AcDbText
 10
9.611332514510953
 20
14.64144427943274
 30
0.0
 40
0.25
  1
O
  7
SEMECA1_TTF
 11
9.611332514510953
 21
14.89144427943274
 31
0.0
100
AcDbText
 73
     3
  0
TEXT
  5
16B
330
6A
100
AcDbEntity
  8
DEFAULT
  6
CONTINUOUS
 62
     7
100
AcDbText
 10
9.8964202338092
 20
14.64144427943274
 30
0.0
 40
0.25
  1
 6 1/4"
  7
ARIAL_TTF
 11
9.8964202338092
 21
14.89144427943274
 31
0.0
100
AcDbText
 73
     3
  0
ENDBLK
  5
16C
330
6A
100
AcDbEntity
  8
DEFAULT
  6
CONTINUOUS
 62
     7
100
AcDbBlockEnd
  0
BLOCK
  5
16D
330
6E
100
AcDbEntity
  8
DEFAULT
 62
     1
 48
0.0
100
AcDbBlockBegin
  2
SE9
 70
     0
 10
0.0
 20
0.0
 30
0.0
  3
SE9
  1

  0
LINE
  5
16E
330
6E
100
AcDbEntity
  8
DEFAULT
  6
CONTINUOUS
 62
     7
100
AcDbLine
 10
18.81218784848289
 20
7.995825991909239
 30
0.0
 11
19.4263182832655
 21
7.995825991909239
 31
0.0
  0
HATCH
  5
16F
330
6E
100
AcDbEntity
  8
DEFAULT
  6
CONTINUOUS
 62
     7
100
AcDbHatch
 10
0.0
 20
0.0
 30
0.0
210
0.0
220
0.0
230
1.0
  2
SOLID
 70
     1
 71
     1
 91
        1
 92
        1
 93
        4
 72
     1
 10
18.01077223060195
 20
9.652024457758043
 11
17.97468783921368
 21
9.422857793860901
 72
     1
 10
17.97468783921368
 20
9.422857793860901
 11
17.93860344782542
 21
9.69369112392116
 72
     1
 10
17.93860344782542
 20
9.69369112392116
 11
18.01077223060195
 21
9.652024457758043
 72
     1
 10
18.01077223060195
 20
9.652024457758043
 11
18.01077223060195
 21
9.652024457758043
 97
        0
 75
     0
 76
     1
 98
        1
 10
0.0
 20
0.0
  0
HATCH
  5
170
330
6E
100
AcDbEntity
  8
DEFAULT
  6
CONTINUOUS
 62
     7
100
AcDbHatch
 10
0.0
 20
0.0
 30
0.0
210
0.0
220
0.0
230
1.0
  2
SOLID
 70
     1
 71
     1
 91
        1
 92
        1
 93
        4
 72
     1
 10
18.01077223060194
 20
8.996035123246858
 11
17.97468783921368
 21
9.266868453307118
 72
     1
 10
17.97468783921368
 20
9.266868453307118
 11
17.93860344782541
 21
9.037701789409975
 72
     1
 10
17.93860344782541
 20
9.037701789409975
 11
18.01077223060194
 21
8.996035123246858
 72
     1
 10
18.01077223060194
 20
8.996035123246858
 11
18.01077223060194
 21
8.996035123246858
 97
        0
 75
     0
 76
     1
 98
        1
 10
0.0
 20
0.0
  0
LINE
  5
171
330
6E
100
AcDbEntity
  8
DEFAULT
  6
CONTINUOUS
 62
     7
100
AcDbLine
 10
14.98555123618051
 20
11.14863661626672
 30
0.0
 11
18.08294101337847
 21
9.360357794616223
 31
0.0
  0
LINE
  5
172
330
6E
100
AcDbEntity
  8
DEFAULT
  6
CONTINUOUS
 62
     7
100
AcDbLine
 10
17.14321049637602
 20
9.74692212101953
 30
0.0
 11
18.08294101337847
 21
9.204368454062441
 31
0.0
  0
LINE
  5
173
330
6E
100
AcDbEntity
  8
DEFAULT
  6
CONTINUOUS
 62
     7
100
AcDbLine
 10
17.97468783921366
 20
8.164304252778803
 30
0.0
 11
18.72468784848289
 21
8.164304252778803
 31
0.0
  0
LINE
  5
174
330
6E
100
AcDbEntity
  8
DEFAULT
  6
CONTINUOUS
 62
     7
100
AcDbLine
 10
17.97468783921368
 20
9.922857787818303
 30
0.0
 11
17.97468783921368
 21
9.422857793860901
 31
0.0
  0
LINE
  5
175
330
6E
100
AcDbEntity
  8
DEFAULT
  6
CONTINUOUS
 62
     7
100
AcDbLine
 10
17.97468783921368
 20
9.266868453307118
 30
0.0
 11
17.97468783921366
 21
8.164304183556982
 31
0.0
  0
TEXT
  5
176
330
6E
100
AcDbEntity
  8
DEFAULT
  6
CONTINUOUS
 62
     7
100
AcDbText
 10
18.81218784848289
 20
8.039304252778805
 30
0.0
 40
0.25
  1
1/4"
  7
ARIAL_TTF
 11
18.81218784848289
 21
8.289304252778803
 31
0.0
100
AcDbText
 73
     3
  0
ENDBLK
  5
177
330
6E
100
AcDbEntity
  8
DEFAULT
  6
CONTINUOUS
 62
     7
100
AcDbBlockEnd
  0
ENDSEC
  0
SECTION
  2
ENTITIES
  0
TEXT
  5
5C
330
A
100
AcDbEntity
  8
DEFAULT
  6
CONTINUOUS
 62
     7
100
AcDbText
 10
8.5366878412858
 20
0.8932314708552333
 30
0.0
 40
0.25
  1
SYSTEM: POKE-THRU
  7
ARIAL_TTF
 11
8.5366878412858
 21
1.143231470855233
 31
0.0
100
AcDbText
 73
     3
  0
TEXT
  5
5D
330
A
100
AcDbEntity
  8
DEFAULT
  6
CONTINUOUS
 62
     7
100
AcDbText
 10
7.876361754329279
 20
0.5019271230291463
 30
0.0
 40
0.25
  1
CATALOG NUMBER RC4APTC
  7
ARIAL_TTF
 11
7.876361754329279
 21
0.7519271230291463
 31
0.0
100
AcDbText
 73
     3
  0
INSERT
  5
60
330
A
100
AcDbEntity
  8
0
 62
     0
 48
0.0
100
AcDbBlockReference
  2
SE0
 10
0.0
 20
0.0
 30
0.0
  0
INSERT
  5
63
330
A
100
AcDbEntity
  8
0
 62
     0
 48
0.0
100
AcDbBlockReference
  2
SE2
 10
0.0
 20
0.0
 30
0.0
  0
INSERT
  5
66
330
A
100
AcDbEntity
  8
0
 62
     0
 48
0.0
100
AcDbBlockReference
  2
SE4
 10
0.0
 20
0.0
 30
0.0
  0
INSERT
  5
69
330
A
100
AcDbEntity
  8
0
 62
     0
 48
0.0
100
AcDbBlockReference
  2
SE6
 10
0.0
 20
0.0
 30
0.0
  0
INSERT
  5
6D
330
A
100
AcDbEntity
  8
DEFAULT
 62
     0
 48
0.0
100
AcDbBlockReference
  2
SE8
 10
0.0
 20
0.0
 30
0.0
  0
INSERT
  5
71
330
A
100
AcDbEntity
  8
DEFAULT
 62
     0
 48
0.0
100
AcDbBlockReference
  2
SE9
 10
0.0
 20
0.0
 30
0.0
  0
ENDSEC
  0
SECTION
  2
OBJECTS
  0
DICTIONARY
  5
19
330
0
100
AcDbDictionary
  3
ACAD_GROUP
350
1A
  3
ACAD_LAYOUT
350
17B
  3
ACAD_MLINESTYLE
350
1B
  3
ACAD_PLOTSETTINGS
350
17C
  3
ACAD_PLOTSTYLENAME
350
179
  3
ACDBHEADERROUNDTRIPXREC
350
1B8
  0
DICTIONARY
  5
1D8
330
A
100
AcDbDictionary
280
     1
  3
ACAD_LAYOUTSELFREF
360
1D9
  0
DICTIONARY
  5
1DA
330
B
100
AcDbDictionary
280
     1
  3
ACAD_LAYOUTSELFREF
360
1DB
  0
DICTIONARY
  5
1A
102
{ACAD_REACTORS
330
19
102
}
330
19
100
AcDbDictionary
  0
DICTIONARY
  5
17B
102
{ACAD_REACTORS
330
19
102
}
330
19
100
AcDbDictionary
  0
DICTIONARY
  5
1B
102
{ACAD_REACTORS
330
19
102
}
330
19
100
AcDbDictionary
  3
STANDARD
350
1C
  0
DICTIONARY
  5
17C
102
{ACAD_REACTORS
330
19
102
}
330
19
100
AcDbDictionary
  0
ACDBDICTIONARYWDFLT
  5
179
102
{ACAD_REACTORS
330
19
102
}
330
19
100
AcDbDictionary
281
     1
  3
Normal
350
17A
100
AcDbDictionaryWithDefault
340
17A
  0
DICTIONARY
  5
1B8
102
{ACAD_REACTORS
330
19
102
}
330
19
100
AcDbDictionary
  3
CEPSNTYPE
350
1C2
  3
FINGERPRINTGUID
350
1C3
  3
HYPERLINKBASE
350
1BB
  3
INSUNITS
350
1C1
  3
LAYOUTDICT
350
1BD
  3
LWETCUNION
350
1C0
  3
PLOTSETDICT
350
1BE
  3
PLOTSTYLNAMDICT
350
1BF
  3
PSVPSCALE
350
1C5
  3
PUCSBASE
350
1C8
  3
PUCSORGBACK
350
1CE
  3
PUCSORGBOTTOM
350
1CA
  3
PUCSORGFRONT
350
1CD
  3
PUCSORGLEFT
350
1CB
  3
PUCSORGRIGHT
350
1CC
  3
PUCSORGTOP
350
1C9
  3
PUCSORTHOREF
350
1C6
  3
PUCSORTHOVIEW
350
1C7
  3
STYLESHEET
350
1BC
  3
TSTACKALIGN
350
1B9
  3
TSTACKSIZE
350
1BA
  3
UCSBASE
350
1D1
  3
UCSORGBACK
350
1D7
  3
UCSORGBOTTOM
350
1D3
  3
UCSORGFRONT
350
1D6
  3
UCSORGLEFT
350
1D4
  3
UCSORGRIGHT
350
1D5
  3
UCSORGTOP
350
1D2
  3
UCSORTHOREF
350
1CF
  3
UCSORTHOVIEW
350
1D0
  3
VERSIONGUID
350
1C4
  0
XRECORD
  5
1D9
102
{ACAD_REACTORS
330
1D8
102
}
330
1D8
100
AcDbXrecord
340
A
  0
XRECORD
  5
1DB
102
{ACAD_REACTORS
330
1DA
102
}
330
1DA
100
AcDbXrecord
340
B
  0
MLINESTYLE
  5
1C
102
{ACAD_REACTORS
330
1B
102
}
330
1B
100
AcDbMlineStyle
  2
STANDARD
 70
     0
  3

 62
     0
 51
90.0
 52
90.0
 71
     2
 49
0.5
 62
   256
  6
BYLAYER
 49
-0.5
 62
   256
  6
BYLAYER
  0
ACDBPLACEHOLDER
  5
17A
102
{ACAD_REACTORS
330
179
102
}
330
179
100
AcDbPlaceHolder
280
     0
  0
XRECORD
  5
1C2
102
{ACAD_REACTORS
330
1B8
102
}
330
1B8
100
AcDbXrecord
 90
        0
  0
XRECORD
  5
1C3
102
{ACAD_REACTORS
330
1B8
102
}
330
1B8
100
AcDbXrecord
  1
{2639ED7A-1663-4130-A71D-F43C29594E07}
  0
XRECORD
  5
1BB
102
{ACAD_REACTORS
330
1B8
102
}
330
1B8
100
AcDbXrecord
  1

  0
XRECORD
  5
1C1
102
{ACAD_REACTORS
330
1B8
102
}
330
1B8
100
AcDbXrecord
 90
        0
  0
XRECORD
  5
1BD
102
{ACAD_REACTORS
330
1B8
102
}
330
1B8
100
AcDbXrecord
340
17B
  0
XRECORD
  5
1C0
102
{ACAD_REACTORS
330
1B8
102
}
330
1B8
100
AcDbXrecord
 90
    14877
  0
XRECORD
  5
1BE
102
{ACAD_REACTORS
330
1B8
102
}
330
1B8
100
AcDbXrecord
340
17C
  0
XRECORD
  5
1BF
102
{ACAD_REACTORS
330
1B8
102
}
330
1B8
100
AcDbXrecord
340
179
  0
XRECORD
  5
1C5
102
{ACAD_REACTORS
330
1B8
102
}
330
1B8
100
AcDbXrecord
 40
0.0
  0
XRECORD
  5
1C8
102
{ACAD_REACTORS
330
1B8
102
}
330
1B8
100
AcDbXrecord
340
0
  0
XRECORD
  5
1CE
102
{ACAD_REACTORS
330
1B8
102
}
330
1B8
100
AcDbXrecord
 10
0.0
 20
0.0
 30
0.0
  0
XRECORD
  5
1CA
102
{ACAD_REACTORS
330
1B8
102
}
330
1B8
100
AcDbXrecord
 10
0.0
 20
0.0
 30
0.0
  0
XRECORD
  5
1CD
102
{ACAD_REACTORS
330
1B8
102
}
330
1B8
100
AcDbXrecord
 10
0.0
 20
0.0
 30
0.0
  0
XRECORD
  5
1CB
102
{ACAD_REACTORS
330
1B8
102
}
330
1B8
100
AcDbXrecord
 10
0.0
 20
0.0
 30
0.0
  0
XRECORD
  5
1CC
102
{ACAD_REACTORS
330
1B8
102
}
330
1B8
100
AcDbXrecord
 10
0.0
 20
0.0
 30
0.0
  0
XRECORD
  5
1C9
102
{ACAD_REACTORS
330
1B8
102
}
330
1B8
100
AcDbXrecord
 10
0.0
 20
0.0
 30
0.0
  0
XRECORD
  5
1C6
102
{ACAD_REACTORS
330
1B8
102
}
330
1B8
100
AcDbXrecord
340
0
  0
XRECORD
  5
1C7
102
{ACAD_REACTORS
330
1B8
102
}
330
1B8
100
AcDbXrecord
 70
     0
  0
XRECORD
  5
1BC
102
{ACAD_REACTORS
330
1B8
102
}
330
1B8
100
AcDbXrecord
  1

  0
XRECORD
  5
1B9
102
{ACAD_REACTORS
330
1B8
102
}
330
1B8
100
AcDbXrecord
 90
        1
  0
XRECORD
  5
1BA
102
{ACAD_REACTORS
330
1B8
102
}
330
1B8
100
AcDbXrecord
 90
       70
  0
XRECORD
  5
1D1
102
{ACAD_REACTORS
330
1B8
102
}
330
1B8
100
AcDbXrecord
340
0
  0
XRECORD
  5
1D7
102
{ACAD_REACTORS
330
1B8
102
}
330
1B8
100
AcDbXrecord
 10
0.0
 20
0.0
 30
0.0
  0
XRECORD
  5
1D3
102
{ACAD_REACTORS
330
1B8
102
}
330
1B8
100
AcDbXrecord
 10
0.0
 20
0.0
 30
0.0
  0
XRECORD
  5
1D6
102
{ACAD_REACTORS
330
1B8
102
}
330
1B8
100
AcDbXrecord
 10
0.0
 20
0.0
 30
0.0
  0
XRECORD
  5
1D4
102
{ACAD_REACTORS
330
1B8
102
}
330
1B8
100
AcDbXrecord
 10
0.0
 20
0.0
 30
0.0
  0
XRECORD
  5
1D5
102
{ACAD_REACTORS
330
1B8
102
}
330
1B8
100
AcDbXrecord
 10
0.0
 20
0.0
 30
0.0
  0
XRECORD
  5
1D2
102
{ACAD_REACTORS
330
1B8
102
}
330
1B8
100
AcDbXrecord
 10
0.0
 20
0.0
 30
0.0
  0
XRECORD
  5
1CF
102
{ACAD_REACTORS
330
1B8
102
}
330
1B8
100
AcDbXrecord
340
0
  0
XRECORD
  5
1D0
102
{ACAD_REACTORS
330
1B8
102
}
330
1B8
100
AcDbXrecord
 70
     0
  0
XRECORD
  5
1C4
102
{ACAD_REACTORS
330
1B8
102
}
330
1B8
100
AcDbXrecord
  1
{2503BCE5-5000-496F-B1A5-E8D6C6924DEC}
  0
ENDSEC
  0
EOF
