  0
SECTION
  2
HEADER
  9
$ACADVER
  1
AC1009
  9
$INSBASE
 10
0.0
 20
0.0
 30
0.0
  9
$EXTMIN
 10
7.0204108213
 20
4.1256856059
 30
0.0
  9
$EXTMAX
 10
20.0783816204
 20
17.456400859
 30
0.0
  9
$LIMMIN
 10
0.0
 20
0.0
  9
$LIMMAX
 10
12.0
 20
9.0
  9
$ORTHOMODE
 70
         0
  9
$REGENMODE
 70
         1
  9
$FILLMODE
 70
         1
  9
$QTEXTMODE
 70
         0
  9
$MIRRTEXT
 70
         1
  9
$DRAGMODE
 70
         2
  9
$LTSCALE
 40
1.0
  9
$OSMODE
 70
         0
  9
$ATTMODE
 70
         1
  9
$TEXTSIZE
 40
0.2
  9
$TRACEWID
 40
0.05
  9
$TEXTSTYLE
  7
STANDARD
  9
$CLAYER
  8
0
  9
$CELTYPE
  6
CONTINUOUS
  9
$CECOLOR
 62
       256
  9
$DIMSCALE
 40
1.0
  9
$DIMASZ
 40
0.18
  9
$DIMEXO
 40
0.0625
  9
$DIMDLI
 40
0.38
  9
$DIMRND
 40
0.0
  9
$DIMDLE
 40
0.0
  9
$DIMEXE
 40
0.18
  9
$DIMTP
 40
0.0
  9
$DIMTM
 40
0.0
  9
$DIMTXT
 40
0.18
  9
$DIMCEN
 40
0.09
  9
$DIMTSZ
 40
0.0
  9
$DIMTOL
 70
         0
  9
$DIMLIM
 70
         0
  9
$DIMTIH
 70
         1
  9
$DIMTOH
 70
         1
  9
$DIMSE1
 70
         0
  9
$DIMSE2
 70
         0
  9
$DIMTAD
 70
         0
  9
$DIMZIN
 70
         0
  9
$DIMBLK
  1

  9
$DIMASO
 70
         1
  9
$DIMSHO
 70
         1
  9
$DIMPOST
  1

  9
$DIMAPOST
  1

  9
$DIMALT
 70
         0
  9
$DIMALTD
 70
         2
  9
$DIMALTF
 40
25.4
  9
$DIMLFAC
 40
1.0
  9
$DIMTOFL
 70
         0
  9
$DIMTVP
 40
0.0
  9
$DIMTIX
 70
         0
  9
$DIMSOXD
 70
         0
  9
$DIMSAH
 70
         0
  9
$DIMBLK1
  1

  9
$DIMBLK2
  1

  9
$DIMSTYLE
  2
STANDARD
  9
$DIMCLRD
 70
         0
  9
$DIMCLRE
 70
         0
  9
$DIMCLRT
 70
         0
  9
$DIMTFAC
 40
1.0
  9
$DIMGAP
 40
0.09
  9
$LUNITS
 70
         2
  9
$LUPREC
 70
         4
  9
$AXISMODE
 70
         0
  9
$AXISUNIT
 10
0.0
 20
0.0
  9
$SKETCHINC
 40
0.1
  9
$FILLETRAD
 40
0.0
  9
$AUNITS
 70
         0
  9
$AUPREC
 70
         0
  9
$MENU
  1
acad
  9
$ELEVATION
 40
0.0
  9
$PELEVATION
 40
0.0
  9
$THICKNESS
 40
0.0
  9
$LIMCHECK
 70
         0
  9
$BLIPMODE
 70
         1
  9
$CHAMFERA
 40
0.0
  9
$CHAMFERB
 40
0.0
  9
$SKPOLY
 70
         0
  9
$TDCREATE
 40
0.000000000
  9
$TDUPDATE
 40
0.000000000
  9
$TDINDWG
 40
0.0000000000
  9
$TDUSRTIMER
 40
0.0000000000
  9
$USRTIMER
 70
         1
  9
$ANGBASE
 50
0.0
  9
$ANGDIR
 70
         0
  9
$PDMODE
 70
         0
  9
$PDSIZE
 40
0.0
  9
$PLINEWID
 40
0.0
  9
$COORDS
 70
         0
  9
$SPLFRAME
 70
         0
  9
$SPLINETYPE
 70
         6
  9
$SPLINESEGS
 70
         8
  9
$ATTDIA
 70
         0
  9
$ATTREQ
 70
         1
  9
$HANDLING
 70
         1
  9
$HANDSEED
  5
680
  9
$SURFTAB1
 70
         6
  9
$SURFTAB2
 70
         6
  9
$SURFTYPE
 70
         6
  9
$SURFU
 70
         6
  9
$SURFV
 70
         6
  9
$UCSNAME
  2

  9
$UCSORG
 10
0.0
 20
0.0
 30
0.0
  9
$UCSXDIR
 10
1.0
 20
0.0
 30
0.0
  9
$UCSYDIR
 10
0.0
 20
1.0
 30
0.0
  9
$PUCSNAME
  2

  9
$PUCSORG
 10
0.0
 20
0.0
 30
0.0
  9
$PUCSXDIR
 10
1.0
 20
0.0
 30
0.0
  9
$PUCSYDIR
 10
0.0
 20
1.0
 30
0.0
  9
$USERI1
 70
         0
  9
$USERI2
 70
         0
  9
$USERI3
 70
         0
  9
$USERI4
 70
         0
  9
$USERI5
 70
         0
  9
$USERR1
 40
0.0
  9
$USERR2
 40
0.0
  9
$USERR3
 40
0.0
  9
$USERR4
 40
0.0
  9
$USERR5
 40
0.0
  9
$WORLDVIEW
 70
         1
  9
$SHADEDGE
 70
         3
  9
$SHADEDIF
 70
        70
  9
$TILEMODE
 70
         1
  9
$MAXACTVP
 70
        16
  9
$PINSBASE
 10
0.0
 20
0.0
 30
0.0
  9
$PLIMCHECK
 70
         0
  9
$PEXTMIN
 10
1.0000000000E+20
 20
1.0000000000E+20
 30
1.0000000000E+20
  9
$PEXTMAX
 10
-1.0000000000E+20
 20
-1.0000000000E+20
 30
-1.0000000000E+20
  9
$PLIMMIN
 10
0.0
 20
0.0
  9
$PLIMMAX
 10
12.0
 20
9.0
  9
$UNITMODE
 70
         0
  9
$VISRETAIN
 70
         0
  9
$PLINEGEN
 70
         1
  9
$PSLTSCALE
 70
         0
  9
$TREEDEPTH
 70
      3020
  9
$DWGCODEPAGE
  3
ansi_1252
  0
ENDSEC
  0
SECTION
  2
TABLES
  0
TABLE
  2
VPORT
 70
         1
  0
VPORT
  2
*ACTIVE
 70
         0
 10
0.0
 20
0.0
 11
1.0
 21
1.0
 12
13.5493962209
 22
10.7910432324
 13
0.0
 23
0.0
 14
1.0
 24
1.0
 15
0.0
 25
0.0
 16
0.0
 26
0.0
 36
1.0
 17
0.0
 27
0.0
 37
0.0
 40
13.3307152532
 41
1.604229
 42
50.0
 43
0.0
 44
0.0
 50
0.0
 51
0.0
 71
         0
 72
       100
 73
         1
 74
         1
 75
         0
 76
         0
 77
         0
 78
         0
  0
ENDTAB
  0
TABLE
  2
LTYPE
 70
         5
  0
LTYPE
  2
CONTINUOUS
 70
         0
  3
Solid line
 72
        65
 73
         0
 40
0.0
  0
LTYPE
  2
HIDDEN2
 70
        64
  3
_ _ _ _ _ _ _ _ _ _ _ _ _ _ _ _ _ _ _ _ _ _ _ _
 72
        65
 73
         2
 40
0.1875
 49
0.125
 49
-0.0625
  0
LTYPE
  2
CENTER2
 70
        64
  3
___ _ ___ _ ___ _ ___ _ ___ _ ___ _ ___ _ ___ _
 72
        65
 73
         4
 40
1.125
 49
0.75
 49
-0.125
 49
0.125
 49
-0.125
  0
LTYPE
  2
PHANTOM2
 70
        64
  3
___ _ _ ___ _ _ ___ _ _ ___ _ _ ___ _ _ ___ _ _
 72
        65
 73
         6
 40
1.25
 49
0.625
 49
-0.125
 49
0.125
 49
-0.125
 49
0.125
 49
-0.125
  0
LTYPE
  2
DOT2
 70
        64
  3
...............................................
 72
        65
 73
         2
 40
0.125
 49
0.0
 49
-0.125
  0
ENDTAB
  0
TABLE
  2
LAYER
 70
        11
  0
LAYER
  2
0
 70
         0
 62
         7
  6
CONTINUOUS
  0
LAYER
  2
DEFAULT
 70
         0
 62
         7
  6
CONTINUOUS
  0
LAYER
  2
83762X1
 70
         0
 62
         7
  6
CONTINUOUS
  0
LAYER
  2
83763X1
 70
         0
 62
         7
  6
CONTINUOUS
  0
LAYER
  2
1031
 70
         0
 62
         7
  6
CONTINUOUS
  0
LAYER
  2
2186
 70
         0
 62
         7
  6
CONTINUOUS
  0
LAYER
  2
81090X
 70
         0
 62
         7
  6
CONTINUOUS
  0
LAYER
  2
1_000_700
 70
         0
 62
         7
  6
CONTINUOUS
  0
LAYER
  2
81093X
 70
         0
 62
         7
  6
CONTINUOUS
  0
LAYER
  2
429022-024
 70
         0
 62
         7
  6
CONTINUOUS
  0
LAYER
  2
428003-048
 70
         0
 62
         7
  6
CONTINUOUS
  0
ENDTAB
  0
TABLE
  2
STYLE
 70
         2
  0
STYLE
  2
STANDARD
 70
         0
 40
0.0
 41
1.0
 50
0.0
 71
         0
 42
0.2
  3
txt
  4

  0
STYLE
  2
ARIAL_TTF
 70
         0
 40
0.0
 41
1.0
 50
0.0
 71
         0
 42
0.2
  3
arial.ttf
  4

  0
ENDTAB
  0
TABLE
  2
VIEW
 70
         0
  0
ENDTAB
  0
TABLE
  2
UCS
 70
         0
  0
ENDTAB
  0
TABLE
  2
APPID
 70
         1
  0
APPID
  2
ACAD
 70
         0
  0
ENDTAB
  0
TABLE
  2
DIMSTYLE
 70
         1
  0
DIMSTYLE
  2
STANDARD
 70
         0
  3

  4

  5

  6

  7

 40
1.0
 41
0.18
 42
0.0625
 43
0.38
 44
0.18
 45
0.0
 46
0.0
 47
0.0
 48
0.0
 71
         0
 72
         0
 73
         1
 74
         1
 75
         0
 76
         0
 77
         0
 78
         0
140
0.18
141
0.09
142
0.0
143
25.4
144
1.0
145
0.0
146
1.0
147
0.09
170
         0
171
         2
172
         0
173
         0
174
         0
175
         0
176
         0
177
         0
178
         0
  0
ENDTAB
  0
ENDSEC
  0
SECTION
  2
BLOCKS
  0
BLOCK
  8
0
 62
         1
 48
0.0
  5
48
  2
*X0
 70
         1
 10
0.0
 20
0.0
 30
0.0
  3
*X0
  0
ARC
  8
83762X1
  6
CONTINUOUS
 62
         7
  5
4A
 10
8.1604108213
 20
14.924400859
 30
0.0
 40
0.1651694939
 50
319.697487705
 51
320.0492859773
  0
ARC
  8
83762X1
  6
CONTINUOUS
 62
         7
  5
4B
 10
8.1604108213
 20
14.924400859
 30
0.0
 40
0.1651694939
 50
359.6263151549
 51
0.3549821497
  0
ARC
  8
83762X1
  6
CONTINUOUS
 62
         7
  5
4C
 10
8.1604108213
 20
14.924400859
 30
0.0
 40
0.2575
 50
27.6662307587
 51
292.386239096
  0
ARC
  8
83762X1
  6
CONTINUOUS
 62
         7
  5
4D
 10
9.1454108213
 20
14.566400859
 30
0.0
 40
0.895
 50
172.3007622724
 51
239.3542394801
  0
LINE
  8
83762X1
  6
CONTINUOUS
 62
         7
  5
4E
 10
9.9798040946
 20
14.301400859
 30
0.0
 11
10.0002792322
 21
14.301400859
 31
0.0
  0
ARC
  8
83762X1
  6
CONTINUOUS
 62
         7
  5
4F
 10
9.1454108213
 20
14.566400859
 30
0.0
 40
0.895
 50
125.9505676196
 51
147.7517075823
  0
ARC
  8
83762X1
  6
CONTINUOUS
 62
         7
  5
50
 10
9.1454108213
 20
14.566400859
 30
0.0
 40
0.895
 50
17.2228731879
 51
54.0494323804
  0
ARC
  8
83762X1
  6
CONTINUOUS
 62
         7
  5
51
 10
9.1454108213
 20
14.566400859
 30
0.0
 40
0.895
 50
300.6457605199
 51
342.7771268121
  0
LINE
  8
83762X1
  6
CONTINUOUS
 62
         7
  5
52
 10
8.6892036315
 20
13.796400859
 30
0.0
 11
8.9682809255
 21
13.796400859
 31
0.0
  0
LINE
  8
83762X1
  6
CONTINUOUS
 62
         7
  5
53
 10
9.3225407172
 20
13.796400859
 30
0.0
 11
9.6016180111
 21
13.796400859
 31
0.0
  0
ARC
  8
83762X1
  6
CONTINUOUS
 62
         7
  5
54
 10
9.7002080816
 20
15.331400859
 30
0.0
 40
0.05
 50
125.9505676196
 51
234.0494323804
  0
ARC
  8
83762X1
  6
CONTINUOUS
 62
         7
  5
55
 10
9.5903827305
 20
15.331400859
 30
0.0
 40
0.05
 50
174.2608295227
 51
185.7391704773
  0
ARC
  8
83762X1
  6
CONTINUOUS
 62
         7
  5
56
 10
10.4944108213
 20
14.331400859
 30
0.0
 40
0.03
 50
270.0
 51
360.0
  0
ARC
  8
83762X1
  6
CONTINUOUS
 62
         7
  5
57
 10
10.4944108213
 20
16.331400859
 30
0.0
 40
0.03
 50
0.0
 51
90.0
  0
ARC
  8
83762X1
  6
CONTINUOUS
 62
         7
  5
58
 10
10.4944108213
 20
15.861400859
 30
0.0
 40
0.03
 50
270.0
 51
360.0
  0
ARC
  8
83762X1
  6
CONTINUOUS
 62
         7
  5
59
 10
10.4944108213
 20
14.801400859
 30
0.0
 40
0.03
 50
0.0
 51
90.0
  0
ARC
  8
83762X1
  6
CONTINUOUS
 62
         7
  5
5A
 10
8.590613561
 20
15.331400859
 30
0.0
 40
0.05
 50
305.9505676196
 51
54.0494323804
  0
ARC
  8
83762X1
  6
CONTINUOUS
 62
         7
  5
5B
 10
9.1454108213
 20
16.096400859
 30
0.0
 40
0.895
 50
212.2482924177
 51
234.0494323804
  0
CIRCLE
  8
83762X1
  6
CONTINUOUS
 62
         7
  5
5C
 10
9.1454108213
 20
15.331400859
 30
0.0
 40
2.125
  0
ARC
  8
83762X1
  6
CONTINUOUS
 62
         7
  5
5D
 10
9.1454108213
 20
14.566400859
 30
0.0
 40
0.835
 50
293.480252514
 51
294.4698116428
  0
LINE
  8
83762X1
  6
CONTINUOUS
 62
         7
  5
5E
 10
8.9682809255
 20
13.796400859
 30
0.0
 11
9.3225407172
 21
13.796400859
 31
0.0
  0
ARC
  8
83762X1
  6
CONTINUOUS
 62
         7
  5
5F
 10
9.1454108213
 20
14.566400859
 30
0.0
 40
0.835
 50
245.5301883572
 51
246.519747486
  0
LINE
  8
83762X1
  6
CONTINUOUS
 62
         7
  5
60
 10
9.3225407172
 20
16.866400859
 30
0.0
 11
8.9682809255
 21
16.866400859
 31
0.0
  0
ARC
  8
83762X1
  6
CONTINUOUS
 62
         7
  5
61
 10
8.7004389121
 20
15.331400859
 30
0.0
 40
0.05
 50
354.2608295227
 51
5.7391704773
  0
ARC
  8
83762X1
  6
CONTINUOUS
 62
         7
  5
62
 10
8.8326409379
 20
16.816400859
 30
0.0
 40
0.05
 50
90.0
 51
113.480252514
  0
ARC
  8
83762X1
  6
CONTINUOUS
 62
         7
  5
63
 10
9.4581807048
 20
16.816400859
 30
0.0
 40
0.05
 50
66.519747486
 51
90.0
  0
ARC
  8
83762X1
  6
CONTINUOUS
 62
         7
  5
64
 10
8.8326409379
 20
13.846400859
 30
0.0
 40
0.05
 50
246.519747486
 51
270.0
  0
ARC
  8
83762X1
  6
CONTINUOUS
 62
         7
  5
65
 10
9.4581807048
 20
13.846400859
 30
0.0
 40
0.05
 50
270.0
 51
293.480252514
  0
LINE
  8
83762X1
  6
CONTINUOUS
 62
         7
  5
66
 10
9.9798040946
 20
14.831400859
 30
0.0
 11
10.0002792322
 21
14.831400859
 31
0.0
  0
ARC
  8
83762X1
  6
CONTINUOUS
 62
         7
  5
67
 10
8.1604108213
 20
14.924400859
 30
0.0
 40
0.114
 50
76.6168865176
 51
99.3831134824
  0
ARC
  8
83762X1
  6
CONTINUOUS
 62
         7
  5
68
 10
8.1604108213
 20
14.924400859
 30
0.0
 40
0.114
 50
256.6168865176
 51
279.3831134824
  0
LINE
  8
83762X1
  6
CONTINUOUS
 62
         7
  5
69
 10
10.4944108213
 20
14.301400859
 30
0.0
 11
10.0002792322
 21
14.301400859
 31
0.0
  0
LINE
  8
83762X1
  6
CONTINUOUS
 62
         7
  5
6A
 10
10.4944108213
 20
14.831400859
 30
0.0
 11
10.0002792322
 21
14.831400859
 31
0.0
  0
ARC
  8
83762X1
  6
CONTINUOUS
 62
         7
  5
6B
 10
9.1454108213
 20
13.859400859
 30
0.0
 40
0.188
 50
199.5790071662
 51
340.4209928338
  0
LINE
  8
83762X1
  6
CONTINUOUS
 62
         7
  5
6C
 10
10.5244108213
 20
14.331400859
 30
0.0
 11
10.5244108213
 21
14.801400859
 31
0.0
  0
ARC
  8
83762X1
  6
CONTINUOUS
 62
         7
  5
6D
 10
9.1454108213
 20
16.803400859
 30
0.0
 40
0.188
 50
19.5790071662
 51
160.4209928338
  0
LINE
  8
83762X1
  6
CONTINUOUS
 62
         7
  5
6E
 10
10.0002792322
 20
16.361400859
 30
0.0
 11
10.4944108213
 21
16.361400859
 31
0.0
  0
LINE
  8
83762X1
  6
CONTINUOUS
 62
         7
  5
6F
 10
10.0002792322
 20
15.831400859
 30
0.0
 11
10.4944108213
 21
15.831400859
 31
0.0
  0
LINE
  8
83762X1
  6
CONTINUOUS
 62
         7
  5
70
 10
9.9798040946
 20
15.831400859
 30
0.0
 11
10.0002792322
 21
15.831400859
 31
0.0
  0
LINE
  8
83762X1
  6
CONTINUOUS
 62
         7
  5
71
 10
9.9798040946
 20
16.361400859
 30
0.0
 11
10.0002792322
 21
16.361400859
 31
0.0
  0
LINE
  8
83762X1
  6
CONTINUOUS
 62
         7
  5
72
 10
10.5244108213
 20
16.331400859
 30
0.0
 11
10.5244108213
 21
15.861400859
 31
0.0
  0
ARC
  8
83762X1
  6
CONTINUOUS
 62
         7
  5
73
 10
9.1454108213
 20
16.096400859
 30
0.0
 40
0.835
 50
65.5301883572
 51
66.519747486
  0
ARC
  8
83762X1
  6
CONTINUOUS
 62
         7
  5
74
 10
9.1454108213
 20
16.096400859
 30
0.0
 40
0.835
 50
113.480252514
 51
114.4698116428
  0
ARC
  8
83762X1
  6
CONTINUOUS
 62
         7
  5
75
 10
9.1454108213
 20
16.096400859
 30
0.0
 40
0.895
 50
120.6457605199
 51
187.6992377276
  0
LINE
  8
83762X1
  6
CONTINUOUS
 62
         7
  5
76
 10
8.9682809255
 20
16.866400859
 30
0.0
 11
8.6892036315
 21
16.866400859
 31
0.0
  0
LINE
  8
83762X1
  6
CONTINUOUS
 62
         7
  5
77
 10
9.6016180111
 20
16.866400859
 30
0.0
 11
9.3225407172
 21
16.866400859
 31
0.0
  0
ARC
  8
83762X1
  6
CONTINUOUS
 62
         7
  5
78
 10
9.1454108213
 20
16.096400859
 30
0.0
 40
0.895
 50
17.2228731879
 51
59.3542394801
  0
ARC
  8
83762X1
  6
CONTINUOUS
 62
         7
  5
7A
 10
8.1604108213
 20
15.738400859
 30
0.0
 40
0.114
 50
78.6168865176
 51
101.3831134824
  0
ARC
  8
83762X1
  6
CONTINUOUS
 62
         7
  5
7B
 10
8.1604108213
 20
15.738400859
 30
0.0
 40
0.114
 50
258.6168865176
 51
281.3831134824
  0
ARC
  8
83762X1
  6
CONTINUOUS
 62
         7
  5
7C
 10
9.1454108213
 20
16.096400859
 30
0.0
 40
0.895
 50
305.9505676196
 51
342.7771268121
  0
CIRCLE
  8
83762X1
  6
CONTINUOUS
 62
         7
  5
7D
 10
8.2859108213
 20
16.8200985281
 30
0.0
 40
0.166
  0
CIRCLE
  8
83762X1
  6
CONTINUOUS
 62
         7
  5
7E
 10
8.2859108213
 20
13.8427031899
 30
0.0
 40
0.166
  0
CIRCLE
  8
83762X1
  6
CONTINUOUS
 62
         7
  5
7F
 10
10.8644108213
 20
15.331400859
 30
0.0
 40
0.166
  0
ARC
  8
83762X1
  6
CONTINUOUS
 62
         7
  5
80
 10
8.1604108213
 20
15.738400859
 30
0.0
 40
0.2575
 50
67.613760904
 51
332.3337692413
  0
ARC
  8
83762X1
  6
CONTINUOUS
 62
         7
  5
83
 10
8.1604108213
 20
15.738400859
 30
0.0
 40
0.1651694939
 50
359.6450178503
 51
0.373684845
  0
ARC
  8
83762X1
  6
CONTINUOUS
 62
         7
  5
84
 10
8.1604108213
 20
15.738400859
 30
0.0
 40
0.1651694939
 50
39.9507140227
 51
40.302512295
  0
LINE
  8
83763X1
  6
CONTINUOUS
 62
         7
  5
85
 10
9.9828776348
 20
14.821400859
 30
0.0
 11
10.437392535
 21
14.821400859
 31
0.0
  0
LINE
  8
83763X1
  6
CONTINUOUS
 62
         7
  5
86
 10
10.4674108213
 20
14.341400859
 30
0.0
 11
10.4674108213
 21
14.791400859
 31
0.0
  0
ARC
  8
83763X1
  6
CONTINUOUS
 62
         7
  5
87
 10
9.1354108213
 20
14.566400859
 30
0.0
 40
0.885
 50
120.8226889571
 51
239.1773110429
  0
ARC
  8
83763X1
  6
CONTINUOUS
 62
         7
  5
88
 10
9.1354108213
 20
14.566400859
 30
0.0
 40
0.885
 50
300.8226889571
 51
343.253630417
  0
ARC
  8
83763X1
  6
CONTINUOUS
 62
         7
  5
89
 10
9.1354108213
 20
14.566400859
 30
0.0
 40
0.885
 50
16.746369583
 51
59.1773110429
  0
LINE
  8
83763X1
  6
CONTINUOUS
 62
         7
  5
8A
 10
8.6819518926
 20
15.326400859
 30
0.0
 11
9.58886975
 21
15.326400859
 31
0.0
  0
LINE
  8
83763X1
  6
CONTINUOUS
 62
         7
  5
8B
 10
9.58886975
 20
13.806400859
 30
0.0
 11
8.6819518926
 21
13.806400859
 31
0.0
  0
LINE
  8
83763X1
  6
CONTINUOUS
 62
         7
  5
8C
 10
9.9828776348
 20
14.311400859
 30
0.0
 11
10.437392535
 21
14.311400859
 31
0.0
  0
POLYLINE
  8
83763X1
  6
CONTINUOUS
 62
         7
  5
8D
 66
         1
 10
0.0
 20
0.0
 30
0.0
  0
VERTEX
  8
83763X1
  6
CONTINUOUS
 62
         7
  5
8E
 10
10.4674108213
 20
14.791400859
 30
0.0
  0
VERTEX
  8
83763X1
  6
CONTINUOUS
 62
         7
  5
8F
 10
10.463576298
 20
14.8060721093
 30
0.0
  0
VERTEX
  8
83763X1
  6
CONTINUOUS
 62
         7
  5
90
 10
10.452072728
 20
14.8175686716
 30
0.0
  0
VERTEX
  8
83763X1
  6
CONTINUOUS
 62
         7
  5
91
 10
10.437392535
 20
14.821400859
 30
0.0
  0
SEQEND
  8
83763X1
  6
CONTINUOUS
 62
         7
  5
92
  0
POLYLINE
  8
83763X1
  6
CONTINUOUS
 62
         7
  5
93
 66
         1
 10
0.0
 20
0.0
 30
0.0
  0
VERTEX
  8
83763X1
  6
CONTINUOUS
 62
         7
  5
94
 10
10.437392535
 20
14.311400859
 30
0.0
  0
VERTEX
  8
83763X1
  6
CONTINUOUS
 62
         7
  5
95
 10
10.452072728
 20
14.3152330465
 30
0.0
  0
VERTEX
  8
83763X1
  6
CONTINUOUS
 62
         7
  5
96
 10
10.463576298
 20
14.3267296088
 30
0.0
  0
VERTEX
  8
83763X1
  6
CONTINUOUS
 62
         7
  5
97
 10
10.4674108213
 20
14.341400859
 30
0.0
  0
SEQEND
  8
83763X1
  6
CONTINUOUS
 62
         7
  5
98
  0
LINE
  8
83763X1
  6
CONTINUOUS
 62
         7
  5
99
 10
9.9828776348
 20
16.351400859
 30
0.0
 11
10.437392535
 21
16.351400859
 31
0.0
  0
LINE
  8
83763X1
  6
CONTINUOUS
 62
         7
  5
9A
 10
10.4674108213
 20
15.871400859
 30
0.0
 11
10.4674108213
 21
16.321400859
 31
0.0
  0
ARC
  8
83763X1
  6
CONTINUOUS
 62
         7
  5
9B
 10
9.1354108213
 20
16.096400859
 30
0.0
 40
0.885
 50
120.8226889571
 51
239.1773110429
  0
LINE
  8
83763X1
  6
CONTINUOUS
 62
         7
  5
9C
 10
8.6819518926
 20
16.856400859
 30
0.0
 11
9.58886975
 21
16.856400859
 31
0.0
  0
ARC
  8
83763X1
  6
CONTINUOUS
 62
         7
  5
9D
 10
9.1354108213
 20
16.096400859
 30
0.0
 40
0.885
 50
16.746369583
 51
59.1773110429
  0
LINE
  8
83763X1
  6
CONTINUOUS
 62
         7
  5
9E
 10
9.58886975
 20
15.336400859
 30
0.0
 11
8.6819518926
 21
15.336400859
 31
0.0
  0
ARC
  8
83763X1
  6
CONTINUOUS
 62
         7
  5
9F
 10
9.1354108213
 20
16.096400859
 30
0.0
 40
0.885
 50
300.8226889571
 51
343.253630417
  0
LINE
  8
83763X1
  6
CONTINUOUS
 62
         7
  5
A0
 10
9.9828776348
 20
15.841400859
 30
0.0
 11
10.437392535
 21
15.841400859
 31
0.0
  0
POLYLINE
  8
83763X1
  6
CONTINUOUS
 62
         7
  5
A1
 66
         1
 10
0.0
 20
0.0
 30
0.0
  0
VERTEX
  8
83763X1
  6
CONTINUOUS
 62
         7
  5
A2
 10
10.4674108213
 20
16.321400859
 30
0.0
  0
VERTEX
  8
83763X1
  6
CONTINUOUS
 62
         7
  5
A3
 10
10.463576298
 20
16.3360721093
 30
0.0
  0
VERTEX
  8
83763X1
  6
CONTINUOUS
 62
         7
  5
A4
 10
10.452072728
 20
16.3475686716
 30
0.0
  0
VERTEX
  8
83763X1
  6
CONTINUOUS
 62
         7
  5
A5
 10
10.437392535
 20
16.351400859
 30
0.0
  0
SEQEND
  8
83763X1
  6
CONTINUOUS
 62
         7
  5
A6
  0
POLYLINE
  8
83763X1
  6
CONTINUOUS
 62
         7
  5
A7
 66
         1
 10
0.0
 20
0.0
 30
0.0
  0
VERTEX
  8
83763X1
  6
CONTINUOUS
 62
         7
  5
A8
 10
10.437392535
 20
15.841400859
 30
0.0
  0
VERTEX
  8
83763X1
  6
CONTINUOUS
 62
         7
  5
A9
 10
10.452072728
 20
15.8452330465
 30
0.0
  0
VERTEX
  8
83763X1
  6
CONTINUOUS
 62
         7
  5
AA
 10
10.463576298
 20
15.8567296088
 30
0.0
  0
VERTEX
  8
83763X1
  6
CONTINUOUS
 62
         7
  5
AB
 10
10.4674108213
 20
15.871400859
 30
0.0
  0
SEQEND
  8
83763X1
  6
CONTINUOUS
 62
         7
  5
AC
  0
LINE
  8
1031
  6
CONTINUOUS
 62
         7
  5
AD
 10
10.3744108213
 20
14.301400859
 30
0.0
 11
10.3744108213
 21
14.311400859
 31
0.0
  0
LINE
  8
1031
  6
CONTINUOUS
 62
         7
  5
AE
 10
10.3744108213
 20
14.821400859
 30
0.0
 11
10.3744108213
 21
14.831400859
 31
0.0
  0
LINE
  8
1031
  6
CONTINUOUS
 62
         7
  5
AF
 10
10.3744108213
 20
15.831400859
 30
0.0
 11
10.3744108213
 21
15.841400859
 31
0.0
  0
LINE
  8
1031
  6
CONTINUOUS
 62
         7
  5
B0
 10
10.3744108213
 20
16.351400859
 30
0.0
 11
10.3744108213
 21
16.361400859
 31
0.0
  0
LINE
  8
1031
  6
CONTINUOUS
 62
         7
  5
B1
 10
10.3164108213
 20
16.361400859
 30
0.0
 11
10.3164108213
 21
16.351400859
 31
0.0
  0
LINE
  8
1031
  6
CONTINUOUS
 62
         7
  5
B2
 10
10.3164108213
 20
15.841400859
 30
0.0
 11
10.3164108213
 21
15.831400859
 31
0.0
  0
LINE
  8
1031
  6
CONTINUOUS
 62
         7
  5
B3
 10
10.3164108213
 20
14.831400859
 30
0.0
 11
10.3164108213
 21
14.821400859
 31
0.0
  0
LINE
  8
1031
  6
CONTINUOUS
 62
         7
  5
B4
 10
10.3164108213
 20
14.311400859
 30
0.0
 11
10.3164108213
 21
14.301400859
 31
0.0
  0
LINE
  8
2186
  6
CONTINUOUS
 62
         7
  5
B5
 10
8.1379108213
 20
15.848400859
 30
0.0
 11
8.1829108213
 21
15.848400859
 31
0.0
  0
LINE
  8
2186
  6
CONTINUOUS
 62
         7
  5
B6
 10
8.1829108213
 20
15.628400859
 30
0.0
 11
8.1379108213
 21
15.628400859
 31
0.0
  0
LINE
  8
2186
  6
CONTINUOUS
 62
         7
  5
B7
 10
8.1417383912
 20
15.034400859
 30
0.0
 11
8.1854108213
 21
15.034400859
 31
0.0
  0
LINE
  8
2186
  6
CONTINUOUS
 62
         7
  5
B8
 10
8.1790832514
 20
14.814400859
 30
0.0
 11
8.1354108213
 21
14.814400859
 31
0.0
  0
LINE
  8
2186
  6
CONTINUOUS
 62
         7
  5
B9
 10
8.1354108213
 20
14.814400859
 30
0.0
 11
8.1354108213
 21
14.8131758619
 31
0.0
  0
LINE
  8
2186
  6
CONTINUOUS
 62
         7
  5
BA
 10
8.1854108213
 20
15.034400859
 30
0.0
 11
8.1854108213
 21
15.0356258562
 31
0.0
  0
LINE
  8
81090X
  6
CONTINUOUS
 62
         7
  5
BB
 10
8.2928906374
 20
15.1364128831
 30
0.0
 11
8.277778712
 21
14.7036639608
 31
0.0
  0
ARC
  8
81090X
  6
CONTINUOUS
 62
         7
  5
BC
 10
8.1604108213
 20
14.924400859
 30
0.0
 40
0.25
 50
58.0
 51
82.8363929092
  0
LINE
  8
81090X
  6
CONTINUOUS
 62
         7
  5
BD
 10
8.1915865815
 20
15.1724493865
 30
0.0
 11
8.1742076483
 21
14.6747818542
 31
0.0
  0
ARC
  8
81090X
  6
CONTINUOUS
 62
         7
  5
BE
 10
8.1604108213
 20
14.924400859
 30
0.0
 40
0.25
 50
273.1636070908
 51
298.0
  0
ARC
  8
81090X
  6
CONTINUOUS
 62
         7
  5
BF
 10
8.1604108213
 20
14.924400859
 30
0.0
 40
0.25
 50
93.1636070908
 51
262.8363929092
  0
ARC
  8
81090X
  6
CONTINUOUS
 62
         7
  5
C0
 10
8.1604108213
 20
14.924400859
 30
0.0
 40
0.11
 50
256.1971083097
 51
279.8028916903
  0
LINE
  8
81090X
  6
CONTINUOUS
 62
         7
  5
C1
 10
8.1466139943
 20
15.1740198639
 30
0.0
 11
8.1292350611
 21
14.6763523316
 31
0.0
  0
ARC
  8
81090X
  6
CONTINUOUS
 62
         7
  5
C2
 10
8.1604108213
 20
14.924400859
 30
0.0
 40
0.11
 50
76.1971083097
 51
99.8028916903
  0
LINE
  8
81090X
  6
CONTINUOUS
 62
         7
  5
C3
 10
8.2854108213
 20
15.95490721
 30
0.0
 11
8.2854108213
 21
15.5218945081
 31
0.0
  0
ARC
  8
81090X
  6
CONTINUOUS
 62
         7
  5
C4
 10
8.1604108213
 20
15.738400859
 30
0.0
 40
0.25
 50
60.0
 51
84.8363929092
  0
LINE
  8
81090X
  6
CONTINUOUS
 62
         7
  5
C5
 10
8.1829108213
 20
15.9873863004
 30
0.0
 11
8.1829108213
 21
15.4894154177
 31
0.0
  0
ARC
  8
81090X
  6
CONTINUOUS
 62
         7
  5
C6
 10
8.1604108213
 20
15.738400859
 30
0.0
 40
0.25
 50
275.1636070908
 51
300.0
  0
ARC
  8
81090X
  6
CONTINUOUS
 62
         7
  5
C7
 10
8.1604108213
 20
15.738400859
 30
0.0
 40
0.25
 50
95.1636070908
 51
264.8363929092
  0
ARC
  8
81090X
  6
CONTINUOUS
 62
         7
  5
C8
 10
8.1604108213
 20
15.738400859
 30
0.0
 40
0.11
 50
258.1971083097
 51
281.8028916903
  0
LINE
  8
81090X
  6
CONTINUOUS
 62
         7
  5
C9
 10
8.1379108213
 20
15.9873863004
 30
0.0
 11
8.1379108213
 21
15.4894154177
 31
0.0
  0
ARC
  8
81090X
  6
CONTINUOUS
 62
         7
  5
CA
 10
8.1604108213
 20
15.738400859
 30
0.0
 40
0.11
 50
78.1971083097
 51
101.8028916903
  0
ARC
  8
1_000_700
  6
CONTINUOUS
 62
         7
  5
CB
 10
10.2074108213
 20
16.331400859
 30
0.0
 40
0.156
 50
168.912510789
 51
172.634114171
  0
ARC
  8
1_000_700
  6
CONTINUOUS
 62
         7
  5
CC
 10
10.2074108213
 20
14.331400859
 30
0.0
 40
0.156
 50
187.365885829
 51
191.087489211
  0
ARC
  8
81093X
  6
CONTINUOUS
 62
         7
  5
CD
 10
9.1454108213
 20
15.331400859
 30
0.0
 40
1.4275
 50
45.605177544
 51
46.1818681391
  0
ARC
  8
81093X
  6
CONTINUOUS
 62
         7
  5
CE
 10
9.1454108213
 20
15.331400859
 30
0.0
 40
1.4275
 50
313.8181318609
 51
314.394822456
  0
ARC
  8
428003-048
  6
CONTINUOUS
 62
         7
  5
CF
 10
10.8644108213
 20
15.331400859
 30
0.0
 40
0.12125
 50
165.6749480599
 51
194.3250519401
  0
LINE
  8
428003-048
  6
CONTINUOUS
 62
         7
  5
D0
 10
11.0164798846
 20
15.361400859
 30
0.0
 11
10.7123417581
 21
15.361400859
 31
0.0
  0
ARC
  8
428003-048
  6
CONTINUOUS
 62
         7
  5
D1
 10
10.8644108213
 20
15.331400859
 30
0.0
 40
0.12125
 50
345.6749480599
 51
14.3250519401
  0
LINE
  8
428003-048
  6
CONTINUOUS
 62
         7
  5
D2
 10
10.7123417581
 20
15.301400859
 30
0.0
 11
11.0164798846
 21
15.301400859
 31
0.0
  0
ARC
  8
428003-048
  6
CONTINUOUS
 62
         7
  5
D3
 10
10.8644108213
 20
15.331400859
 30
0.0
 40
0.155
 50
191.1599368722
 51
348.8400631278
  0
ARC
  8
428003-048
  6
CONTINUOUS
 62
         7
  5
D4
 10
10.8644108213
 20
15.331400859
 30
0.0
 40
0.155
 50
11.1599368722
 51
168.8400631278
  0
ARC
  8
428003-048
  6
CONTINUOUS
 62
         7
  5
D5
 10
8.2859108213
 20
13.8427031899
 30
0.0
 40
0.12125
 50
165.6749480599
 51
194.3250519401
  0
LINE
  8
428003-048
  6
CONTINUOUS
 62
         7
  5
D6
 10
8.4379798846
 20
13.8727031899
 30
0.0
 11
8.1338417581
 21
13.8727031899
 31
0.0
  0
ARC
  8
428003-048
  6
CONTINUOUS
 62
         7
  5
D7
 10
8.2859108213
 20
13.8427031899
 30
0.0
 40
0.155
 50
11.1599368722
 51
168.8400631278
  0
ARC
  8
428003-048
  6
CONTINUOUS
 62
         7
  5
D8
 10
8.2859108213
 20
13.8427031899
 30
0.0
 40
0.12125
 50
345.6749480599
 51
14.3250519401
  0
LINE
  8
428003-048
  6
CONTINUOUS
 62
         7
  5
D9
 10
8.1338417581
 20
13.8127031899
 30
0.0
 11
8.4379798846
 21
13.8127031899
 31
0.0
  0
ARC
  8
428003-048
  6
CONTINUOUS
 62
         7
  5
DA
 10
8.2859108213
 20
13.8427031899
 30
0.0
 40
0.155
 50
191.1599368722
 51
348.8400631278
  0
ARC
  8
428003-048
  6
CONTINUOUS
 62
         7
  5
DB
 10
8.2859108213
 20
16.8200985281
 30
0.0
 40
0.12125
 50
165.6749480599
 51
194.3250519401
  0
LINE
  8
428003-048
  6
CONTINUOUS
 62
         7
  5
DC
 10
8.1338417581
 20
16.7900985281
 30
0.0
 11
8.4379798846
 21
16.7900985281
 31
0.0
  0
LINE
  8
428003-048
  6
CONTINUOUS
 62
         7
  5
DD
 10
8.4379798846
 20
16.8500985281
 30
0.0
 11
8.1338417581
 21
16.8500985281
 31
0.0
  0
ARC
  8
428003-048
  6
CONTINUOUS
 62
         7
  5
DE
 10
8.2859108213
 20
16.8200985281
 30
0.0
 40
0.155
 50
11.1599368722
 51
168.8400631278
  0
ARC
  8
428003-048
  6
CONTINUOUS
 62
         7
  5
DF
 10
8.2859108213
 20
16.8200985281
 30
0.0
 40
0.12125
 50
345.6749480599
 51
14.3250519401
  0
ARC
  8
428003-048
  6
CONTINUOUS
 62
         7
  5
E0
 10
8.2859108213
 20
16.8200985281
 30
0.0
 40
0.155
 50
191.1599368722
 51
348.8400631278
  0
ENDBLK
  8
428003-048
  6
CONTINUOUS
 62
         7
  5
E1
  0
BLOCK
  8
0
 62
         1
 48
0.0
  5
E2
  2
*X1
 70
         1
 10
0.0
 20
0.0
 30
0.0
  3
*X1
  0
INSERT
  8
0
 62
         0
 48
0.0
  5
E3
  2
*X0
 10
0.0
 20
0.0
 30
0.0
  0
ENDBLK
  8
0
 62
         0
 48
0.0
  5
E4
  0
BLOCK
  8
0
 62
         1
 48
0.0
  5
E5
  2
*X2
 70
         1
 10
0.0
 20
0.0
 30
0.0
  3
*X2
  0
LINE
  8
83762X1
  6
CONTINUOUS
 62
         7
  5
E6
 10
7.0204108213
 20
9.7660935154
 30
0.0
 11
7.0204108213
 21
9.6730935154
 31
0.0
  0
ARC
  8
83762X1
  6
CONTINUOUS
 62
         7
  5
E7
 10
11.0757033082
 20
9.5780935154
 30
0.0
 40
0.062
 50
270.0
 51
350.0
  0
LINE
  8
83762X1
  6
CONTINUOUS
 62
         7
  5
E8
 10
7.0204108213
 20
9.6730935154
 30
0.0
 11
11.2704108213
 21
9.6730935154
 31
0.0
  0
LINE
  8
83762X1
  6
CONTINUOUS
 62
         7
  5
E9
 10
7.0204108213
 20
9.7660935154
 30
0.0
 11
11.2704108213
 21
9.7660935154
 31
0.0
  0
LINE
  8
83762X1
  6
CONTINUOUS
 62
         7
  5
EA
 10
10.3774108213
 20
9.5673273284
 30
0.0
 11
11.1367613889
 21
9.5673273284
 31
0.0
  0
LINE
  8
83762X1
  6
CONTINUOUS
 62
         7
  5
EB
 10
10.3134108213
 20
9.5673273284
 30
0.0
 11
7.1540602537
 21
9.5673273284
 31
0.0
  0
LINE
  8
83762X1
  6
CONTINUOUS
 62
         7
  5
EC
 10
10.3774108213
 20
9.5160935154
 30
0.0
 11
10.3774108213
 21
9.5673273284
 31
0.0
  0
LINE
  8
83762X1
  6
CONTINUOUS
 62
         7
  5
ED
 10
10.3774108213
 20
9.5673273284
 30
0.0
 11
10.3774108213
 21
9.6410935154
 31
0.0
  0
LINE
  8
83762X1
  6
CONTINUOUS
 62
         7
  5
EE
 10
10.3134108213
 20
9.5673273284
 30
0.0
 11
10.3134108213
 21
9.5160935154
 31
0.0
  0
LINE
  8
83762X1
  6
CONTINUOUS
 62
         7
  5
EF
 10
10.3134108213
 20
9.6410935154
 30
0.0
 11
10.3134108213
 21
9.5673273284
 31
0.0
  0
ARC
  8
83762X1
  6
CONTINUOUS
 62
         7
  5
F0
 10
10.3454108213
 20
9.6410935154
 30
0.0
 40
0.032
 50
90.0
 51
180.0
  0
ARC
  8
83762X1
  6
CONTINUOUS
 62
         7
  5
F1
 10
10.3454108213
 20
9.6410935154
 30
0.0
 40
0.032
 50
0.0
 51
90.0
  0
LINE
  8
83762X1
  6
CONTINUOUS
 62
         7
  5
F2
 10
11.2704108213
 20
9.6730935154
 30
0.0
 11
11.2704108213
 21
9.7660935154
 31
0.0
  0
LINE
  8
83762X1
  6
CONTINUOUS
 62
         7
  5
F3
 10
11.1367613889
 20
9.5673273284
 30
0.0
 11
11.1554108213
 21
9.6730935154
 31
0.0
  0
ARC
  8
83762X1
  6
CONTINUOUS
 62
         7
  5
F4
 10
7.2151183344
 20
9.5780935154
 30
0.0
 40
0.062
 50
190.0
 51
270.0
  0
LINE
  8
83762X1
  6
CONTINUOUS
 62
         7
  5
F5
 10
7.1354108213
 20
9.6730935154
 30
0.0
 11
7.1540602537
 21
9.5673273284
 31
0.0
  0
LINE
  8
83763X1
  6
CONTINUOUS
 62
         7
  5
F6
 10
10.3346608213
 20
9.5560935154
 30
0.0
 11
10.3346608213
 21
9.6141595684
 31
0.0
  0
ARC
  8
83763X1
  6
CONTINUOUS
 62
         7
  5
F7
 10
10.3034108213
 20
9.6410935154
 30
0.0
 40
0.03125
 50
43.6439336715
 51
49.1615415899
  0
LINE
  8
83763X1
  6
CONTINUOUS
 62
         7
  5
F8
 10
10.3346608213
 20
9.5260935154
 30
0.0
 11
10.3346608213
 21
9.5560935154
 31
0.0
  0
LINE
  8
83763X1
  6
CONTINUOUS
 62
         7
  5
F9
 10
10.3346608213
 20
9.5560935154
 30
0.0
 11
10.3774108213
 21
9.5560935154
 31
0.0
  0
LINE
  8
83763X1
  6
CONTINUOUS
 62
         7
  5
FA
 10
10.3774108213
 20
9.5260935154
 30
0.0
 11
10.3346608213
 21
9.5260935154
 31
0.0
  0
CIRCLE
  8
1031
  6
CONTINUOUS
 62
         7
  5
FB
 10
10.3454108213
 20
9.6410935154
 30
0.0
 40
0.029
  0
LINE
  8
1_000_700
  6
CONTINUOUS
 62
         7
  5
FC
 10
7.1764108213
 20
9.3285935154
 30
0.0
 11
11.1144108213
 21
9.3285935154
 31
0.0
  0
LINE
  8
1_000_700
  6
CONTINUOUS
 62
         7
  5
FD
 10
7.1764108213
 20
9.5160935154
 30
0.0
 11
11.1144108213
 21
9.5160935154
 31
0.0
  0
LINE
  8
1_000_700
  6
CONTINUOUS
 62
         7
  5
FE
 10
7.1764108213
 20
9.5160935154
 30
0.0
 11
7.1764108213
 21
9.3285935154
 31
0.0
  0
LINE
  8
1_000_700
  6
CONTINUOUS
 62
         7
  5
FF
 10
11.1144108213
 20
9.3285935154
 30
0.0
 11
11.1144108213
 21
9.5160935154
 31
0.0
  0
LINE
  8
81093X
  6
CONTINUOUS
 62
         7
  5
100
 10
7.7179108213
 20
9.2665935154
 30
0.0
 11
8.2187318193
 21
9.2665935154
 31
0.0
  0
LINE
  8
81093X
  6
CONTINUOUS
 62
         7
  5
101
 10
8.3530898233
 20
9.2665935154
 30
0.0
 11
10.5729108213
 21
9.2665935154
 31
0.0
  0
LINE
  8
81093X
  6
CONTINUOUS
 62
         7
  5
102
 10
7.7179108213
 20
9.3285935154
 30
0.0
 11
7.7179108213
 21
9.2665935154
 31
0.0
  0
LINE
  8
81093X
  6
CONTINUOUS
 62
         7
  5
103
 10
10.5729108213
 20
9.2665935154
 30
0.0
 11
10.5729108213
 21
9.3285935154
 31
0.0
  0
LINE
  8
429022-024
  6
CONTINUOUS
 62
         7
  5
104
 10
9.2154108213
 20
9.2200935154
 30
0.0
 11
9.1885640338
 21
9.2355935154
 31
0.0
  0
LINE
  8
429022-024
  6
CONTINUOUS
 62
         7
  5
105
 10
9.0754108213
 20
9.2510935154
 30
0.0
 11
9.1022576088
 21
9.2355935154
 31
0.0
  0
LINE
  8
429022-024
  6
CONTINUOUS
 62
         7
  5
106
 10
9.0754108213
 20
9.2200935154
 30
0.0
 11
9.1022576088
 21
9.2045935154
 31
0.0
  0
LINE
  8
429022-024
  6
CONTINUOUS
 62
         7
  5
107
 10
9.2154108213
 20
9.2510935154
 30
0.0
 11
9.1885640338
 21
9.2665935154
 31
0.0
  0
LINE
  8
429022-024
  6
CONTINUOUS
 62
         7
  5
108
 10
9.2154108213
 20
9.1580935154
 30
0.0
 11
9.1885640338
 21
9.1735935154
 31
0.0
  0
LINE
  8
429022-024
  6
CONTINUOUS
 62
         7
  5
109
 10
9.0754108213
 20
9.1580935154
 30
0.0
 11
9.1022576088
 21
9.1425935154
 31
0.0
  0
LINE
  8
429022-024
  6
CONTINUOUS
 62
         7
  5
10A
 10
9.2154108213
 20
9.1890935154
 30
0.0
 11
9.1885640338
 21
9.2045935154
 31
0.0
  0
LINE
  8
429022-024
  6
CONTINUOUS
 62
         7
  5
10B
 10
9.0754108213
 20
9.1890935154
 30
0.0
 11
9.1022576088
 21
9.1735935154
 31
0.0
  0
LINE
  8
429022-024
  6
CONTINUOUS
 62
         7
  5
10C
 10
9.2154108213
 20
9.0960935154
 30
0.0
 11
9.1885640338
 21
9.1115935154
 31
0.0
  0
LINE
  8
429022-024
  6
CONTINUOUS
 62
         7
  5
10D
 10
9.0754108213
 20
9.1270935154
 30
0.0
 11
9.1022576088
 21
9.1115935154
 31
0.0
  0
LINE
  8
429022-024
  6
CONTINUOUS
 62
         7
  5
10E
 10
9.2154108213
 20
9.1270935154
 30
0.0
 11
9.1885640338
 21
9.1425935154
 31
0.0
  0
LINE
  8
429022-024
  6
CONTINUOUS
 62
         7
  5
10F
 10
9.0754108213
 20
9.0960935154
 30
0.0
 11
9.1022576088
 21
9.0805935154
 31
0.0
  0
LINE
  8
429022-024
  6
CONTINUOUS
 62
         7
  5
110
 10
9.2154108213
 20
9.0340935154
 30
0.0
 11
9.1885640338
 21
9.0495935154
 31
0.0
  0
LINE
  8
429022-024
  6
CONTINUOUS
 62
         7
  5
111
 10
9.0754108213
 20
9.0340935154
 30
0.0
 11
9.1022576088
 21
9.0185935154
 31
0.0
  0
LINE
  8
429022-024
  6
CONTINUOUS
 62
         7
  5
112
 10
9.0754108213
 20
9.0650935154
 30
0.0
 11
9.1022576088
 21
9.0495935154
 31
0.0
  0
LINE
  8
429022-024
  6
CONTINUOUS
 62
         7
  5
113
 10
9.2154108213
 20
9.0650935154
 30
0.0
 11
9.1885640338
 21
9.0805935154
 31
0.0
  0
LINE
  8
429022-024
  6
CONTINUOUS
 62
         7
  5
114
 10
9.0754108213
 20
9.0030935154
 30
0.0
 11
9.1022576088
 21
8.9875935154
 31
0.0
  0
LINE
  8
429022-024
  6
CONTINUOUS
 62
         7
  5
115
 10
9.2154108213
 20
9.0030935154
 30
0.0
 11
9.1885640338
 21
9.0185935154
 31
0.0
  0
LINE
  8
429022-024
  6
CONTINUOUS
 62
         7
  5
116
 10
9.2154108213
 20
8.9720935154
 30
0.0
 11
9.1885640338
 21
8.9875935154
 31
0.0
  0
LINE
  8
429022-024
  6
CONTINUOUS
 62
         7
  5
117
 10
9.0754108213
 20
8.9720935154
 30
0.0
 11
9.1074537613
 21
8.9535935154
 31
0.0
  0
LINE
  8
429022-024
  6
CONTINUOUS
 62
         7
  5
118
 10
9.1022576088
 20
9.2355935154
 30
0.0
 11
9.0754108213
 21
9.2200935154
 31
0.0
  0
LINE
  8
429022-024
  6
CONTINUOUS
 62
         7
  5
119
 10
9.1885640338
 20
9.2355935154
 30
0.0
 11
9.2154108213
 21
9.2510935154
 31
0.0
  0
LINE
  8
429022-024
  6
CONTINUOUS
 62
         7
  5
11A
 10
9.1885640338
 20
9.2045935154
 30
0.0
 11
9.2154108213
 21
9.2200935154
 31
0.0
  0
LINE
  8
429022-024
  6
CONTINUOUS
 62
         7
  5
11B
 10
9.1022576088
 20
9.2665935154
 30
0.0
 11
9.0754108213
 21
9.2510935154
 31
0.0
  0
LINE
  8
429022-024
  6
CONTINUOUS
 62
         7
  5
11C
 10
9.1022576088
 20
9.1735935154
 30
0.0
 11
9.0754108213
 21
9.1580935154
 31
0.0
  0
LINE
  8
429022-024
  6
CONTINUOUS
 62
         7
  5
11D
 10
9.1885640338
 20
9.1425935154
 30
0.0
 11
9.2154108213
 21
9.1580935154
 31
0.0
  0
LINE
  8
429022-024
  6
CONTINUOUS
 62
         7
  5
11E
 10
9.1022576088
 20
9.2045935154
 30
0.0
 11
9.0754108213
 21
9.1890935154
 31
0.0
  0
LINE
  8
429022-024
  6
CONTINUOUS
 62
         7
  5
11F
 10
9.1885640338
 20
9.1735935154
 30
0.0
 11
9.2154108213
 21
9.1890935154
 31
0.0
  0
LINE
  8
429022-024
  6
CONTINUOUS
 62
         7
  5
120
 10
9.1022576088
 20
9.1115935154
 30
0.0
 11
9.0754108213
 21
9.0960935154
 31
0.0
  0
LINE
  8
429022-024
  6
CONTINUOUS
 62
         7
  5
121
 10
9.1885640338
 20
9.1115935154
 30
0.0
 11
9.2154108213
 21
9.1270935154
 31
0.0
  0
LINE
  8
429022-024
  6
CONTINUOUS
 62
         7
  5
122
 10
9.1022576088
 20
9.2355935154
 30
0.0
 11
9.1885640338
 21
9.2355935154
 31
0.0
  0
LINE
  8
429022-024
  6
CONTINUOUS
 62
         7
  5
123
 10
9.0754108213
 20
9.2200935154
 30
0.0
 11
9.2154108213
 21
9.2200935154
 31
0.0
  0
LINE
  8
429022-024
  6
CONTINUOUS
 62
         7
  5
124
 10
9.1022576088
 20
9.1425935154
 30
0.0
 11
9.0754108213
 21
9.1270935154
 31
0.0
  0
LINE
  8
429022-024
  6
CONTINUOUS
 62
         7
  5
125
 10
9.0754108213
 20
9.2510935154
 30
0.0
 11
9.2154108213
 21
9.2510935154
 31
0.0
  0
LINE
  8
429022-024
  6
CONTINUOUS
 62
         7
  5
126
 10
9.1022576088
 20
9.2045935154
 30
0.0
 11
9.1885640338
 21
9.2045935154
 31
0.0
  0
LINE
  8
429022-024
  6
CONTINUOUS
 62
         7
  5
127
 10
9.0754108213
 20
9.1890935154
 30
0.0
 11
9.2154108213
 21
9.1890935154
 31
0.0
  0
LINE
  8
429022-024
  6
CONTINUOUS
 62
         7
  5
128
 10
9.1885640338
 20
9.0805935154
 30
0.0
 11
9.2154108213
 21
9.0960935154
 31
0.0
  0
LINE
  8
429022-024
  6
CONTINUOUS
 62
         7
  5
129
 10
9.1022576088
 20
9.1115935154
 30
0.0
 11
9.1885640338
 21
9.1115935154
 31
0.0
  0
LINE
  8
429022-024
  6
CONTINUOUS
 62
         7
  5
12A
 10
9.1022576088
 20
9.0495935154
 30
0.0
 11
9.0754108213
 21
9.0340935154
 31
0.0
  0
LINE
  8
429022-024
  6
CONTINUOUS
 62
         7
  5
12B
 10
9.1885640338
 20
9.0185935154
 30
0.0
 11
9.2154108213
 21
9.0340935154
 31
0.0
  0
LINE
  8
429022-024
  6
CONTINUOUS
 62
         7
  5
12C
 10
9.0754108213
 20
9.1580935154
 30
0.0
 11
9.2154108213
 21
9.1580935154
 31
0.0
  0
LINE
  8
429022-024
  6
CONTINUOUS
 62
         7
  5
12D
 10
9.1022576088
 20
9.1425935154
 30
0.0
 11
9.1885640338
 21
9.1425935154
 31
0.0
  0
LINE
  8
429022-024
  6
CONTINUOUS
 62
         7
  5
12E
 10
9.0754108213
 20
9.1270935154
 30
0.0
 11
9.2154108213
 21
9.1270935154
 31
0.0
  0
LINE
  8
429022-024
  6
CONTINUOUS
 62
         7
  5
12F
 10
9.1885640338
 20
9.0495935154
 30
0.0
 11
9.2154108213
 21
9.0650935154
 31
0.0
  0
LINE
  8
429022-024
  6
CONTINUOUS
 62
         7
  5
130
 10
9.1022576088
 20
9.0805935154
 30
0.0
 11
9.0754108213
 21
9.0650935154
 31
0.0
  0
LINE
  8
429022-024
  6
CONTINUOUS
 62
         7
  5
131
 10
9.1022576088
 20
9.1735935154
 30
0.0
 11
9.1885640338
 21
9.1735935154
 31
0.0
  0
LINE
  8
429022-024
  6
CONTINUOUS
 62
         7
  5
132
 10
9.0754108213
 20
9.0960935154
 30
0.0
 11
9.2154108213
 21
9.0960935154
 31
0.0
  0
LINE
  8
429022-024
  6
CONTINUOUS
 62
         7
  5
133
 10
9.0754108213
 20
9.0340935154
 30
0.0
 11
9.2154108213
 21
9.0340935154
 31
0.0
  0
LINE
  8
429022-024
  6
CONTINUOUS
 62
         7
  5
134
 10
9.1885640338
 20
8.9875935154
 30
0.0
 11
9.2154108213
 21
9.0030935154
 31
0.0
  0
LINE
  8
429022-024
  6
CONTINUOUS
 62
         7
  5
135
 10
9.1022576088
 20
9.0495935154
 30
0.0
 11
9.1885640338
 21
9.0495935154
 31
0.0
  0
LINE
  8
429022-024
  6
CONTINUOUS
 62
         7
  5
136
 10
9.1022576088
 20
9.0185935154
 30
0.0
 11
9.1885640338
 21
9.0185935154
 31
0.0
  0
LINE
  8
429022-024
  6
CONTINUOUS
 62
         7
  5
137
 10
9.1022576088
 20
9.0185935154
 30
0.0
 11
9.0754108213
 21
9.0030935154
 31
0.0
  0
LINE
  8
429022-024
  6
CONTINUOUS
 62
         7
  5
138
 10
9.1022576088
 20
8.9875935154
 30
0.0
 11
9.0754108213
 21
8.9720935154
 31
0.0
  0
LINE
  8
429022-024
  6
CONTINUOUS
 62
         7
  5
139
 10
9.0754108213
 20
9.0650935154
 30
0.0
 11
9.2154108213
 21
9.0650935154
 31
0.0
  0
LINE
  8
429022-024
  6
CONTINUOUS
 62
         7
  5
13A
 10
9.1833678814
 20
8.9535935154
 30
0.0
 11
9.2154108213
 21
8.9720935154
 31
0.0
  0
LINE
  8
429022-024
  6
CONTINUOUS
 62
         7
  5
13B
 10
9.1022576088
 20
9.0805935154
 30
0.0
 11
9.1885640338
 21
9.0805935154
 31
0.0
  0
LINE
  8
429022-024
  6
CONTINUOUS
 62
         7
  5
13C
 10
9.0754108213
 20
9.0030935154
 30
0.0
 11
9.2154108213
 21
9.0030935154
 31
0.0
  0
LINE
  8
429022-024
  6
CONTINUOUS
 62
         7
  5
13D
 10
9.1022576088
 20
8.9875935154
 30
0.0
 11
9.1885640338
 21
8.9875935154
 31
0.0
  0
LINE
  8
429022-024
  6
CONTINUOUS
 62
         7
  5
13E
 10
9.0754108213
 20
8.9720935154
 30
0.0
 11
9.2154108213
 21
8.9720935154
 31
0.0
  0
LINE
  8
429022-024
  6
CONTINUOUS
 62
         7
  5
13F
 10
9.1074537613
 20
8.9535935154
 30
0.0
 11
9.1833678814
 21
8.9535935154
 31
0.0
  0
LINE
  8
428003-048
  6
CONTINUOUS
 62
         7
  5
140
 10
10.9444108213
 20
9.2580935154
 30
0.0
 11
10.9210313543
 21
9.2735935154
 31
0.0
  0
LINE
  8
428003-048
  6
CONTINUOUS
 62
         7
  5
141
 10
10.7844108213
 20
9.3200935154
 30
0.0
 11
10.8077902883
 21
9.3045935154
 31
0.0
  0
LINE
  8
428003-048
  6
CONTINUOUS
 62
         7
  5
142
 10
10.7844108213
 20
9.2890935154
 30
0.0
 11
10.8077902883
 21
9.2735935154
 31
0.0
  0
LINE
  8
428003-048
  6
CONTINUOUS
 62
         7
  5
143
 10
10.7844108213
 20
9.2580935154
 30
0.0
 11
10.8077902883
 21
9.2425935154
 31
0.0
  0
LINE
  8
428003-048
  6
CONTINUOUS
 62
         7
  5
144
 10
10.9444108213
 20
9.1960935154
 30
0.0
 11
10.9210313543
 21
9.2115935154
 31
0.0
  0
LINE
  8
428003-048
  6
CONTINUOUS
 62
         7
  5
145
 10
10.9444108213
 20
9.2270935154
 30
0.0
 11
10.9210313543
 21
9.2425935154
 31
0.0
  0
LINE
  8
428003-048
  6
CONTINUOUS
 62
         7
  5
146
 10
10.7844108213
 20
9.2270935154
 30
0.0
 11
10.8077902883
 21
9.2115935154
 31
0.0
  0
LINE
  8
428003-048
  6
CONTINUOUS
 62
         7
  5
147
 10
10.7844108213
 20
9.1960935154
 30
0.0
 11
10.8077902883
 21
9.1805935154
 31
0.0
  0
LINE
  8
428003-048
  6
CONTINUOUS
 62
         7
  5
148
 10
10.9444108213
 20
9.1340935154
 30
0.0
 11
10.9210313543
 21
9.1495935154
 31
0.0
  0
LINE
  8
428003-048
  6
CONTINUOUS
 62
         7
  5
149
 10
10.9444108213
 20
9.1650935154
 30
0.0
 11
10.9210313543
 21
9.1805935154
 31
0.0
  0
LINE
  8
428003-048
  6
CONTINUOUS
 62
         7
  5
14A
 10
10.7844108213
 20
9.1650935154
 30
0.0
 11
10.8077902883
 21
9.1495935154
 31
0.0
  0
LINE
  8
428003-048
  6
CONTINUOUS
 62
         7
  5
14B
 10
10.9444108213
 20
9.0720935154
 30
0.0
 11
10.9210313543
 21
9.0875935154
 31
0.0
  0
LINE
  8
428003-048
  6
CONTINUOUS
 62
         7
  5
14C
 10
10.7844108213
 20
9.1340935154
 30
0.0
 11
10.8077902883
 21
9.1185935154
 31
0.0
  0
LINE
  8
428003-048
  6
CONTINUOUS
 62
         7
  5
14D
 10
10.7844108213
 20
9.1030935154
 30
0.0
 11
10.8077902883
 21
9.0875935154
 31
0.0
  0
LINE
  8
428003-048
  6
CONTINUOUS
 62
         7
  5
14E
 10
10.9444108213
 20
9.1030935154
 30
0.0
 11
10.9210313543
 21
9.1185935154
 31
0.0
  0
LINE
  8
428003-048
  6
CONTINUOUS
 62
         7
  5
14F
 10
10.9429024686
 20
9.0110935154
 30
0.0
 11
10.9210313543
 21
9.0255935154
 31
0.0
  0
LINE
  8
428003-048
  6
CONTINUOUS
 62
         7
  5
150
 10
10.7844108213
 20
9.0720935154
 30
0.0
 11
10.8077902883
 21
9.0565935154
 31
0.0
  0
LINE
  8
428003-048
  6
CONTINUOUS
 62
         7
  5
151
 10
10.9444108213
 20
9.0410935154
 30
0.0
 11
10.9210313543
 21
9.0565935154
 31
0.0
  0
LINE
  8
428003-048
  6
CONTINUOUS
 62
         7
  5
152
 10
10.7844108213
 20
9.0410935154
 30
0.0
 11
10.8077902883
 21
9.0255935154
 31
0.0
  0
LINE
  8
428003-048
  6
CONTINUOUS
 62
         7
  5
153
 10
10.9444108213
 20
9.3200935154
 30
0.0
 11
10.9315898233
 21
9.3285935154
 31
0.0
  0
LINE
  8
428003-048
  6
CONTINUOUS
 62
         7
  5
154
 10
10.785919174
 20
9.0110935154
 30
0.0
 11
10.9429024686
 21
9.0110935154
 31
0.0
  0
LINE
  8
428003-048
  6
CONTINUOUS
 62
         7
  5
155
 10
10.8077902883
 20
9.3045935154
 30
0.0
 11
10.7844108213
 21
9.2890935154
 31
0.0
  0
LINE
  8
428003-048
  6
CONTINUOUS
 62
         7
  5
156
 10
10.7844108213
 20
9.2890935154
 30
0.0
 11
10.9444108213
 21
9.2890935154
 31
0.0
  0
LINE
  8
428003-048
  6
CONTINUOUS
 62
         7
  5
157
 10
10.7844108213
 20
9.2580935154
 30
0.0
 11
10.9444108213
 21
9.2580935154
 31
0.0
  0
LINE
  8
428003-048
  6
CONTINUOUS
 62
         7
  5
158
 10
10.8077902883
 20
9.2425935154
 30
0.0
 11
10.9210313543
 21
9.2425935154
 31
0.0
  0
LINE
  8
428003-048
  6
CONTINUOUS
 62
         7
  5
159
 10
10.8077902883
 20
9.2735935154
 30
0.0
 11
10.9210313543
 21
9.2735935154
 31
0.0
  0
LINE
  8
428003-048
  6
CONTINUOUS
 62
         7
  5
15A
 10
10.7844108213
 20
9.1960935154
 30
0.0
 11
10.9444108213
 21
9.1960935154
 31
0.0
  0
LINE
  8
428003-048
  6
CONTINUOUS
 62
         7
  5
15B
 10
10.8077902883
 20
9.1805935154
 30
0.0
 11
10.9210313543
 21
9.1805935154
 31
0.0
  0
LINE
  8
428003-048
  6
CONTINUOUS
 62
         7
  5
15C
 10
10.7844108213
 20
9.1650935154
 30
0.0
 11
10.9444108213
 21
9.1650935154
 31
0.0
  0
LINE
  8
428003-048
  6
CONTINUOUS
 62
         7
  5
15D
 10
10.8077902883
 20
9.2115935154
 30
0.0
 11
10.9210313543
 21
9.2115935154
 31
0.0
  0
LINE
  8
428003-048
  6
CONTINUOUS
 62
         7
  5
15E
 10
10.7844108213
 20
9.2270935154
 30
0.0
 11
10.9444108213
 21
9.2270935154
 31
0.0
  0
LINE
  8
428003-048
  6
CONTINUOUS
 62
         7
  5
15F
 10
10.7844108213
 20
9.0720935154
 30
0.0
 11
10.9444108213
 21
9.0720935154
 31
0.0
  0
LINE
  8
428003-048
  6
CONTINUOUS
 62
         7
  5
160
 10
10.7844108213
 20
9.1340935154
 30
0.0
 11
10.9444108213
 21
9.1340935154
 31
0.0
  0
LINE
  8
428003-048
  6
CONTINUOUS
 62
         7
  5
161
 10
10.8077902883
 20
9.1495935154
 30
0.0
 11
10.9210313543
 21
9.1495935154
 31
0.0
  0
LINE
  8
428003-048
  6
CONTINUOUS
 62
         7
  5
162
 10
10.8077902883
 20
9.0875935154
 30
0.0
 11
10.9210313543
 21
9.0875935154
 31
0.0
  0
LINE
  8
428003-048
  6
CONTINUOUS
 62
         7
  5
163
 10
10.7844108213
 20
9.1030935154
 30
0.0
 11
10.9444108213
 21
9.1030935154
 31
0.0
  0
LINE
  8
428003-048
  6
CONTINUOUS
 62
         7
  5
164
 10
10.8077902883
 20
9.1185935154
 30
0.0
 11
10.9210313543
 21
9.1185935154
 31
0.0
  0
LINE
  8
428003-048
  6
CONTINUOUS
 62
         7
  5
165
 10
10.8077902883
 20
9.0565935154
 30
0.0
 11
10.9210313543
 21
9.0565935154
 31
0.0
  0
LINE
  8
428003-048
  6
CONTINUOUS
 62
         7
  5
166
 10
10.8077902883
 20
9.0255935154
 30
0.0
 11
10.9210313543
 21
9.0255935154
 31
0.0
  0
LINE
  8
428003-048
  6
CONTINUOUS
 62
         7
  5
167
 10
10.7844108213
 20
9.0410935154
 30
0.0
 11
10.9444108213
 21
9.0410935154
 31
0.0
  0
LINE
  8
428003-048
  6
CONTINUOUS
 62
         7
  5
168
 10
10.7844108213
 20
9.3200935154
 30
0.0
 11
10.9444108213
 21
9.3200935154
 31
0.0
  0
LINE
  8
428003-048
  6
CONTINUOUS
 62
         7
  5
169
 10
10.8077902883
 20
9.3045935154
 30
0.0
 11
10.9210313543
 21
9.3045935154
 31
0.0
  0
LINE
  8
428003-048
  6
CONTINUOUS
 62
         7
  5
16A
 10
10.8077902883
 20
9.2735935154
 30
0.0
 11
10.7844108213
 21
9.2580935154
 31
0.0
  0
LINE
  8
428003-048
  6
CONTINUOUS
 62
         7
  5
16B
 10
10.9210313543
 20
9.3045935154
 30
0.0
 11
10.9444108213
 21
9.3200935154
 31
0.0
  0
LINE
  8
428003-048
  6
CONTINUOUS
 62
         7
  5
16C
 10
10.9210313543
 20
9.2735935154
 30
0.0
 11
10.9444108213
 21
9.2890935154
 31
0.0
  0
LINE
  8
428003-048
  6
CONTINUOUS
 62
         7
  5
16D
 10
10.9210313543
 20
9.2425935154
 30
0.0
 11
10.9444108213
 21
9.2580935154
 31
0.0
  0
LINE
  8
428003-048
  6
CONTINUOUS
 62
         7
  5
16E
 10
10.8077902883
 20
9.2115935154
 30
0.0
 11
10.7844108213
 21
9.1960935154
 31
0.0
  0
LINE
  8
428003-048
  6
CONTINUOUS
 62
         7
  5
16F
 10
10.8077902883
 20
9.2425935154
 30
0.0
 11
10.7844108213
 21
9.2270935154
 31
0.0
  0
LINE
  8
428003-048
  6
CONTINUOUS
 62
         7
  5
170
 10
10.9210313543
 20
9.2115935154
 30
0.0
 11
10.9444108213
 21
9.2270935154
 31
0.0
  0
LINE
  8
428003-048
  6
CONTINUOUS
 62
         7
  5
171
 10
10.9210313543
 20
9.1805935154
 30
0.0
 11
10.9444108213
 21
9.1960935154
 31
0.0
  0
LINE
  8
428003-048
  6
CONTINUOUS
 62
         7
  5
172
 10
10.8077902883
 20
9.1495935154
 30
0.0
 11
10.7844108213
 21
9.1340935154
 31
0.0
  0
LINE
  8
428003-048
  6
CONTINUOUS
 62
         7
  5
173
 10
10.8077902883
 20
9.1805935154
 30
0.0
 11
10.7844108213
 21
9.1650935154
 31
0.0
  0
LINE
  8
428003-048
  6
CONTINUOUS
 62
         7
  5
174
 10
10.9210313543
 20
9.1495935154
 30
0.0
 11
10.9444108213
 21
9.1650935154
 31
0.0
  0
LINE
  8
428003-048
  6
CONTINUOUS
 62
         7
  5
175
 10
10.8077902883
 20
9.0875935154
 30
0.0
 11
10.7844108213
 21
9.0720935154
 31
0.0
  0
LINE
  8
428003-048
  6
CONTINUOUS
 62
         7
  5
176
 10
10.9210313543
 20
9.1185935154
 30
0.0
 11
10.9444108213
 21
9.1340935154
 31
0.0
  0
LINE
  8
428003-048
  6
CONTINUOUS
 62
         7
  5
177
 10
10.9210313543
 20
9.0875935154
 30
0.0
 11
10.9444108213
 21
9.1030935154
 31
0.0
  0
LINE
  8
428003-048
  6
CONTINUOUS
 62
         7
  5
178
 10
10.8077902883
 20
9.1185935154
 30
0.0
 11
10.7844108213
 21
9.1030935154
 31
0.0
  0
LINE
  8
428003-048
  6
CONTINUOUS
 62
         7
  5
179
 10
10.8077902883
 20
9.0255935154
 30
0.0
 11
10.785919174
 21
9.0110935154
 31
0.0
  0
LINE
  8
428003-048
  6
CONTINUOUS
 62
         7
  5
17A
 10
10.9210313543
 20
9.0565935154
 30
0.0
 11
10.9444108213
 21
9.0720935154
 31
0.0
  0
LINE
  8
428003-048
  6
CONTINUOUS
 62
         7
  5
17B
 10
10.8077902883
 20
9.0565935154
 30
0.0
 11
10.7844108213
 21
9.0410935154
 31
0.0
  0
LINE
  8
428003-048
  6
CONTINUOUS
 62
         7
  5
17C
 10
10.9210313543
 20
9.0255935154
 30
0.0
 11
10.9444108213
 21
9.0410935154
 31
0.0
  0
LINE
  8
428003-048
  6
CONTINUOUS
 62
         7
  5
17D
 10
10.7972318193
 20
9.3285935154
 30
0.0
 11
10.7844108213
 21
9.3200935154
 31
0.0
  0
LINE
  8
428003-048
  6
CONTINUOUS
 62
         7
  5
17E
 10
10.9444108213
 20
9.2890935154
 30
0.0
 11
10.9210313543
 21
9.3045935154
 31
0.0
  0
LINE
  8
428003-048
  6
CONTINUOUS
 62
         7
  5
17F
 10
8.2292902883
 20
9.3045935154
 30
0.0
 11
8.3425313543
 21
9.3045935154
 31
0.0
  0
LINE
  8
428003-048
  6
CONTINUOUS
 62
         7
  5
180
 10
8.2059108213
 20
9.3200935154
 30
0.0
 11
8.3659108213
 21
9.3200935154
 31
0.0
  0
LINE
  8
428003-048
  6
CONTINUOUS
 62
         7
  5
181
 10
8.3425313543
 20
9.3045935154
 30
0.0
 11
8.3659108213
 21
9.3200935154
 31
0.0
  0
LINE
  8
428003-048
  6
CONTINUOUS
 62
         7
  5
182
 10
8.2292902883
 20
9.2735935154
 30
0.0
 11
8.2059108213
 21
9.2580935154
 31
0.0
  0
LINE
  8
428003-048
  6
CONTINUOUS
 62
         7
  5
183
 10
8.3425313543
 20
9.2425935154
 30
0.0
 11
8.3659108213
 21
9.2580935154
 31
0.0
  0
LINE
  8
428003-048
  6
CONTINUOUS
 62
         7
  5
184
 10
8.3425313543
 20
9.2735935154
 30
0.0
 11
8.3659108213
 21
9.2890935154
 31
0.0
  0
LINE
  8
428003-048
  6
CONTINUOUS
 62
         7
  5
185
 10
8.2292902883
 20
9.2425935154
 30
0.0
 11
8.2059108213
 21
9.2270935154
 31
0.0
  0
LINE
  8
428003-048
  6
CONTINUOUS
 62
         7
  5
186
 10
8.3425313543
 20
9.2115935154
 30
0.0
 11
8.3659108213
 21
9.2270935154
 31
0.0
  0
LINE
  8
428003-048
  6
CONTINUOUS
 62
         7
  5
187
 10
8.2292902883
 20
9.2115935154
 30
0.0
 11
8.2059108213
 21
9.1960935154
 31
0.0
  0
LINE
  8
428003-048
  6
CONTINUOUS
 62
         7
  5
188
 10
8.3425313543
 20
9.1805935154
 30
0.0
 11
8.3659108213
 21
9.1960935154
 31
0.0
  0
LINE
  8
428003-048
  6
CONTINUOUS
 62
         7
  5
189
 10
8.2292902883
 20
9.1495935154
 30
0.0
 11
8.2059108213
 21
9.1340935154
 31
0.0
  0
LINE
  8
428003-048
  6
CONTINUOUS
 62
         7
  5
18A
 10
8.3425313543
 20
9.1185935154
 30
0.0
 11
8.3659108213
 21
9.1340935154
 31
0.0
  0
LINE
  8
428003-048
  6
CONTINUOUS
 62
         7
  5
18B
 10
8.3425313543
 20
9.1495935154
 30
0.0
 11
8.3659108213
 21
9.1650935154
 31
0.0
  0
LINE
  8
428003-048
  6
CONTINUOUS
 62
         7
  5
18C
 10
8.2292902883
 20
9.1805935154
 30
0.0
 11
8.2059108213
 21
9.1650935154
 31
0.0
  0
LINE
  8
428003-048
  6
CONTINUOUS
 62
         7
  5
18D
 10
8.3425313543
 20
9.0565935154
 30
0.0
 11
8.3659108213
 21
9.0720935154
 31
0.0
  0
LINE
  8
428003-048
  6
CONTINUOUS
 62
         7
  5
18E
 10
8.2292902883
 20
9.1185935154
 30
0.0
 11
8.2059108213
 21
9.1030935154
 31
0.0
  0
LINE
  8
428003-048
  6
CONTINUOUS
 62
         7
  5
18F
 10
8.2292902883
 20
9.0875935154
 30
0.0
 11
8.2059108213
 21
9.0720935154
 31
0.0
  0
LINE
  8
428003-048
  6
CONTINUOUS
 62
         7
  5
190
 10
8.3425313543
 20
9.0875935154
 30
0.0
 11
8.3659108213
 21
9.1030935154
 31
0.0
  0
LINE
  8
428003-048
  6
CONTINUOUS
 62
         7
  5
191
 10
8.2292902883
 20
9.0255935154
 30
0.0
 11
8.207419174
 21
9.0110935154
 31
0.0
  0
LINE
  8
428003-048
  6
CONTINUOUS
 62
         7
  5
192
 10
8.3425313543
 20
9.0255935154
 30
0.0
 11
8.3659108213
 21
9.0410935154
 31
0.0
  0
LINE
  8
428003-048
  6
CONTINUOUS
 62
         7
  5
193
 10
8.2292902883
 20
9.0565935154
 30
0.0
 11
8.2059108213
 21
9.0410935154
 31
0.0
  0
LINE
  8
428003-048
  6
CONTINUOUS
 62
         7
  5
194
 10
8.2187318193
 20
9.3285935154
 30
0.0
 11
8.2059108213
 21
9.3200935154
 31
0.0
  0
LINE
  8
428003-048
  6
CONTINUOUS
 62
         7
  5
195
 10
8.3659108213
 20
9.2890935154
 30
0.0
 11
8.3425313543
 21
9.3045935154
 31
0.0
  0
LINE
  8
428003-048
  6
CONTINUOUS
 62
         7
  5
196
 10
8.2059108213
 20
9.3200935154
 30
0.0
 11
8.2292902883
 21
9.3045935154
 31
0.0
  0
LINE
  8
428003-048
  6
CONTINUOUS
 62
         7
  5
197
 10
8.3659108213
 20
9.2580935154
 30
0.0
 11
8.3425313543
 21
9.2735935154
 31
0.0
  0
LINE
  8
428003-048
  6
CONTINUOUS
 62
         7
  5
198
 10
8.2059108213
 20
9.2580935154
 30
0.0
 11
8.2292902883
 21
9.2425935154
 31
0.0
  0
LINE
  8
428003-048
  6
CONTINUOUS
 62
         7
  5
199
 10
8.2059108213
 20
9.2890935154
 30
0.0
 11
8.2292902883
 21
9.2735935154
 31
0.0
  0
LINE
  8
428003-048
  6
CONTINUOUS
 62
         7
  5
19A
 10
8.3659108213
 20
9.2270935154
 30
0.0
 11
8.3425313543
 21
9.2425935154
 31
0.0
  0
LINE
  8
428003-048
  6
CONTINUOUS
 62
         7
  5
19B
 10
8.2059108213
 20
9.2270935154
 30
0.0
 11
8.2292902883
 21
9.2115935154
 31
0.0
  0
LINE
  8
428003-048
  6
CONTINUOUS
 62
         7
  5
19C
 10
8.3659108213
 20
9.1960935154
 30
0.0
 11
8.3425313543
 21
9.2115935154
 31
0.0
  0
LINE
  8
428003-048
  6
CONTINUOUS
 62
         7
  5
19D
 10
8.2059108213
 20
9.1960935154
 30
0.0
 11
8.2292902883
 21
9.1805935154
 31
0.0
  0
LINE
  8
428003-048
  6
CONTINUOUS
 62
         7
  5
19E
 10
8.3659108213
 20
9.1340935154
 30
0.0
 11
8.3425313543
 21
9.1495935154
 31
0.0
  0
LINE
  8
428003-048
  6
CONTINUOUS
 62
         7
  5
19F
 10
8.2059108213
 20
9.1340935154
 30
0.0
 11
8.2292902883
 21
9.1185935154
 31
0.0
  0
LINE
  8
428003-048
  6
CONTINUOUS
 62
         7
  5
1A0
 10
8.2059108213
 20
9.1650935154
 30
0.0
 11
8.2292902883
 21
9.1495935154
 31
0.0
  0
LINE
  8
428003-048
  6
CONTINUOUS
 62
         7
  5
1A1
 10
8.3659108213
 20
9.1650935154
 30
0.0
 11
8.3425313543
 21
9.1805935154
 31
0.0
  0
LINE
  8
428003-048
  6
CONTINUOUS
 62
         7
  5
1A2
 10
8.2059108213
 20
9.0720935154
 30
0.0
 11
8.2292902883
 21
9.0565935154
 31
0.0
  0
LINE
  8
428003-048
  6
CONTINUOUS
 62
         7
  5
1A3
 10
8.3659108213
 20
9.1030935154
 30
0.0
 11
8.3425313543
 21
9.1185935154
 31
0.0
  0
LINE
  8
428003-048
  6
CONTINUOUS
 62
         7
  5
1A4
 10
8.3659108213
 20
9.0720935154
 30
0.0
 11
8.3425313543
 21
9.0875935154
 31
0.0
  0
LINE
  8
428003-048
  6
CONTINUOUS
 62
         7
  5
1A5
 10
8.2059108213
 20
9.1030935154
 30
0.0
 11
8.2292902883
 21
9.0875935154
 31
0.0
  0
LINE
  8
428003-048
  6
CONTINUOUS
 62
         7
  5
1A6
 10
8.3644024686
 20
9.0110935154
 30
0.0
 11
8.3425313543
 21
9.0255935154
 31
0.0
  0
LINE
  8
428003-048
  6
CONTINUOUS
 62
         7
  5
1A7
 10
8.2059108213
 20
9.0410935154
 30
0.0
 11
8.2292902883
 21
9.0255935154
 31
0.0
  0
LINE
  8
428003-048
  6
CONTINUOUS
 62
         7
  5
1A8
 10
8.3659108213
 20
9.0410935154
 30
0.0
 11
8.3425313543
 21
9.0565935154
 31
0.0
  0
LINE
  8
428003-048
  6
CONTINUOUS
 62
         7
  5
1A9
 10
8.3659108213
 20
9.3200935154
 30
0.0
 11
8.3530898233
 21
9.3285935154
 31
0.0
  0
LINE
  8
428003-048
  6
CONTINUOUS
 62
         7
  5
1AA
 10
8.207419174
 20
9.0110935154
 30
0.0
 11
8.3644024686
 21
9.0110935154
 31
0.0
  0
LINE
  8
428003-048
  6
CONTINUOUS
 62
         7
  5
1AB
 10
8.2292902883
 20
9.3045935154
 30
0.0
 11
8.2059108213
 21
9.2890935154
 31
0.0
  0
LINE
  8
428003-048
  6
CONTINUOUS
 62
         7
  5
1AC
 10
8.2059108213
 20
9.2890935154
 30
0.0
 11
8.3659108213
 21
9.2890935154
 31
0.0
  0
LINE
  8
428003-048
  6
CONTINUOUS
 62
         7
  5
1AD
 10
8.2059108213
 20
9.2580935154
 30
0.0
 11
8.3659108213
 21
9.2580935154
 31
0.0
  0
LINE
  8
428003-048
  6
CONTINUOUS
 62
         7
  5
1AE
 10
8.2292902883
 20
9.2735935154
 30
0.0
 11
8.3425313543
 21
9.2735935154
 31
0.0
  0
LINE
  8
428003-048
  6
CONTINUOUS
 62
         7
  5
1AF
 10
8.2292902883
 20
9.2425935154
 30
0.0
 11
8.3425313543
 21
9.2425935154
 31
0.0
  0
LINE
  8
428003-048
  6
CONTINUOUS
 62
         7
  5
1B0
 10
8.2059108213
 20
9.2270935154
 30
0.0
 11
8.3659108213
 21
9.2270935154
 31
0.0
  0
LINE
  8
428003-048
  6
CONTINUOUS
 62
         7
  5
1B1
 10
8.2292902883
 20
9.1495935154
 30
0.0
 11
8.3425313543
 21
9.1495935154
 31
0.0
  0
LINE
  8
428003-048
  6
CONTINUOUS
 62
         7
  5
1B2
 10
8.2292902883
 20
9.2115935154
 30
0.0
 11
8.3425313543
 21
9.2115935154
 31
0.0
  0
LINE
  8
428003-048
  6
CONTINUOUS
 62
         7
  5
1B3
 10
8.2059108213
 20
9.1650935154
 30
0.0
 11
8.3659108213
 21
9.1650935154
 31
0.0
  0
LINE
  8
428003-048
  6
CONTINUOUS
 62
         7
  5
1B4
 10
8.2292902883
 20
9.1805935154
 30
0.0
 11
8.3425313543
 21
9.1805935154
 31
0.0
  0
LINE
  8
428003-048
  6
CONTINUOUS
 62
         7
  5
1B5
 10
8.2059108213
 20
9.1960935154
 30
0.0
 11
8.3659108213
 21
9.1960935154
 31
0.0
  0
LINE
  8
428003-048
  6
CONTINUOUS
 62
         7
  5
1B6
 10
8.2059108213
 20
9.1340935154
 30
0.0
 11
8.3659108213
 21
9.1340935154
 31
0.0
  0
LINE
  8
428003-048
  6
CONTINUOUS
 62
         7
  5
1B7
 10
8.2292902883
 20
9.0565935154
 30
0.0
 11
8.3425313543
 21
9.0565935154
 31
0.0
  0
LINE
  8
428003-048
  6
CONTINUOUS
 62
         7
  5
1B8
 10
8.2292902883
 20
9.1185935154
 30
0.0
 11
8.3425313543
 21
9.1185935154
 31
0.0
  0
LINE
  8
428003-048
  6
CONTINUOUS
 62
         7
  5
1B9
 10
8.2059108213
 20
9.0720935154
 30
0.0
 11
8.3659108213
 21
9.0720935154
 31
0.0
  0
LINE
  8
428003-048
  6
CONTINUOUS
 62
         7
  5
1BA
 10
8.2292902883
 20
9.0875935154
 30
0.0
 11
8.3425313543
 21
9.0875935154
 31
0.0
  0
LINE
  8
428003-048
  6
CONTINUOUS
 62
         7
  5
1BB
 10
8.2059108213
 20
9.1030935154
 30
0.0
 11
8.3659108213
 21
9.1030935154
 31
0.0
  0
LINE
  8
428003-048
  6
CONTINUOUS
 62
         7
  5
1BC
 10
8.2292902883
 20
9.0255935154
 30
0.0
 11
8.3425313543
 21
9.0255935154
 31
0.0
  0
LINE
  8
428003-048
  6
CONTINUOUS
 62
         7
  5
1BD
 10
8.2059108213
 20
9.0410935154
 30
0.0
 11
8.3659108213
 21
9.0410935154
 31
0.0
  0
ENDBLK
  8
428003-048
  6
CONTINUOUS
 62
         7
  5
1BE
  0
BLOCK
  8
0
 62
         1
 48
0.0
  5
1BF
  2
*X3
 70
         1
 10
0.0
 20
0.0
 30
0.0
  3
*X3
  0
INSERT
  8
0
 62
         0
 48
0.0
  5
1C0
  2
*X2
 10
0.0
 20
0.0
 30
0.0
  0
ENDBLK
  8
0
 62
         0
 48
0.0
  5
1C1
  0
BLOCK
  8
0
 62
         1
 48
0.0
  5
1C2
  2
*X4
 70
         1
 10
0.0
 20
0.0
 30
0.0
  3
*X4
  0
LINE
  8
83762X1
  6
CONTINUOUS
 62
         7
  5
1C3
 10
15.8283816204
 20
9.7660935154
 30
0.0
 11
15.8283816204
 21
9.6730935154
 31
0.0
  0
ARC
  8
83762X1
  6
CONTINUOUS
 62
         7
  5
1C4
 10
16.0230891335
 20
9.5780935154
 30
0.0
 40
0.062
 50
190.0
 51
270.0
  0
LINE
  8
83762X1
  6
CONTINUOUS
 62
         7
  5
1C5
 10
19.944732188
 20
9.5673273284
 30
0.0
 11
19.9633816204
 21
9.6730935154
 31
0.0
  0
LINE
  8
83762X1
  6
CONTINUOUS
 62
         7
  5
1C6
 10
15.8283816204
 20
9.6730935154
 30
0.0
 11
20.0783816204
 21
9.6730935154
 31
0.0
  0
LINE
  8
83762X1
  6
CONTINUOUS
 62
         7
  5
1C7
 10
15.8283816204
 20
9.7660935154
 30
0.0
 11
20.0783816204
 21
9.7660935154
 31
0.0
  0
LINE
  8
83762X1
  6
CONTINUOUS
 62
         7
  5
1C8
 10
15.9620310528
 20
9.5673273284
 30
0.0
 11
16.340541553
 21
9.5673273284
 31
0.0
  0
LINE
  8
83762X1
  6
CONTINUOUS
 62
         7
  5
1C9
 10
19.5662216878
 20
9.5673273284
 30
0.0
 11
19.944732188
 21
9.5673273284
 31
0.0
  0
LINE
  8
83762X1
  6
CONTINUOUS
 62
         7
  5
1CA
 10
16.3888839109
 20
9.5673273284
 30
0.0
 11
19.5178793299
 21
9.5673273284
 31
0.0
  0
ARC
  8
83762X1
  6
CONTINUOUS
 62
         7
  5
1CC
 10
121.8549691893
 20
32.5383727056
 30
0.0
 40
107.9859405902
 50
192.2418959163
 51
192.2819489217
  0
LINE
  8
83762X1
  6
CONTINUOUS
 62
         7
  5
1CE
 10
16.3888839109
 20
9.5673273284
 30
0.0
 11
16.3723613376
 21
9.6410935154
 31
0.0
  0
LINE
  8
83762X1
  6
CONTINUOUS
 62
         7
  5
1D1
 10
20.0783816204
 20
9.6730935154
 30
0.0
 11
20.0783816204
 21
9.7660935154
 31
0.0
  0
LINE
  8
83762X1
  6
CONTINUOUS
 62
         7
  5
1D2
 10
19.582253971
 20
9.6410935154
 30
0.0
 11
19.5344019032
 21
9.6410935154
 31
0.0
  0
LINE
  8
83762X1
  6
CONTINUOUS
 62
         7
  5
1D6
 10
19.5178793299
 20
9.5673273284
 30
0.0
 11
19.5344019032
 21
9.6410935154
 31
0.0
  0
ARC
  8
83762X1
  6
CONTINUOUS
 62
         7
  5
1D8
 10
-85.9482059515
 20
32.5383727063
 30
0.0
 40
107.9859405932
 50
347.7180510783
 51
347.7581040837
  0
LINE
  8
83762X1
  6
CONTINUOUS
 62
         7
  5
1D9
 10
16.3245092698
 20
9.6410935154
 30
0.0
 11
16.3723613376
 21
9.6410935154
 31
0.0
  0
ARC
  8
83762X1
  6
CONTINUOUS
 62
         7
  5
1DA
 10
19.8836741073
 20
9.5780935154
 30
0.0
 40
0.062
 50
270.0
 51
350.0
  0
LINE
  8
83762X1
  6
CONTINUOUS
 62
         7
  5
1DB
 10
15.9433816204
 20
9.6730935154
 30
0.0
 11
15.9620310528
 21
9.5673273284
 31
0.0
  0
LINE
  8
1_000_700
  6
CONTINUOUS
 62
         7
  5
1DC
 10
15.9843816204
 20
9.3285935154
 30
0.0
 11
19.9223816204
 21
9.3285935154
 31
0.0
  0
LINE
  8
1_000_700
  6
CONTINUOUS
 62
         7
  5
1DD
 10
15.9843816204
 20
9.5160935154
 30
0.0
 11
19.9223816204
 21
9.5160935154
 31
0.0
  0
LINE
  8
1_000_700
  6
CONTINUOUS
 62
         7
  5
1DE
 10
15.9843816204
 20
9.5160935154
 30
0.0
 11
15.9843816204
 21
9.3285935154
 31
0.0
  0
LINE
  8
1_000_700
  6
CONTINUOUS
 62
         7
  5
1DF
 10
19.9223816204
 20
9.3285935154
 30
0.0
 11
19.9223816204
 21
9.5160935154
 31
0.0
  0
LINE
  8
81093X
  6
CONTINUOUS
 62
         7
  5
1E0
 10
16.5258816204
 20
9.2665935154
 30
0.0
 11
17.8862026184
 21
9.2665935154
 31
0.0
  0
LINE
  8
81093X
  6
CONTINUOUS
 62
         7
  5
1E1
 10
18.0205606224
 20
9.2665935154
 30
0.0
 11
19.3808816204
 21
9.2665935154
 31
0.0
  0
LINE
  8
81093X
  6
CONTINUOUS
 62
         7
  5
1E2
 10
16.5258816204
 20
9.3285935154
 30
0.0
 11
16.5258816204
 21
9.2665935154
 31
0.0
  0
LINE
  8
81093X
  6
CONTINUOUS
 62
         7
  5
1E3
 10
19.3808816204
 20
9.2665935154
 30
0.0
 11
19.3808816204
 21
9.3285935154
 31
0.0
  0
LINE
  8
429022-024
  6
CONTINUOUS
 62
         7
  5
1E4
 10
17.8833816204
 20
9.2200935154
 30
0.0
 11
17.8877057368
 21
9.2175969856
 31
0.0
  0
LINE
  8
429022-024
  6
CONTINUOUS
 62
         7
  5
1E5
 10
18.0233816204
 20
9.2200935154
 30
0.0
 11
18.0230831093
 21
9.2202658609
 31
0.0
  0
LINE
  8
429022-024
  6
CONTINUOUS
 62
         7
  5
1E6
 10
18.0233816204
 20
9.2510935154
 30
0.0
 11
18.0230831093
 21
9.2512658609
 31
0.0
  0
LINE
  8
429022-024
  6
CONTINUOUS
 62
         7
  5
1E7
 10
17.8833816204
 20
9.2510935154
 30
0.0
 11
17.8877057368
 21
9.2485969856
 31
0.0
  0
LINE
  8
429022-024
  6
CONTINUOUS
 62
         7
  5
1E8
 10
18.0233816204
 20
9.1890935154
 30
0.0
 11
18.0230831093
 21
9.1892658609
 31
0.0
  0
LINE
  8
429022-024
  6
CONTINUOUS
 62
         7
  5
1E9
 10
17.8833816204
 20
9.1890935154
 30
0.0
 11
17.8877057368
 21
9.1865969856
 31
0.0
  0
LINE
  8
429022-024
  6
CONTINUOUS
 62
         7
  5
1EA
 10
17.8833816204
 20
9.1580935154
 30
0.0
 11
17.8877057368
 21
9.1555969856
 31
0.0
  0
LINE
  8
429022-024
  6
CONTINUOUS
 62
         7
  5
1EB
 10
18.0233816204
 20
9.1580935154
 30
0.0
 11
18.0230831093
 21
9.1582658609
 31
0.0
  0
LINE
  8
429022-024
  6
CONTINUOUS
 62
         7
  5
1EC
 10
17.8833816204
 20
9.0960935154
 30
0.0
 11
17.8877057368
 21
9.0935969856
 31
0.0
  0
LINE
  8
429022-024
  6
CONTINUOUS
 62
         7
  5
1ED
 10
18.0233816204
 20
9.1270935154
 30
0.0
 11
18.0230831093
 21
9.1272658609
 31
0.0
  0
LINE
  8
429022-024
  6
CONTINUOUS
 62
         7
  5
1EE
 10
18.0233816204
 20
9.0960935154
 30
0.0
 11
18.0230831093
 21
9.0962658609
 31
0.0
  0
LINE
  8
429022-024
  6
CONTINUOUS
 62
         7
  5
1EF
 10
17.8833816204
 20
9.1270935154
 30
0.0
 11
17.8877057368
 21
9.1245969856
 31
0.0
  0
LINE
  8
429022-024
  6
CONTINUOUS
 62
         7
  5
1F0
 10
18.0233816204
 20
9.0650935154
 30
0.0
 11
18.0230831093
 21
9.0652658609
 31
0.0
  0
LINE
  8
429022-024
  6
CONTINUOUS
 62
         7
  5
1F1
 10
17.8833816204
 20
9.0650935154
 30
0.0
 11
17.8877057368
 21
9.0625969856
 31
0.0
  0
LINE
  8
429022-024
  6
CONTINUOUS
 62
         7
  5
1F2
 10
18.0233816204
 20
9.0340935154
 30
0.0
 11
18.0230831093
 21
9.0342658609
 31
0.0
  0
LINE
  8
429022-024
  6
CONTINUOUS
 62
         7
  5
1F3
 10
17.8833816204
 20
9.0340935154
 30
0.0
 11
17.8877057368
 21
9.0315969856
 31
0.0
  0
LINE
  8
429022-024
  6
CONTINUOUS
 62
         7
  5
1F4
 10
18.0233816204
 20
8.9720935154
 30
0.0
 11
17.9965348329
 21
8.9875935154
 31
0.0
  0
LINE
  8
429022-024
  6
CONTINUOUS
 62
         7
  5
1F5
 10
17.8833816204
 20
9.0030935154
 30
0.0
 11
17.9102284079
 21
8.9875935154
 31
0.0
  0
LINE
  8
429022-024
  6
CONTINUOUS
 62
         7
  5
1F6
 10
17.8833816204
 20
8.9720935154
 30
0.0
 11
17.9154245604
 21
8.9535935154
 31
0.0
  0
LINE
  8
429022-024
  6
CONTINUOUS
 62
         7
  5
1F7
 10
18.0233816204
 20
9.0030935154
 30
0.0
 11
18.009525214
 21
9.0110935154
 31
0.0
  0
LINE
  8
429022-024
  6
CONTINUOUS
 62
         7
  5
1F8
 10
18.019057504
 20
9.2175969856
 30
0.0
 11
18.0233816204
 21
9.2200935154
 31
0.0
  0
LINE
  8
429022-024
  6
CONTINUOUS
 62
         7
  5
1F9
 10
17.8836801316
 20
9.2202658609
 30
0.0
 11
17.8833816204
 21
9.2200935154
 31
0.0
  0
LINE
  8
429022-024
  6
CONTINUOUS
 62
         7
  5
1FA
 10
17.8836801316
 20
9.2512658609
 30
0.0
 11
17.8833816204
 21
9.2510935154
 31
0.0
  0
LINE
  8
429022-024
  6
CONTINUOUS
 62
         7
  5
1FB
 10
18.019057504
 20
9.2485969856
 30
0.0
 11
18.0233816204
 21
9.2510935154
 31
0.0
  0
LINE
  8
429022-024
  6
CONTINUOUS
 62
         7
  5
1FC
 10
17.8836801316
 20
9.1892658609
 30
0.0
 11
17.8833816204
 21
9.1890935154
 31
0.0
  0
LINE
  8
429022-024
  6
CONTINUOUS
 62
         7
  5
1FD
 10
18.019057504
 20
9.1865969856
 30
0.0
 11
18.0233816204
 21
9.1890935154
 31
0.0
  0
LINE
  8
429022-024
  6
CONTINUOUS
 62
         7
  5
1FE
 10
18.019057504
 20
9.1555969856
 30
0.0
 11
18.0233816204
 21
9.1580935154
 31
0.0
  0
LINE
  8
429022-024
  6
CONTINUOUS
 62
         7
  5
1FF
 10
17.8836801316
 20
9.1582658609
 30
0.0
 11
17.8833816204
 21
9.1580935154
 31
0.0
  0
LINE
  8
429022-024
  6
CONTINUOUS
 62
         7
  5
200
 10
18.019057504
 20
9.0935969856
 30
0.0
 11
18.0233816204
 21
9.0960935154
 31
0.0
  0
LINE
  8
429022-024
  6
CONTINUOUS
 62
         7
  5
201
 10
17.8836801316
 20
9.1272658609
 30
0.0
 11
17.8833816204
 21
9.1270935154
 31
0.0
  0
LINE
  8
429022-024
  6
CONTINUOUS
 62
         7
  5
202
 10
18.0233816204
 20
9.1890935154
 30
0.0
 11
18.0228231515
 21
9.1890935154
 31
0.0
  0
LINE
  8
429022-024
  6
CONTINUOUS
 62
         7
  5
203
 10
17.8839400894
 20
9.1890935154
 30
0.0
 11
17.8833816204
 21
9.1890935154
 31
0.0
  0
LINE
  8
429022-024
  6
CONTINUOUS
 62
         7
  5
204
 10
17.8836801316
 20
9.0962658609
 30
0.0
 11
17.8833816204
 21
9.0960935154
 31
0.0
  0
LINE
  8
429022-024
  6
CONTINUOUS
 62
         7
  5
205
 10
18.0233816204
 20
9.2200935154
 30
0.0
 11
18.0228231515
 21
9.2200935154
 31
0.0
  0
LINE
  8
429022-024
  6
CONTINUOUS
 62
         7
  5
206
 10
17.8839400894
 20
9.2200935154
 30
0.0
 11
17.8833816204
 21
9.2200935154
 31
0.0
  0
LINE
  8
429022-024
  6
CONTINUOUS
 62
         7
  5
207
 10
18.0233816204
 20
9.2510935154
 30
0.0
 11
18.0228231515
 21
9.2510935154
 31
0.0
  0
LINE
  8
429022-024
  6
CONTINUOUS
 62
         7
  5
208
 10
17.8839400894
 20
9.2510935154
 30
0.0
 11
17.8833816204
 21
9.2510935154
 31
0.0
  0
LINE
  8
429022-024
  6
CONTINUOUS
 62
         7
  5
209
 10
18.019057504
 20
9.1245969856
 30
0.0
 11
18.0233816204
 21
9.1270935154
 31
0.0
  0
LINE
  8
429022-024
  6
CONTINUOUS
 62
         7
  5
20A
 10
17.8836801316
 20
9.0652658609
 30
0.0
 11
17.8833816204
 21
9.0650935154
 31
0.0
  0
LINE
  8
429022-024
  6
CONTINUOUS
 62
         7
  5
20B
 10
18.019057504
 20
9.0625969856
 30
0.0
 11
18.0233816204
 21
9.0650935154
 31
0.0
  0
LINE
  8
429022-024
  6
CONTINUOUS
 62
         7
  5
20C
 10
17.8836801316
 20
9.0342658609
 30
0.0
 11
17.8833816204
 21
9.0340935154
 31
0.0
  0
LINE
  8
429022-024
  6
CONTINUOUS
 62
         7
  5
20D
 10
18.0233816204
 20
9.0960935154
 30
0.0
 11
18.0228231515
 21
9.0960935154
 31
0.0
  0
LINE
  8
429022-024
  6
CONTINUOUS
 62
         7
  5
20E
 10
17.8839400894
 20
9.0960935154
 30
0.0
 11
17.8833816204
 21
9.0960935154
 31
0.0
  0
LINE
  8
429022-024
  6
CONTINUOUS
 62
         7
  5
20F
 10
18.0233816204
 20
9.1270935154
 30
0.0
 11
18.0228231515
 21
9.1270935154
 31
0.0
  0
LINE
  8
429022-024
  6
CONTINUOUS
 62
         7
  5
210
 10
17.8839400894
 20
9.1270935154
 30
0.0
 11
17.8833816204
 21
9.1270935154
 31
0.0
  0
LINE
  8
429022-024
  6
CONTINUOUS
 62
         7
  5
211
 10
18.0233816204
 20
9.1580935154
 30
0.0
 11
18.0228231515
 21
9.1580935154
 31
0.0
  0
LINE
  8
429022-024
  6
CONTINUOUS
 62
         7
  5
212
 10
17.8839400894
 20
9.1580935154
 30
0.0
 11
17.8833816204
 21
9.1580935154
 31
0.0
  0
LINE
  8
429022-024
  6
CONTINUOUS
 62
         7
  5
213
 10
18.019057504
 20
9.0315969856
 30
0.0
 11
18.0233816204
 21
9.0340935154
 31
0.0
  0
LINE
  8
429022-024
  6
CONTINUOUS
 62
         7
  5
214
 10
17.9102284079
 20
8.9875935154
 30
0.0
 11
17.8833816204
 21
8.9720935154
 31
0.0
  0
LINE
  8
429022-024
  6
CONTINUOUS
 62
         7
  5
215
 10
17.9965348329
 20
8.9875935154
 30
0.0
 11
18.0233816204
 21
9.0030935154
 31
0.0
  0
LINE
  8
429022-024
  6
CONTINUOUS
 62
         7
  5
216
 10
18.0233816204
 20
9.0650935154
 30
0.0
 11
18.0228231515
 21
9.0650935154
 31
0.0
  0
LINE
  8
429022-024
  6
CONTINUOUS
 62
         7
  5
217
 10
17.8839400894
 20
9.0650935154
 30
0.0
 11
17.8833816204
 21
9.0650935154
 31
0.0
  0
LINE
  8
429022-024
  6
CONTINUOUS
 62
         7
  5
218
 10
17.9913386805
 20
8.9535935154
 30
0.0
 11
18.0233816204
 21
8.9720935154
 31
0.0
  0
LINE
  8
429022-024
  6
CONTINUOUS
 62
         7
  5
219
 10
17.8972380269
 20
9.0110935154
 30
0.0
 11
17.8833816204
 21
9.0030935154
 31
0.0
  0
LINE
  8
429022-024
  6
CONTINUOUS
 62
         7
  5
21A
 10
18.0233816204
 20
9.0340935154
 30
0.0
 11
18.0228231515
 21
9.0340935154
 31
0.0
  0
LINE
  8
429022-024
  6
CONTINUOUS
 62
         7
  5
21B
 10
17.8839400894
 20
9.0340935154
 30
0.0
 11
17.8833816204
 21
9.0340935154
 31
0.0
  0
LINE
  8
429022-024
  6
CONTINUOUS
 62
         7
  5
21C
 10
17.9965348329
 20
8.9875935154
 30
0.0
 11
17.9102284079
 21
8.9875935154
 31
0.0
  0
LINE
  8
429022-024
  6
CONTINUOUS
 62
         7
  5
21D
 10
18.0233816204
 20
8.9720935154
 30
0.0
 11
17.8833816204
 21
8.9720935154
 31
0.0
  0
LINE
  8
429022-024
  6
CONTINUOUS
 62
         7
  5
21E
 10
17.9913386805
 20
8.9535935154
 30
0.0
 11
17.9154245604
 21
8.9535935154
 31
0.0
  0
LINE
  8
429022-024
  6
CONTINUOUS
 62
         7
  5
21F
 10
18.0233816204
 20
9.0030935154
 30
0.0
 11
17.8833816204
 21
9.0030935154
 31
0.0
  0
LINE
  8
428003-048
  6
CONTINUOUS
 62
         7
  5
220
 10
17.8733816204
 20
9.2890935154
 30
0.0
 11
17.8967610874
 21
9.2735935154
 31
0.0
  0
LINE
  8
428003-048
  6
CONTINUOUS
 62
         7
  5
221
 10
18.0333816204
 20
9.2580935154
 30
0.0
 11
18.0100021534
 21
9.2735935154
 31
0.0
  0
LINE
  8
428003-048
  6
CONTINUOUS
 62
         7
  5
222
 10
17.8733816204
 20
9.3200935154
 30
0.0
 11
17.8967610874
 21
9.3045935154
 31
0.0
  0
LINE
  8
428003-048
  6
CONTINUOUS
 62
         7
  5
223
 10
17.8733816204
 20
9.2270935154
 30
0.0
 11
17.8967610874
 21
9.2115935154
 31
0.0
  0
LINE
  8
428003-048
  6
CONTINUOUS
 62
         7
  5
224
 10
18.0333816204
 20
9.2270935154
 30
0.0
 11
18.0100021534
 21
9.2425935154
 31
0.0
  0
LINE
  8
428003-048
  6
CONTINUOUS
 62
         7
  5
225
 10
17.8733816204
 20
9.2580935154
 30
0.0
 11
17.8967610874
 21
9.2425935154
 31
0.0
  0
LINE
  8
428003-048
  6
CONTINUOUS
 62
         7
  5
226
 10
18.0333816204
 20
9.1960935154
 30
0.0
 11
18.0100021534
 21
9.2115935154
 31
0.0
  0
LINE
  8
428003-048
  6
CONTINUOUS
 62
         7
  5
227
 10
17.8733816204
 20
9.1960935154
 30
0.0
 11
17.8967610874
 21
9.1805935154
 31
0.0
  0
LINE
  8
428003-048
  6
CONTINUOUS
 62
         7
  5
228
 10
18.0333816204
 20
9.1340935154
 30
0.0
 11
18.0100021534
 21
9.1495935154
 31
0.0
  0
LINE
  8
428003-048
  6
CONTINUOUS
 62
         7
  5
229
 10
17.8733816204
 20
9.1650935154
 30
0.0
 11
17.8967610874
 21
9.1495935154
 31
0.0
  0
LINE
  8
428003-048
  6
CONTINUOUS
 62
         7
  5
22A
 10
18.0333816204
 20
9.1650935154
 30
0.0
 11
18.0100021534
 21
9.1805935154
 31
0.0
  0
LINE
  8
428003-048
  6
CONTINUOUS
 62
         7
  5
22B
 10
18.0333816204
 20
9.0720935154
 30
0.0
 11
18.0100021534
 21
9.0875935154
 31
0.0
  0
LINE
  8
428003-048
  6
CONTINUOUS
 62
         7
  5
22C
 10
17.8733816204
 20
9.1030935154
 30
0.0
 11
17.8967610874
 21
9.0875935154
 31
0.0
  0
LINE
  8
428003-048
  6
CONTINUOUS
 62
         7
  5
22D
 10
18.0333816204
 20
9.1030935154
 30
0.0
 11
18.0100021534
 21
9.1185935154
 31
0.0
  0
LINE
  8
428003-048
  6
CONTINUOUS
 62
         7
  5
22E
 10
17.8733816204
 20
9.1340935154
 30
0.0
 11
17.8967610874
 21
9.1185935154
 31
0.0
  0
LINE
  8
428003-048
  6
CONTINUOUS
 62
         7
  5
22F
 10
18.0318732677
 20
9.0110935154
 30
0.0
 11
18.0100021534
 21
9.0255935154
 31
0.0
  0
LINE
  8
428003-048
  6
CONTINUOUS
 62
         7
  5
230
 10
18.0333816204
 20
9.0410935154
 30
0.0
 11
18.0100021534
 21
9.0565935154
 31
0.0
  0
LINE
  8
428003-048
  6
CONTINUOUS
 62
         7
  5
231
 10
17.8733816204
 20
9.0410935154
 30
0.0
 11
17.8967610874
 21
9.0255935154
 31
0.0
  0
LINE
  8
428003-048
  6
CONTINUOUS
 62
         7
  5
232
 10
17.8733816204
 20
9.0720935154
 30
0.0
 11
17.8967610874
 21
9.0565935154
 31
0.0
  0
LINE
  8
428003-048
  6
CONTINUOUS
 62
         7
  5
233
 10
18.0333816204
 20
9.3200935154
 30
0.0
 11
18.0205606224
 21
9.3285935154
 31
0.0
  0
LINE
  8
428003-048
  6
CONTINUOUS
 62
         7
  5
234
 10
17.8748899731
 20
9.0110935154
 30
0.0
 11
18.0318732677
 21
9.0110935154
 31
0.0
  0
LINE
  8
428003-048
  6
CONTINUOUS
 62
         7
  5
235
 10
17.8967610874
 20
9.3045935154
 30
0.0
 11
17.8733816204
 21
9.2890935154
 31
0.0
  0
LINE
  8
428003-048
  6
CONTINUOUS
 62
         7
  5
236
 10
18.0333816204
 20
9.2890935154
 30
0.0
 11
17.8733816204
 21
9.2890935154
 31
0.0
  0
LINE
  8
428003-048
  6
CONTINUOUS
 62
         7
  5
237
 10
18.0100021534
 20
9.2735935154
 30
0.0
 11
17.8967610874
 21
9.2735935154
 31
0.0
  0
LINE
  8
428003-048
  6
CONTINUOUS
 62
         7
  5
238
 10
18.0100021534
 20
9.2425935154
 30
0.0
 11
17.8967610874
 21
9.2425935154
 31
0.0
  0
LINE
  8
428003-048
  6
CONTINUOUS
 62
         7
  5
239
 10
18.0333816204
 20
9.2580935154
 30
0.0
 11
17.8733816204
 21
9.2580935154
 31
0.0
  0
LINE
  8
428003-048
  6
CONTINUOUS
 62
         7
  5
23A
 10
18.0333816204
 20
9.2270935154
 30
0.0
 11
17.8733816204
 21
9.2270935154
 31
0.0
  0
LINE
  8
428003-048
  6
CONTINUOUS
 62
         7
  5
23B
 10
18.0333816204
 20
9.1650935154
 30
0.0
 11
17.8733816204
 21
9.1650935154
 31
0.0
  0
LINE
  8
428003-048
  6
CONTINUOUS
 62
         7
  5
23C
 10
18.0100021534
 20
9.1805935154
 30
0.0
 11
17.8967610874
 21
9.1805935154
 31
0.0
  0
LINE
  8
428003-048
  6
CONTINUOUS
 62
         7
  5
23D
 10
18.0333816204
 20
9.1960935154
 30
0.0
 11
17.8733816204
 21
9.1960935154
 31
0.0
  0
LINE
  8
428003-048
  6
CONTINUOUS
 62
         7
  5
23E
 10
18.0100021534
 20
9.2115935154
 30
0.0
 11
17.8967610874
 21
9.2115935154
 31
0.0
  0
LINE
  8
428003-048
  6
CONTINUOUS
 62
         7
  5
23F
 10
18.0333816204
 20
9.0720935154
 30
0.0
 11
17.8733816204
 21
9.0720935154
 31
0.0
  0
LINE
  8
428003-048
  6
CONTINUOUS
 62
         7
  5
240
 10
18.0100021534
 20
9.0875935154
 30
0.0
 11
17.8967610874
 21
9.0875935154
 31
0.0
  0
LINE
  8
428003-048
  6
CONTINUOUS
 62
         7
  5
241
 10
18.0333816204
 20
9.1030935154
 30
0.0
 11
17.8733816204
 21
9.1030935154
 31
0.0
  0
LINE
  8
428003-048
  6
CONTINUOUS
 62
         7
  5
242
 10
18.0100021534
 20
9.1185935154
 30
0.0
 11
17.8967610874
 21
9.1185935154
 31
0.0
  0
LINE
  8
428003-048
  6
CONTINUOUS
 62
         7
  5
243
 10
18.0333816204
 20
9.1340935154
 30
0.0
 11
17.8733816204
 21
9.1340935154
 31
0.0
  0
LINE
  8
428003-048
  6
CONTINUOUS
 62
         7
  5
244
 10
18.0100021534
 20
9.1495935154
 30
0.0
 11
17.8967610874
 21
9.1495935154
 31
0.0
  0
LINE
  8
428003-048
  6
CONTINUOUS
 62
         7
  5
245
 10
18.0100021534
 20
9.0255935154
 30
0.0
 11
17.8967610874
 21
9.0255935154
 31
0.0
  0
LINE
  8
428003-048
  6
CONTINUOUS
 62
         7
  5
246
 10
18.0333816204
 20
9.0410935154
 30
0.0
 11
17.8733816204
 21
9.0410935154
 31
0.0
  0
LINE
  8
428003-048
  6
CONTINUOUS
 62
         7
  5
247
 10
18.0100021534
 20
9.0565935154
 30
0.0
 11
17.8967610874
 21
9.0565935154
 31
0.0
  0
LINE
  8
428003-048
  6
CONTINUOUS
 62
         7
  5
248
 10
18.0100021534
 20
9.3045935154
 30
0.0
 11
17.8967610874
 21
9.3045935154
 31
0.0
  0
LINE
  8
428003-048
  6
CONTINUOUS
 62
         7
  5
249
 10
18.0333816204
 20
9.3200935154
 30
0.0
 11
17.8733816204
 21
9.3200935154
 31
0.0
  0
LINE
  8
428003-048
  6
CONTINUOUS
 62
         7
  5
24A
 10
18.0100021534
 20
9.2735935154
 30
0.0
 11
18.0333816204
 21
9.2890935154
 31
0.0
  0
LINE
  8
428003-048
  6
CONTINUOUS
 62
         7
  5
24B
 10
17.8967610874
 20
9.2735935154
 30
0.0
 11
17.8733816204
 21
9.2580935154
 31
0.0
  0
LINE
  8
428003-048
  6
CONTINUOUS
 62
         7
  5
24C
 10
18.0100021534
 20
9.3045935154
 30
0.0
 11
18.0333816204
 21
9.3200935154
 31
0.0
  0
LINE
  8
428003-048
  6
CONTINUOUS
 62
         7
  5
24D
 10
18.0100021534
 20
9.2115935154
 30
0.0
 11
18.0333816204
 21
9.2270935154
 31
0.0
  0
LINE
  8
428003-048
  6
CONTINUOUS
 62
         7
  5
24E
 10
17.8967610874
 20
9.2425935154
 30
0.0
 11
17.8733816204
 21
9.2270935154
 31
0.0
  0
LINE
  8
428003-048
  6
CONTINUOUS
 62
         7
  5
24F
 10
18.0100021534
 20
9.2425935154
 30
0.0
 11
18.0333816204
 21
9.2580935154
 31
0.0
  0
LINE
  8
428003-048
  6
CONTINUOUS
 62
         7
  5
250
 10
17.8967610874
 20
9.2115935154
 30
0.0
 11
17.8733816204
 21
9.1960935154
 31
0.0
  0
LINE
  8
428003-048
  6
CONTINUOUS
 62
         7
  5
251
 10
18.0100021534
 20
9.1805935154
 30
0.0
 11
18.0333816204
 21
9.1960935154
 31
0.0
  0
LINE
  8
428003-048
  6
CONTINUOUS
 62
         7
  5
252
 10
17.8967610874
 20
9.1495935154
 30
0.0
 11
17.8733816204
 21
9.1340935154
 31
0.0
  0
LINE
  8
428003-048
  6
CONTINUOUS
 62
         7
  5
253
 10
18.0100021534
 20
9.1495935154
 30
0.0
 11
18.0333816204
 21
9.1650935154
 31
0.0
  0
LINE
  8
428003-048
  6
CONTINUOUS
 62
         7
  5
254
 10
17.8967610874
 20
9.1805935154
 30
0.0
 11
17.8733816204
 21
9.1650935154
 31
0.0
  0
LINE
  8
428003-048
  6
CONTINUOUS
 62
         7
  5
255
 10
17.8967610874
 20
9.0875935154
 30
0.0
 11
17.8733816204
 21
9.0720935154
 31
0.0
  0
LINE
  8
428003-048
  6
CONTINUOUS
 62
         7
  5
256
 10
18.0100021534
 20
9.0875935154
 30
0.0
 11
18.0333816204
 21
9.1030935154
 31
0.0
  0
LINE
  8
428003-048
  6
CONTINUOUS
 62
         7
  5
257
 10
17.8967610874
 20
9.1185935154
 30
0.0
 11
17.8733816204
 21
9.1030935154
 31
0.0
  0
LINE
  8
428003-048
  6
CONTINUOUS
 62
         7
  5
258
 10
18.0100021534
 20
9.1185935154
 30
0.0
 11
18.0333816204
 21
9.1340935154
 31
0.0
  0
LINE
  8
428003-048
  6
CONTINUOUS
 62
         7
  5
259
 10
17.8967610874
 20
9.0255935154
 30
0.0
 11
17.8748899731
 21
9.0110935154
 31
0.0
  0
LINE
  8
428003-048
  6
CONTINUOUS
 62
         7
  5
25A
 10
17.8967610874
 20
9.0565935154
 30
0.0
 11
17.8733816204
 21
9.0410935154
 31
0.0
  0
LINE
  8
428003-048
  6
CONTINUOUS
 62
         7
  5
25B
 10
18.0100021534
 20
9.0255935154
 30
0.0
 11
18.0333816204
 21
9.0410935154
 31
0.0
  0
LINE
  8
428003-048
  6
CONTINUOUS
 62
         7
  5
25C
 10
18.0100021534
 20
9.0565935154
 30
0.0
 11
18.0333816204
 21
9.0720935154
 31
0.0
  0
LINE
  8
428003-048
  6
CONTINUOUS
 62
         7
  5
25D
 10
17.8862026184
 20
9.3285935154
 30
0.0
 11
17.8733816204
 21
9.3200935154
 31
0.0
  0
LINE
  8
428003-048
  6
CONTINUOUS
 62
         7
  5
25E
 10
18.0333816204
 20
9.2890935154
 30
0.0
 11
18.0100021534
 21
9.3045935154
 31
0.0
  0
LINE
  8
428003-048
  6
CONTINUOUS
 62
         7
  5
25F
 10
16.5213044843
 20
9.3045935154
 30
0.0
 11
16.4080634183
 21
9.3045935154
 31
0.0
  0
LINE
  8
428003-048
  6
CONTINUOUS
 62
         7
  5
260
 10
16.5258816204
 20
9.3200935154
 30
0.0
 11
16.3846839513
 21
9.3200935154
 31
0.0
  0
LINE
  8
428003-048
  6
CONTINUOUS
 62
         7
  5
261
 10
16.5213044843
 20
9.3045935154
 30
0.0
 11
16.5258816204
 21
9.3076280418
 31
0.0
  0
LINE
  8
428003-048
  6
CONTINUOUS
 62
         7
  5
262
 10
16.5213044843
 20
9.2735935154
 30
0.0
 11
16.5258816204
 21
9.2766280418
 31
0.0
  0
LINE
  8
428003-048
  6
CONTINUOUS
 62
         7
  5
263
 10
16.4080634183
 20
9.2735935154
 30
0.0
 11
16.3846839513
 21
9.2580935154
 31
0.0
  0
LINE
  8
428003-048
  6
CONTINUOUS
 62
         7
  5
264
 10
16.5213044843
 20
9.2425935154
 30
0.0
 11
16.5446839513
 21
9.2580935154
 31
0.0
  0
LINE
  8
428003-048
  6
CONTINUOUS
 62
         7
  5
265
 10
16.5213044843
 20
9.1805935154
 30
0.0
 11
16.5446839513
 21
9.1960935154
 31
0.0
  0
LINE
  8
428003-048
  6
CONTINUOUS
 62
         7
  5
266
 10
16.4080634183
 20
9.2115935154
 30
0.0
 11
16.3846839513
 21
9.1960935154
 31
0.0
  0
LINE
  8
428003-048
  6
CONTINUOUS
 62
         7
  5
267
 10
16.5213044843
 20
9.2115935154
 30
0.0
 11
16.5446839513
 21
9.2270935154
 31
0.0
  0
LINE
  8
428003-048
  6
CONTINUOUS
 62
         7
  5
268
 10
16.4080634183
 20
9.2425935154
 30
0.0
 11
16.3846839513
 21
9.2270935154
 31
0.0
  0
LINE
  8
428003-048
  6
CONTINUOUS
 62
         7
  5
269
 10
16.4080634183
 20
9.1805935154
 30
0.0
 11
16.3846839513
 21
9.1650935154
 31
0.0
  0
LINE
  8
428003-048
  6
CONTINUOUS
 62
         7
  5
26A
 10
16.4080634183
 20
9.1495935154
 30
0.0
 11
16.3846839513
 21
9.1340935154
 31
0.0
  0
LINE
  8
428003-048
  6
CONTINUOUS
 62
         7
  5
26B
 10
16.5213044843
 20
9.1185935154
 30
0.0
 11
16.5446839513
 21
9.1340935154
 31
0.0
  0
LINE
  8
428003-048
  6
CONTINUOUS
 62
         7
  5
26C
 10
16.5213044843
 20
9.1495935154
 30
0.0
 11
16.5446839513
 21
9.1650935154
 31
0.0
  0
LINE
  8
428003-048
  6
CONTINUOUS
 62
         7
  5
26D
 10
16.4080634183
 20
9.0875935154
 30
0.0
 11
16.3846839513
 21
9.0720935154
 31
0.0
  0
LINE
  8
428003-048
  6
CONTINUOUS
 62
         7
  5
26E
 10
16.5213044843
 20
9.0565935154
 30
0.0
 11
16.5446839513
 21
9.0720935154
 31
0.0
  0
LINE
  8
428003-048
  6
CONTINUOUS
 62
         7
  5
26F
 10
16.4080634183
 20
9.1185935154
 30
0.0
 11
16.3846839513
 21
9.1030935154
 31
0.0
  0
LINE
  8
428003-048
  6
CONTINUOUS
 62
         7
  5
270
 10
16.5213044843
 20
9.0875935154
 30
0.0
 11
16.5446839513
 21
9.1030935154
 31
0.0
  0
LINE
  8
428003-048
  6
CONTINUOUS
 62
         7
  5
271
 10
16.4080634183
 20
9.0255935154
 30
0.0
 11
16.386192304
 21
9.0110935154
 31
0.0
  0
LINE
  8
428003-048
  6
CONTINUOUS
 62
         7
  5
272
 10
16.4080634183
 20
9.0565935154
 30
0.0
 11
16.3846839513
 21
9.0410935154
 31
0.0
  0
LINE
  8
428003-048
  6
CONTINUOUS
 62
         7
  5
273
 10
16.5213044843
 20
9.0255935154
 30
0.0
 11
16.5446839513
 21
9.0410935154
 31
0.0
  0
LINE
  8
428003-048
  6
CONTINUOUS
 62
         7
  5
274
 10
16.3975049493
 20
9.3285935154
 30
0.0
 11
16.3846839513
 21
9.3200935154
 31
0.0
  0
LINE
  8
428003-048
  6
CONTINUOUS
 62
         7
  5
275
 10
16.5258816204
 20
9.301558989
 30
0.0
 11
16.5213044843
 21
9.3045935154
 31
0.0
  0
LINE
  8
428003-048
  6
CONTINUOUS
 62
         7
  5
276
 10
16.3846839513
 20
9.3200935154
 30
0.0
 11
16.4080634183
 21
9.3045935154
 31
0.0
  0
LINE
  8
428003-048
  6
CONTINUOUS
 62
         7
  5
277
 10
16.3846839513
 20
9.2890935154
 30
0.0
 11
16.4080634183
 21
9.2735935154
 31
0.0
  0
LINE
  8
428003-048
  6
CONTINUOUS
 62
         7
  5
278
 10
16.5446839513
 20
9.2580935154
 30
0.0
 11
16.5318629533
 21
9.2665935154
 31
0.0
  0
LINE
  8
428003-048
  6
CONTINUOUS
 62
         7
  5
279
 10
16.5258816204
 20
9.270558989
 30
0.0
 11
16.5213044843
 21
9.2735935154
 31
0.0
  0
LINE
  8
428003-048
  6
CONTINUOUS
 62
         7
  5
27A
 10
16.3846839513
 20
9.2580935154
 30
0.0
 11
16.4080634183
 21
9.2425935154
 31
0.0
  0
LINE
  8
428003-048
  6
CONTINUOUS
 62
         7
  5
27B
 10
16.3846839513
 20
9.1960935154
 30
0.0
 11
16.4080634183
 21
9.1805935154
 31
0.0
  0
LINE
  8
428003-048
  6
CONTINUOUS
 62
         7
  5
27C
 10
16.5446839513
 20
9.1960935154
 30
0.0
 11
16.5213044843
 21
9.2115935154
 31
0.0
  0
LINE
  8
428003-048
  6
CONTINUOUS
 62
         7
  5
27D
 10
16.3846839513
 20
9.2270935154
 30
0.0
 11
16.4080634183
 21
9.2115935154
 31
0.0
  0
LINE
  8
428003-048
  6
CONTINUOUS
 62
         7
  5
27E
 10
16.5446839513
 20
9.2270935154
 30
0.0
 11
16.5213044843
 21
9.2425935154
 31
0.0
  0
LINE
  8
428003-048
  6
CONTINUOUS
 62
         7
  5
27F
 10
16.5446839513
 20
9.1650935154
 30
0.0
 11
16.5213044843
 21
9.1805935154
 31
0.0
  0
LINE
  8
428003-048
  6
CONTINUOUS
 62
         7
  5
280
 10
16.5446839513
 20
9.1340935154
 30
0.0
 11
16.5213044843
 21
9.1495935154
 31
0.0
  0
LINE
  8
428003-048
  6
CONTINUOUS
 62
         7
  5
281
 10
16.3846839513
 20
9.1340935154
 30
0.0
 11
16.4080634183
 21
9.1185935154
 31
0.0
  0
LINE
  8
428003-048
  6
CONTINUOUS
 62
         7
  5
282
 10
16.3846839513
 20
9.1650935154
 30
0.0
 11
16.4080634183
 21
9.1495935154
 31
0.0
  0
LINE
  8
428003-048
  6
CONTINUOUS
 62
         7
  5
283
 10
16.5446839513
 20
9.0720935154
 30
0.0
 11
16.5213044843
 21
9.0875935154
 31
0.0
  0
LINE
  8
428003-048
  6
CONTINUOUS
 62
         7
  5
284
 10
16.3846839513
 20
9.0720935154
 30
0.0
 11
16.4080634183
 21
9.0565935154
 31
0.0
  0
LINE
  8
428003-048
  6
CONTINUOUS
 62
         7
  5
285
 10
16.5446839513
 20
9.1030935154
 30
0.0
 11
16.5213044843
 21
9.1185935154
 31
0.0
  0
LINE
  8
428003-048
  6
CONTINUOUS
 62
         7
  5
286
 10
16.3846839513
 20
9.1030935154
 30
0.0
 11
16.4080634183
 21
9.0875935154
 31
0.0
  0
LINE
  8
428003-048
  6
CONTINUOUS
 62
         7
  5
287
 10
16.5431755986
 20
9.0110935154
 30
0.0
 11
16.5213044843
 21
9.0255935154
 31
0.0
  0
LINE
  8
428003-048
  6
CONTINUOUS
 62
         7
  5
288
 10
16.5446839513
 20
9.0410935154
 30
0.0
 11
16.5213044843
 21
9.0565935154
 31
0.0
  0
LINE
  8
428003-048
  6
CONTINUOUS
 62
         7
  5
289
 10
16.3846839513
 20
9.0410935154
 30
0.0
 11
16.4080634183
 21
9.0255935154
 31
0.0
  0
LINE
  8
428003-048
  6
CONTINUOUS
 62
         7
  5
28A
 10
16.386192304
 20
9.0110935154
 30
0.0
 11
16.5431755986
 21
9.0110935154
 31
0.0
  0
LINE
  8
428003-048
  6
CONTINUOUS
 62
         7
  5
28B
 10
16.4080634183
 20
9.3045935154
 30
0.0
 11
16.3846839513
 21
9.2890935154
 31
0.0
  0
LINE
  8
428003-048
  6
CONTINUOUS
 62
         7
  5
28C
 10
16.5258816204
 20
9.2890935154
 30
0.0
 11
16.3846839513
 21
9.2890935154
 31
0.0
  0
LINE
  8
428003-048
  6
CONTINUOUS
 62
         7
  5
28D
 10
16.5213044843
 20
9.2735935154
 30
0.0
 11
16.4080634183
 21
9.2735935154
 31
0.0
  0
LINE
  8
428003-048
  6
CONTINUOUS
 62
         7
  5
28E
 10
16.5446839513
 20
9.2580935154
 30
0.0
 11
16.3846839513
 21
9.2580935154
 31
0.0
  0
LINE
  8
428003-048
  6
CONTINUOUS
 62
         7
  5
28F
 10
16.5446839513
 20
9.2270935154
 30
0.0
 11
16.3846839513
 21
9.2270935154
 31
0.0
  0
LINE
  8
428003-048
  6
CONTINUOUS
 62
         7
  5
290
 10
16.5213044843
 20
9.2425935154
 30
0.0
 11
16.4080634183
 21
9.2425935154
 31
0.0
  0
LINE
  8
428003-048
  6
CONTINUOUS
 62
         7
  5
291
 10
16.5213044843
 20
9.1805935154
 30
0.0
 11
16.4080634183
 21
9.1805935154
 31
0.0
  0
LINE
  8
428003-048
  6
CONTINUOUS
 62
         7
  5
292
 10
16.5213044843
 20
9.1495935154
 30
0.0
 11
16.4080634183
 21
9.1495935154
 31
0.0
  0
LINE
  8
428003-048
  6
CONTINUOUS
 62
         7
  5
293
 10
16.5446839513
 20
9.1650935154
 30
0.0
 11
16.3846839513
 21
9.1650935154
 31
0.0
  0
LINE
  8
428003-048
  6
CONTINUOUS
 62
         7
  5
294
 10
16.5446839513
 20
9.1960935154
 30
0.0
 11
16.3846839513
 21
9.1960935154
 31
0.0
  0
LINE
  8
428003-048
  6
CONTINUOUS
 62
         7
  5
295
 10
16.5213044843
 20
9.2115935154
 30
0.0
 11
16.4080634183
 21
9.2115935154
 31
0.0
  0
LINE
  8
428003-048
  6
CONTINUOUS
 62
         7
  5
296
 10
16.5446839513
 20
9.0720935154
 30
0.0
 11
16.3846839513
 21
9.0720935154
 31
0.0
  0
LINE
  8
428003-048
  6
CONTINUOUS
 62
         7
  5
297
 10
16.5213044843
 20
9.0565935154
 30
0.0
 11
16.4080634183
 21
9.0565935154
 31
0.0
  0
LINE
  8
428003-048
  6
CONTINUOUS
 62
         7
  5
298
 10
16.5213044843
 20
9.1185935154
 30
0.0
 11
16.4080634183
 21
9.1185935154
 31
0.0
  0
LINE
  8
428003-048
  6
CONTINUOUS
 62
         7
  5
299
 10
16.5446839513
 20
9.1340935154
 30
0.0
 11
16.3846839513
 21
9.1340935154
 31
0.0
  0
LINE
  8
428003-048
  6
CONTINUOUS
 62
         7
  5
29A
 10
16.5213044843
 20
9.0875935154
 30
0.0
 11
16.4080634183
 21
9.0875935154
 31
0.0
  0
LINE
  8
428003-048
  6
CONTINUOUS
 62
         7
  5
29B
 10
16.5446839513
 20
9.1030935154
 30
0.0
 11
16.3846839513
 21
9.1030935154
 31
0.0
  0
LINE
  8
428003-048
  6
CONTINUOUS
 62
         7
  5
29C
 10
16.5213044843
 20
9.0255935154
 30
0.0
 11
16.4080634183
 21
9.0255935154
 31
0.0
  0
LINE
  8
428003-048
  6
CONTINUOUS
 62
         7
  5
29D
 10
16.5446839513
 20
9.0410935154
 30
0.0
 11
16.3846839513
 21
9.0410935154
 31
0.0
  0
LINE
  8
428003-048
  6
CONTINUOUS
 62
         7
  5
29E
 10
19.3808816204
 20
9.3076280418
 30
0.0
 11
19.3854587565
 21
9.3045935154
 31
0.0
  0
LINE
  8
428003-048
  6
CONTINUOUS
 62
         7
  5
29F
 10
19.3808816204
 20
9.2766280418
 30
0.0
 11
19.3854587565
 21
9.2735935154
 31
0.0
  0
LINE
  8
428003-048
  6
CONTINUOUS
 62
         7
  5
2A0
 10
19.3620792895
 20
9.2580935154
 30
0.0
 11
19.3854587565
 21
9.2425935154
 31
0.0
  0
LINE
  8
428003-048
  6
CONTINUOUS
 62
         7
  5
2A1
 10
19.5220792895
 20
9.2580935154
 30
0.0
 11
19.4986998225
 21
9.2735935154
 31
0.0
  0
LINE
  8
428003-048
  6
CONTINUOUS
 62
         7
  5
2A2
 10
19.5220792895
 20
9.2270935154
 30
0.0
 11
19.4986998225
 21
9.2425935154
 31
0.0
  0
LINE
  8
428003-048
  6
CONTINUOUS
 62
         7
  5
2A3
 10
19.5220792895
 20
9.1960935154
 30
0.0
 11
19.4986998225
 21
9.2115935154
 31
0.0
  0
LINE
  8
428003-048
  6
CONTINUOUS
 62
         7
  5
2A4
 10
19.3620792895
 20
9.1960935154
 30
0.0
 11
19.3854587565
 21
9.1805935154
 31
0.0
  0
LINE
  8
428003-048
  6
CONTINUOUS
 62
         7
  5
2A5
 10
19.5220792895
 20
9.1650935154
 30
0.0
 11
19.4986998225
 21
9.1805935154
 31
0.0
  0
LINE
  8
428003-048
  6
CONTINUOUS
 62
         7
  5
2A6
 10
19.3620792895
 20
9.2270935154
 30
0.0
 11
19.3854587565
 21
9.2115935154
 31
0.0
  0
LINE
  8
428003-048
  6
CONTINUOUS
 62
         7
  5
2A7
 10
19.3620792895
 20
9.1340935154
 30
0.0
 11
19.3854587565
 21
9.1185935154
 31
0.0
  0
LINE
  8
428003-048
  6
CONTINUOUS
 62
         7
  5
2A8
 10
19.5220792895
 20
9.1340935154
 30
0.0
 11
19.4986998225
 21
9.1495935154
 31
0.0
  0
LINE
  8
428003-048
  6
CONTINUOUS
 62
         7
  5
2A9
 10
19.5220792895
 20
9.1030935154
 30
0.0
 11
19.4986998225
 21
9.1185935154
 31
0.0
  0
LINE
  8
428003-048
  6
CONTINUOUS
 62
         7
  5
2AA
 10
19.3620792895
 20
9.1650935154
 30
0.0
 11
19.3854587565
 21
9.1495935154
 31
0.0
  0
LINE
  8
428003-048
  6
CONTINUOUS
 62
         7
  5
2AB
 10
19.3620792895
 20
9.0720935154
 30
0.0
 11
19.3854587565
 21
9.0565935154
 31
0.0
  0
LINE
  8
428003-048
  6
CONTINUOUS
 62
         7
  5
2AC
 10
19.5220792895
 20
9.0720935154
 30
0.0
 11
19.4986998225
 21
9.0875935154
 31
0.0
  0
LINE
  8
428003-048
  6
CONTINUOUS
 62
         7
  5
2AD
 10
19.3620792895
 20
9.1030935154
 30
0.0
 11
19.3854587565
 21
9.0875935154
 31
0.0
  0
LINE
  8
428003-048
  6
CONTINUOUS
 62
         7
  5
2AE
 10
19.5220792895
 20
9.0410935154
 30
0.0
 11
19.4986998225
 21
9.0565935154
 31
0.0
  0
LINE
  8
428003-048
  6
CONTINUOUS
 62
         7
  5
2AF
 10
19.5205709368
 20
9.0110935154
 30
0.0
 11
19.4986998225
 21
9.0255935154
 31
0.0
  0
LINE
  8
428003-048
  6
CONTINUOUS
 62
         7
  5
2B0
 10
19.3620792895
 20
9.0410935154
 30
0.0
 11
19.3854587565
 21
9.0255935154
 31
0.0
  0
LINE
  8
428003-048
  6
CONTINUOUS
 62
         7
  5
2B1
 10
19.5220792895
 20
9.3200935154
 30
0.0
 11
19.5092582915
 21
9.3285935154
 31
0.0
  0
LINE
  8
428003-048
  6
CONTINUOUS
 62
         7
  5
2B2
 10
19.3635876422
 20
9.0110935154
 30
0.0
 11
19.5205709368
 21
9.0110935154
 31
0.0
  0
LINE
  8
428003-048
  6
CONTINUOUS
 62
         7
  5
2B3
 10
19.3854587565
 20
9.3045935154
 30
0.0
 11
19.3808816204
 21
9.301558989
 31
0.0
  0
LINE
  8
428003-048
  6
CONTINUOUS
 62
         7
  5
2B4
 10
19.5220792895
 20
9.2890935154
 30
0.0
 11
19.3808816204
 21
9.2890935154
 31
0.0
  0
LINE
  8
428003-048
  6
CONTINUOUS
 62
         7
  5
2B5
 10
19.5220792895
 20
9.2580935154
 30
0.0
 11
19.3620792895
 21
9.2580935154
 31
0.0
  0
LINE
  8
428003-048
  6
CONTINUOUS
 62
         7
  5
2B6
 10
19.4986998225
 20
9.2425935154
 30
0.0
 11
19.3854587565
 21
9.2425935154
 31
0.0
  0
LINE
  8
428003-048
  6
CONTINUOUS
 62
         7
  5
2B7
 10
19.4986998225
 20
9.2735935154
 30
0.0
 11
19.3854587565
 21
9.2735935154
 31
0.0
  0
LINE
  8
428003-048
  6
CONTINUOUS
 62
         7
  5
2B8
 10
19.4986998225
 20
9.2115935154
 30
0.0
 11
19.3854587565
 21
9.2115935154
 31
0.0
  0
LINE
  8
428003-048
  6
CONTINUOUS
 62
         7
  5
2B9
 10
19.5220792895
 20
9.2270935154
 30
0.0
 11
19.3620792895
 21
9.2270935154
 31
0.0
  0
LINE
  8
428003-048
  6
CONTINUOUS
 62
         7
  5
2BA
 10
19.5220792895
 20
9.1960935154
 30
0.0
 11
19.3620792895
 21
9.1960935154
 31
0.0
  0
LINE
  8
428003-048
  6
CONTINUOUS
 62
         7
  5
2BB
 10
19.5220792895
 20
9.1340935154
 30
0.0
 11
19.3620792895
 21
9.1340935154
 31
0.0
  0
LINE
  8
428003-048
  6
CONTINUOUS
 62
         7
  5
2BC
 10
19.4986998225
 20
9.1805935154
 30
0.0
 11
19.3854587565
 21
9.1805935154
 31
0.0
  0
LINE
  8
428003-048
  6
CONTINUOUS
 62
         7
  5
2BD
 10
19.4986998225
 20
9.1495935154
 30
0.0
 11
19.3854587565
 21
9.1495935154
 31
0.0
  0
LINE
  8
428003-048
  6
CONTINUOUS
 62
         7
  5
2BE
 10
19.5220792895
 20
9.1650935154
 30
0.0
 11
19.3620792895
 21
9.1650935154
 31
0.0
  0
LINE
  8
428003-048
  6
CONTINUOUS
 62
         7
  5
2BF
 10
19.5220792895
 20
9.0720935154
 30
0.0
 11
19.3620792895
 21
9.0720935154
 31
0.0
  0
LINE
  8
428003-048
  6
CONTINUOUS
 62
         7
  5
2C0
 10
19.4986998225
 20
9.0875935154
 30
0.0
 11
19.3854587565
 21
9.0875935154
 31
0.0
  0
LINE
  8
428003-048
  6
CONTINUOUS
 62
         7
  5
2C1
 10
19.5220792895
 20
9.1030935154
 30
0.0
 11
19.3620792895
 21
9.1030935154
 31
0.0
  0
LINE
  8
428003-048
  6
CONTINUOUS
 62
         7
  5
2C2
 10
19.4986998225
 20
9.1185935154
 30
0.0
 11
19.3854587565
 21
9.1185935154
 31
0.0
  0
LINE
  8
428003-048
  6
CONTINUOUS
 62
         7
  5
2C3
 10
19.4986998225
 20
9.0565935154
 30
0.0
 11
19.3854587565
 21
9.0565935154
 31
0.0
  0
LINE
  8
428003-048
  6
CONTINUOUS
 62
         7
  5
2C4
 10
19.5220792895
 20
9.0410935154
 30
0.0
 11
19.3620792895
 21
9.0410935154
 31
0.0
  0
LINE
  8
428003-048
  6
CONTINUOUS
 62
         7
  5
2C5
 10
19.4986998225
 20
9.0255935154
 30
0.0
 11
19.3854587565
 21
9.0255935154
 31
0.0
  0
LINE
  8
428003-048
  6
CONTINUOUS
 62
         7
  5
2C6
 10
19.5220792895
 20
9.3200935154
 30
0.0
 11
19.3808816204
 21
9.3200935154
 31
0.0
  0
LINE
  8
428003-048
  6
CONTINUOUS
 62
         7
  5
2C7
 10
19.4986998225
 20
9.3045935154
 30
0.0
 11
19.3854587565
 21
9.3045935154
 31
0.0
  0
LINE
  8
428003-048
  6
CONTINUOUS
 62
         7
  5
2C8
 10
19.4986998225
 20
9.3045935154
 30
0.0
 11
19.5220792895
 21
9.3200935154
 31
0.0
  0
LINE
  8
428003-048
  6
CONTINUOUS
 62
         7
  5
2C9
 10
19.4986998225
 20
9.2735935154
 30
0.0
 11
19.5220792895
 21
9.2890935154
 31
0.0
  0
LINE
  8
428003-048
  6
CONTINUOUS
 62
         7
  5
2CA
 10
19.4986998225
 20
9.2425935154
 30
0.0
 11
19.5220792895
 21
9.2580935154
 31
0.0
  0
LINE
  8
428003-048
  6
CONTINUOUS
 62
         7
  5
2CB
 10
19.3854587565
 20
9.2735935154
 30
0.0
 11
19.3808816204
 21
9.270558989
 31
0.0
  0
LINE
  8
428003-048
  6
CONTINUOUS
 62
         7
  5
2CC
 10
19.3749002876
 20
9.2665935154
 30
0.0
 11
19.3620792895
 21
9.2580935154
 31
0.0
  0
LINE
  8
428003-048
  6
CONTINUOUS
 62
         7
  5
2CD
 10
19.3854587565
 20
9.2425935154
 30
0.0
 11
19.3620792895
 21
9.2270935154
 31
0.0
  0
LINE
  8
428003-048
  6
CONTINUOUS
 62
         7
  5
2CE
 10
19.3854587565
 20
9.2115935154
 30
0.0
 11
19.3620792895
 21
9.1960935154
 31
0.0
  0
LINE
  8
428003-048
  6
CONTINUOUS
 62
         7
  5
2CF
 10
19.4986998225
 20
9.1805935154
 30
0.0
 11
19.5220792895
 21
9.1960935154
 31
0.0
  0
LINE
  8
428003-048
  6
CONTINUOUS
 62
         7
  5
2D0
 10
19.3854587565
 20
9.1805935154
 30
0.0
 11
19.3620792895
 21
9.1650935154
 31
0.0
  0
LINE
  8
428003-048
  6
CONTINUOUS
 62
         7
  5
2D1
 10
19.4986998225
 20
9.2115935154
 30
0.0
 11
19.5220792895
 21
9.2270935154
 31
0.0
  0
LINE
  8
428003-048
  6
CONTINUOUS
 62
         7
  5
2D2
 10
19.4986998225
 20
9.1185935154
 30
0.0
 11
19.5220792895
 21
9.1340935154
 31
0.0
  0
LINE
  8
428003-048
  6
CONTINUOUS
 62
         7
  5
2D3
 10
19.3854587565
 20
9.1495935154
 30
0.0
 11
19.3620792895
 21
9.1340935154
 31
0.0
  0
LINE
  8
428003-048
  6
CONTINUOUS
 62
         7
  5
2D4
 10
19.3854587565
 20
9.1185935154
 30
0.0
 11
19.3620792895
 21
9.1030935154
 31
0.0
  0
LINE
  8
428003-048
  6
CONTINUOUS
 62
         7
  5
2D5
 10
19.4986998225
 20
9.1495935154
 30
0.0
 11
19.5220792895
 21
9.1650935154
 31
0.0
  0
LINE
  8
428003-048
  6
CONTINUOUS
 62
         7
  5
2D6
 10
19.4986998225
 20
9.0565935154
 30
0.0
 11
19.5220792895
 21
9.0720935154
 31
0.0
  0
LINE
  8
428003-048
  6
CONTINUOUS
 62
         7
  5
2D7
 10
19.3854587565
 20
9.0875935154
 30
0.0
 11
19.3620792895
 21
9.0720935154
 31
0.0
  0
LINE
  8
428003-048
  6
CONTINUOUS
 62
         7
  5
2D8
 10
19.4986998225
 20
9.0875935154
 30
0.0
 11
19.5220792895
 21
9.1030935154
 31
0.0
  0
LINE
  8
428003-048
  6
CONTINUOUS
 62
         7
  5
2D9
 10
19.3854587565
 20
9.0565935154
 30
0.0
 11
19.3620792895
 21
9.0410935154
 31
0.0
  0
LINE
  8
428003-048
  6
CONTINUOUS
 62
         7
  5
2DA
 10
19.3854587565
 20
9.0255935154
 30
0.0
 11
19.3635876422
 21
9.0110935154
 31
0.0
  0
LINE
  8
428003-048
  6
CONTINUOUS
 62
         7
  5
2DB
 10
19.4986998225
 20
9.0255935154
 30
0.0
 11
19.5220792895
 21
9.0410935154
 31
0.0
  0
LINE
  8
428003-048
  6
CONTINUOUS
 62
         7
  5
2DC
 10
19.5220792895
 20
9.2890935154
 30
0.0
 11
19.4986998225
 21
9.3045935154
 31
0.0
  0
ENDBLK
  8
428003-048
  6
CONTINUOUS
 62
         7
  5
2DD
  0
BLOCK
  8
0
 62
         1
 48
0.0
  5
2DE
  2
*X5
 70
         1
 10
0.0
 20
0.0
 30
0.0
  3
*X5
  0
INSERT
  8
0
 62
         0
 48
0.0
  5
2DF
  2
*X4
 10
0.0
 20
0.0
 30
0.0
  0
ENDBLK
  8
0
 62
         0
 48
0.0
  5
2E0
  0
BLOCK
  8
0
 62
         1
 48
0.0
  5
2E1
  2
*X6
 70
         1
 10
0.0
 20
0.0
 30
0.0
  3
*X6
  0
LINE
  8
83762X1
  6
CONTINUOUS
 62
         7
  5
2E2
 10
15.6416216893
 20
15.6555592698
 30
0.0
 11
15.6416216893
 21
15.5796250878
 31
0.0
  0
LINE
  8
83762X1
  6
CONTINUOUS
 62
         7
  5
2E3
 10
16.6833159116
 20
15.75422288
 30
0.0
 11
16.6833159116
 21
15.754288973
 31
0.0
  0
LINE
  8
83762X1
  6
CONTINUOUS
 62
         7
  5
2E4
 10
17.5956168273
 20
16.2810061522
 30
0.0
 11
17.5956168273
 21
16.2809191171
 31
0.0
  0
LINE
  8
83762X1
  6
CONTINUOUS
 62
         7
  5
2E5
 10
17.4346328873
 20
16.0776574503
 30
0.0
 11
17.4346328873
 21
16.0819248848
 31
0.0
  0
LINE
  8
83762X1
  6
CONTINUOUS
 62
         7
  5
2E6
 10
17.0281347815
 20
15.8472330941
 30
0.0
 11
17.0281347815
 21
15.8463116673
 31
0.0
  0
POLYLINE
  8
83762X1
  6
CONTINUOUS
 62
         7
  5
2E7
 66
         1
 10
0.0
 20
0.0
 30
0.0
  0
VERTEX
  8
83762X1
  6
CONTINUOUS
 62
         7
  5
2E8
 10
17.0281347815
 20
15.8472330941
 30
0.0
  0
VERTEX
  8
83762X1
  6
CONTINUOUS
 62
         7
  5
2E9
 10
17.039362285
 20
15.8825794156
 30
0.0
  0
VERTEX
  8
83762X1
  6
CONTINUOUS
 62
         7
  5
2EA
 10
17.0347487443
 20
15.9209124239
 30
0.0
  0
VERTEX
  8
83762X1
  6
CONTINUOUS
 62
         7
  5
2EB
 10
17.0121977899
 20
15.9585258174
 30
0.0
  0
VERTEX
  8
83762X1
  6
CONTINUOUS
 62
         7
  5
2EC
 10
16.97316979
 20
15.9913367043
 30
0.0
  0
VERTEX
  8
83762X1
  6
CONTINUOUS
 62
         7
  5
2ED
 10
16.9224875812
 20
16.0162422393
 30
0.0
  0
VERTEX
  8
83762X1
  6
CONTINUOUS
 62
         7
  5
2EE
 10
16.8665611857
 20
16.0320154495
 30
0.0
  0
VERTEX
  8
83762X1
  6
CONTINUOUS
 62
         7
  5
2EF
 10
16.8057132718
 20
16.0395801822
 30
0.0
  0
VERTEX
  8
83762X1
  6
CONTINUOUS
 62
         7
  5
2F0
 10
16.7392081805
 20
16.0380951282
 30
0.0
  0
VERTEX
  8
83762X1
  6
CONTINUOUS
 62
         7
  5
2F1
 10
16.6733980002
 20
16.0262366878
 30
0.0
  0
VERTEX
  8
83762X1
  6
CONTINUOUS
 62
         7
  5
2F2
 10
16.6153960232
 20
16.0047222095
 30
0.0
  0
VERTEX
  8
83762X1
  6
CONTINUOUS
 62
         7
  5
2F3
 10
16.570722123
 20
15.9762395483
 30
0.0
  0
VERTEX
  8
83762X1
  6
CONTINUOUS
 62
         7
  5
2F4
 10
16.5416973473
 20
15.9444501026
 30
0.0
  0
VERTEX
  8
83762X1
  6
CONTINUOUS
 62
         7
  5
2F5
 10
16.5267322101
 20
15.909568451
 30
0.0
  0
VERTEX
  8
83762X1
  6
CONTINUOUS
 62
         7
  5
2F6
 10
16.5272606203
 20
15.8711442221
 30
0.0
  0
VERTEX
  8
83762X1
  6
CONTINUOUS
 62
         7
  5
2F7
 10
16.5457691296
 20
15.832802414
 30
0.0
  0
VERTEX
  8
83762X1
  6
CONTINUOUS
 62
         7
  5
2F8
 10
16.5812343098
 20
15.7986699824
 30
0.0
  0
VERTEX
  8
83762X1
  6
CONTINUOUS
 62
         7
  5
2F9
 10
16.6291723872
 20
15.7720148762
 30
0.0
  0
VERTEX
  8
83762X1
  6
CONTINUOUS
 62
         7
  5
2FA
 10
16.6833159116
 20
15.754288973
 30
0.0
  0
SEQEND
  8
83762X1
  6
CONTINUOUS
 62
         7
  5
2FB
  0
POLYLINE
  8
83762X1
  6
CONTINUOUS
 62
         7
  5
2FC
 66
         1
 10
0.0
 20
0.0
 30
0.0
  0
VERTEX
  8
83762X1
  6
CONTINUOUS
 62
         7
  5
2FD
 10
16.6833159116
 20
15.754288973
 30
0.0
  0
VERTEX
  8
83762X1
  6
CONTINUOUS
 62
         7
  5
2FE
 10
16.5887845406
 20
15.7062841297
 30
0.0
  0
VERTEX
  8
83762X1
  6
CONTINUOUS
 62
         7
  5
2FF
 10
16.5044014347
 20
15.6491768876
 30
0.0
  0
VERTEX
  8
83762X1
  6
CONTINUOUS
 62
         7
  5
300
 10
16.4338799227
 20
15.5841294615
 30
0.0
  0
VERTEX
  8
83762X1
  6
CONTINUOUS
 62
         7
  5
301
 10
16.3803269722
 20
15.5129498501
 30
0.0
  0
VERTEX
  8
83762X1
  6
CONTINUOUS
 62
         7
  5
302
 10
16.3458415058
 20
15.4379425564
 30
0.0
  0
VERTEX
  8
83762X1
  6
CONTINUOUS
 62
         7
  5
303
 10
16.3312536783
 20
15.3616667807
 30
0.0
  0
VERTEX
  8
83762X1
  6
CONTINUOUS
 62
         7
  5
304
 10
16.3360695237
 20
15.2866533874
 30
0.0
  0
VERTEX
  8
83762X1
  6
CONTINUOUS
 62
         7
  5
305
 10
16.3586255827
 20
15.2151439493
 30
0.0
  0
SEQEND
  8
83762X1
  6
CONTINUOUS
 62
         7
  5
306
  0
POLYLINE
  8
83762X1
  6
CONTINUOUS
 62
         7
  5
307
 66
         1
 10
0.0
 20
0.0
 30
0.0
  0
VERTEX
  8
83762X1
  6
CONTINUOUS
 62
         7
  5
308
 10
17.3664564573
 20
15.8535461031
 30
0.0
  0
VERTEX
  8
83762X1
  6
CONTINUOUS
 62
         7
  5
309
 10
17.2536751809
 20
15.8597250611
 30
0.0
  0
VERTEX
  8
83762X1
  6
CONTINUOUS
 62
         7
  5
30A
 10
17.1399896234
 20
15.8576037133
 30
0.0
  0
VERTEX
  8
83762X1
  6
CONTINUOUS
 62
         7
  5
30B
 10
17.0281347815
 20
15.8472330941
 30
0.0
  0
SEQEND
  8
83762X1
  6
CONTINUOUS
 62
         7
  5
30C
  0
POLYLINE
  8
83762X1
  6
CONTINUOUS
 62
         7
  5
30D
 66
         1
 10
0.0
 20
0.0
 30
0.0
  0
VERTEX
  8
83762X1
  6
CONTINUOUS
 62
         7
  5
30E
 10
18.0175515491
 20
15.1024365573
 30
0.0
  0
VERTEX
  8
83762X1
  6
CONTINUOUS
 62
         7
  5
30F
 10
18.0572686795
 20
15.1522051906
 30
0.0
  0
VERTEX
  8
83762X1
  6
CONTINUOUS
 62
         7
  5
310
 10
18.0879295166
 20
15.2047341099
 30
0.0
  0
VERTEX
  8
83762X1
  6
CONTINUOUS
 62
         7
  5
311
 10
18.1087591459
 20
15.2591758363
 30
0.0
  0
VERTEX
  8
83762X1
  6
CONTINUOUS
 62
         7
  5
312
 10
18.1193079763
 20
15.3145963509
 30
0.0
  0
VERTEX
  8
83762X1
  6
CONTINUOUS
 62
         7
  5
313
 10
18.1194823775
 20
15.3700277458
 30
0.0
  0
VERTEX
  8
83762X1
  6
CONTINUOUS
 62
         7
  5
314
 10
18.1095449438
 20
15.4245237654
 30
0.0
  0
SEQEND
  8
83762X1
  6
CONTINUOUS
 62
         7
  5
315
  0
POLYLINE
  8
83762X1
  6
CONTINUOUS
 62
         7
  5
316
 66
         1
 10
0.0
 20
0.0
 30
0.0
  0
VERTEX
  8
83762X1
  6
CONTINUOUS
 62
         7
  5
317
 10
17.0037999777
 20
14.8426523386
 30
0.0
  0
VERTEX
  8
83762X1
  6
CONTINUOUS
 62
         7
  5
318
 10
17.1100933837
 20
14.8308485802
 30
0.0
  0
VERTEX
  8
83762X1
  6
CONTINUOUS
 62
         7
  5
319
 10
17.219724771
 20
14.8265322949
 30
0.0
  0
VERTEX
  8
83762X1
  6
CONTINUOUS
 62
         7
  5
31A
 10
17.3302828466
 20
14.830061808
 30
0.0
  0
VERTEX
  8
83762X1
  6
CONTINUOUS
 62
         7
  5
31B
 10
17.4392399512
 20
14.8414461512
 30
0.0
  0
VERTEX
  8
83762X1
  6
CONTINUOUS
 62
         7
  5
31C
 10
17.5441411047
 20
14.8603377724
 30
0.0
  0
VERTEX
  8
83762X1
  6
CONTINUOUS
 62
         7
  5
31D
 10
17.6427849551
 20
14.8860649633
 30
0.0
  0
SEQEND
  8
83762X1
  6
CONTINUOUS
 62
         7
  5
31E
  0
LINE
  8
83762X1
  6
CONTINUOUS
 62
         7
  5
31F
 10
16.3586255827
 20
15.2151439493
 30
0.0
 11
16.5559630297
 21
15.1012111211
 31
0.0
  0
LINE
  8
83762X1
  6
CONTINUOUS
 62
         7
  5
320
 10
16.8064625307
 20
14.9565851668
 30
0.0
 11
17.0037999777
 21
14.8426523386
 31
0.0
  0
POLYLINE
  8
83762X1
  6
CONTINUOUS
 62
         7
  5
321
 66
         1
 10
0.0
 20
0.0
 30
0.0
  0
VERTEX
  8
83762X1
  6
CONTINUOUS
 62
         7
  5
322
 10
18.1089225942
 20
15.3719094761
 30
0.0
  0
VERTEX
  8
83762X1
  6
CONTINUOUS
 62
         7
  5
323
 10
18.1090784245
 20
15.3696321429
 30
0.0
  0
VERTEX
  8
83762X1
  6
CONTINUOUS
 62
         7
  5
324
 10
18.1095449438
 20
15.3673690047
 30
0.0
  0
SEQEND
  8
83762X1
  6
CONTINUOUS
 62
         7
  5
325
  0
LINE
  8
83762X1
  6
CONTINUOUS
 62
         7
  5
326
 10
18.1095449438
 20
15.4245237654
 30
0.0
 11
18.1095449438
 21
15.3673690047
 31
0.0
  0
LINE
  8
83762X1
  6
CONTINUOUS
 62
         7
  5
327
 10
18.0175515491
 20
15.1024365573
 30
0.0
 11
18.0175515491
 21
15.0942715914
 31
0.0
  0
POLYLINE
  8
83762X1
  6
CONTINUOUS
 62
         7
  5
328
 66
         1
 10
0.0
 20
0.0
 30
0.0
  0
VERTEX
  8
83762X1
  6
CONTINUOUS
 62
         7
  5
329
 10
18.1667869214
 20
15.4575724365
 30
0.0
  0
VERTEX
  8
83762X1
  6
CONTINUOUS
 62
         7
  5
32A
 10
18.1448179223
 20
15.456759352
 30
0.0
  0
VERTEX
  8
83762X1
  6
CONTINUOUS
 62
         7
  5
32B
 10
18.1235672552
 20
15.4494766513
 30
0.0
  0
VERTEX
  8
83762X1
  6
CONTINUOUS
 62
         7
  5
32C
 10
18.1109532475
 20
15.4372075729
 30
0.0
  0
VERTEX
  8
83762X1
  6
CONTINUOUS
 62
         7
  5
32D
 10
18.1095449438
 20
15.4245237654
 30
0.0
  0
SEQEND
  8
83762X1
  6
CONTINUOUS
 62
         7
  5
32E
  0
LINE
  8
83762X1
  6
CONTINUOUS
 62
         7
  5
32F
 10
19.4488287218
 20
15.5008331677
 30
0.0
 11
19.4488287218
 21
15.5253280652
 31
0.0
  0
POLYLINE
  8
83762X1
  6
CONTINUOUS
 62
         7
  5
330
 66
         1
 10
0.0
 20
0.0
 30
0.0
  0
VERTEX
  8
83762X1
  6
CONTINUOUS
 62
         7
  5
331
 10
17.9921887525
 20
14.6843365868
 30
0.0
  0
VERTEX
  8
83762X1
  6
CONTINUOUS
 62
         7
  5
332
 10
18.013401956
 20
14.6792635274
 30
0.0
  0
VERTEX
  8
83762X1
  6
CONTINUOUS
 62
         7
  5
333
 10
18.0346151594
 20
14.6843365868
 30
0.0
  0
SEQEND
  8
83762X1
  6
CONTINUOUS
 62
         7
  5
334
  0
POLYLINE
  8
83762X1
  6
CONTINUOUS
 62
         7
  5
335
 66
         1
 10
0.0
 20
0.0
 30
0.0
  0
VERTEX
  8
83762X1
  6
CONTINUOUS
 62
         7
  5
336
 10
19.4488287218
 20
15.5008331677
 30
0.0
  0
VERTEX
  8
83762X1
  6
CONTINUOUS
 62
         7
  5
337
 10
19.4564930966
 20
15.5083871646
 30
0.0
  0
VERTEX
  8
83762X1
  6
CONTINUOUS
 62
         7
  5
338
 10
19.4564930966
 20
15.5177740683
 30
0.0
  0
VERTEX
  8
83762X1
  6
CONTINUOUS
 62
         7
  5
339
 10
19.4488287218
 20
15.5253280652
 30
0.0
  0
SEQEND
  8
83762X1
  6
CONTINUOUS
 62
         7
  5
33A
  0
POLYLINE
  8
83762X1
  6
CONTINUOUS
 62
         7
  5
33B
 66
         1
 10
0.0
 20
0.0
 30
0.0
  0
VERTEX
  8
83762X1
  6
CONTINUOUS
 62
         7
  5
33C
 10
19.0740621277
 20
15.3089564712
 30
0.0
  0
VERTEX
  8
83762X1
  6
CONTINUOUS
 62
         7
  5
33D
 10
19.0952753312
 20
15.3038834119
 30
0.0
  0
VERTEX
  8
83762X1
  6
CONTINUOUS
 62
         7
  5
33E
 10
19.1164885346
 20
15.3089564712
 30
0.0
  0
SEQEND
  8
83762X1
  6
CONTINUOUS
 62
         7
  5
33F
  0
LINE
  8
83762X1
  6
CONTINUOUS
 62
         7
  5
340
 10
18.3669553465
 20
14.8762132833
 30
0.0
 11
18.3669553465
 21
14.9007081808
 31
0.0
  0
POLYLINE
  8
83762X1
  6
CONTINUOUS
 62
         7
  5
341
 66
         1
 10
0.0
 20
0.0
 30
0.0
  0
VERTEX
  8
83762X1
  6
CONTINUOUS
 62
         7
  5
342
 10
18.3669553465
 20
14.8762132833
 30
0.0
  0
VERTEX
  8
83762X1
  6
CONTINUOUS
 62
         7
  5
343
 10
18.3746197214
 20
14.8837672801
 30
0.0
  0
VERTEX
  8
83762X1
  6
CONTINUOUS
 62
         7
  5
344
 10
18.3746197214
 20
14.8931541839
 30
0.0
  0
VERTEX
  8
83762X1
  6
CONTINUOUS
 62
         7
  5
345
 10
18.3669553465
 20
14.9007081808
 30
0.0
  0
SEQEND
  8
83762X1
  6
CONTINUOUS
 62
         7
  5
346
  0
LINE
  8
83762X1
  6
CONTINUOUS
 62
         7
  5
348
 10
17.3664564573
 20
15.8511067564
 30
0.0
 11
17.3664564573
 21
15.8535461031
 31
0.0
  0
POLYLINE
  8
83762X1
  6
CONTINUOUS
 62
         7
  5
349
 66
         1
 10
0.0
 20
0.0
 30
0.0
  0
VERTEX
  8
83762X1
  6
CONTINUOUS
 62
         7
  5
34A
 10
17.4159408165
 20
15.9555962438
 30
0.0
  0
VERTEX
  8
83762X1
  6
CONTINUOUS
 62
         7
  5
34B
 10
17.4148228059
 20
15.9474486328
 30
0.0
  0
VERTEX
  8
83762X1
  6
CONTINUOUS
 62
         7
  5
34C
 10
17.4139281402
 20
15.9392918317
 30
0.0
  0
SEQEND
  8
83762X1
  6
CONTINUOUS
 62
         7
  5
34D
  0
POLYLINE
  8
83762X1
  6
CONTINUOUS
 62
         7
  5
34E
 66
         1
 10
0.0
 20
0.0
 30
0.0
  0
VERTEX
  8
83762X1
  6
CONTINUOUS
 62
         7
  5
34F
 10
17.3664564573
 20
15.8535461031
 30
0.0
  0
VERTEX
  8
83762X1
  6
CONTINUOUS
 62
         7
  5
350
 10
17.3884254563
 20
15.8543591876
 30
0.0
  0
VERTEX
  8
83762X1
  6
CONTINUOUS
 62
         7
  5
351
 10
17.4096761235
 20
15.8616418884
 30
0.0
  0
VERTEX
  8
83762X1
  6
CONTINUOUS
 62
         7
  5
352
 10
17.4222901312
 20
15.8739109667
 30
0.0
  0
VERTEX
  8
83762X1
  6
CONTINUOUS
 62
         7
  5
353
 10
17.4236984348
 20
15.8865947743
 30
0.0
  0
SEQEND
  8
83762X1
  6
CONTINUOUS
 62
         7
  5
354
  0
POLYLINE
  8
83762X1
  6
CONTINUOUS
 62
         7
  5
355
 66
         1
 10
0.0
 20
0.0
 30
0.0
  0
VERTEX
  8
83762X1
  6
CONTINUOUS
 62
         7
  5
356
 10
17.4346328873
 20
16.0819248848
 30
0.0
  0
VERTEX
  8
83762X1
  6
CONTINUOUS
 62
         7
  5
357
 10
17.419840228
 20
16.0336503848
 30
0.0
  0
VERTEX
  8
83762X1
  6
CONTINUOUS
 62
         7
  5
358
 10
17.4130254528
 20
15.9845610023
 30
0.0
  0
VERTEX
  8
83762X1
  6
CONTINUOUS
 62
         7
  5
359
 10
17.4143357575
 20
15.9353200077
 30
0.0
  0
VERTEX
  8
83762X1
  6
CONTINUOUS
 62
         7
  5
35A
 10
17.4236984348
 20
15.8865947743
 30
0.0
  0
SEQEND
  8
83762X1
  6
CONTINUOUS
 62
         7
  5
35B
  0
POLYLINE
  8
83762X1
  6
CONTINUOUS
 62
         7
  5
35C
 66
         1
 10
0.0
 20
0.0
 30
0.0
  0
VERTEX
  8
83762X1
  6
CONTINUOUS
 62
         7
  5
35D
 10
16.3340674413
 20
15.3309763594
 30
0.0
  0
VERTEX
  8
83762X1
  6
CONTINUOUS
 62
         7
  5
35E
 10
16.3329494307
 20
15.3228287484
 30
0.0
  0
VERTEX
  8
83762X1
  6
CONTINUOUS
 62
         7
  5
35F
 10
16.332054765
 20
15.3146719473
 30
0.0
  0
SEQEND
  8
83762X1
  6
CONTINUOUS
 62
         7
  5
360
  0
POLYLINE
  8
83762X1
  6
CONTINUOUS
 62
         7
  5
361
 66
         1
 10
0.0
 20
0.0
 30
0.0
  0
VERTEX
  8
83762X1
  6
CONTINUOUS
 62
         7
  5
362
 10
18.1193152384
 20
15.3146719473
 30
0.0
  0
VERTEX
  8
83762X1
  6
CONTINUOUS
 62
         7
  5
363
 10
18.1156010477
 20
15.341092843
 30
0.0
  0
VERTEX
  8
83762X1
  6
CONTINUOUS
 62
         7
  5
364
 10
18.1095449438
 20
15.3673690047
 30
0.0
  0
SEQEND
  8
83762X1
  6
CONTINUOUS
 62
         7
  5
365
  0
POLYLINE
  8
83762X1
  6
CONTINUOUS
 62
         7
  5
366
 66
         1
 10
0.0
 20
0.0
 30
0.0
 70
         1
  0
VERTEX
  8
83762X1
  6
CONTINUOUS
 62
         7
  5
367
 10
15.6416216893
 20
15.6555592698
 30
0.0
  0
VERTEX
  8
83762X1
  6
CONTINUOUS
 62
         7
  5
368
 10
15.6548478304
 20
15.5188891453
 30
0.0
  0
VERTEX
  8
83762X1
  6
CONTINUOUS
 62
         7
  5
369
 10
15.697542742
 20
15.3759540067
 30
0.0
  0
VERTEX
  8
83762X1
  6
CONTINUOUS
 62
         7
  5
36A
 10
15.7738221502
 20
15.2295800071
 30
0.0
  0
VERTEX
  8
83762X1
  6
CONTINUOUS
 62
         7
  5
36B
 10
15.886813997
 20
15.0834438852
 30
0.0
  0
VERTEX
  8
83762X1
  6
CONTINUOUS
 62
         7
  5
36C
 10
16.0380769132
 20
14.9419398668
 30
0.0
  0
VERTEX
  8
83762X1
  6
CONTINUOUS
 62
         7
  5
36D
 10
16.227080873
 20
14.8098960045
 30
0.0
  0
VERTEX
  8
83762X1
  6
CONTINUOUS
 62
         7
  5
36E
 10
16.4508833474
 20
14.6921525341
 30
0.0
  0
VERTEX
  8
83762X1
  6
CONTINUOUS
 62
         7
  5
36F
 10
16.7041216893
 20
14.5930592698
 30
0.0
  0
VERTEX
  8
83762X1
  6
CONTINUOUS
 62
         7
  5
370
 10
17.0745345334
 20
14.4955822056
 30
0.0
  0
VERTEX
  8
83762X1
  6
CONTINUOUS
 62
         7
  5
371
 10
17.4630502607
 20
14.4412735555
 30
0.0
  0
VERTEX
  8
83762X1
  6
CONTINUOUS
 62
         7
  5
372
 10
17.8483524586
 20
14.4295977314
 30
0.0
  0
VERTEX
  8
83762X1
  6
CONTINUOUS
 62
         7
  5
373
 10
18.2121862055
 20
14.4559624956
 30
0.0
  0
VERTEX
  8
83762X1
  6
CONTINUOUS
 62
         7
  5
374
 10
18.5415277044
 20
14.5131720518
 30
0.0
  0
VERTEX
  8
83762X1
  6
CONTINUOUS
 62
         7
  5
375
 10
18.8291216893
 20
14.5930592698
 30
0.0
  0
VERTEX
  8
83762X1
  6
CONTINUOUS
 62
         7
  5
376
 10
19.0275138055
 20
14.6680074026
 30
0.0
  0
VERTEX
  8
83762X1
  6
CONTINUOUS
 62
         7
  5
377
 10
19.2205690577
 20
14.7608224277
 30
0.0
  0
VERTEX
  8
83762X1
  6
CONTINUOUS
 62
         7
  5
378
 10
19.4019903529
 20
14.8721491316
 30
0.0
  0
VERTEX
  8
83762X1
  6
CONTINUOUS
 62
         7
  5
379
 10
19.5646986124
 20
15.001713116
 30
0.0
  0
VERTEX
  8
83762X1
  6
CONTINUOUS
 62
         7
  5
37A
 10
19.7013231819
 20
15.1480965833
 30
0.0
  0
VERTEX
  8
83762X1
  6
CONTINUOUS
 62
         7
  5
37B
 10
19.8048869954
 20
15.3086204943
 30
0.0
  0
VERTEX
  8
83762X1
  6
CONTINUOUS
 62
         7
  5
37C
 10
19.8696009639
 20
15.4793934667
 30
0.0
  0
VERTEX
  8
83762X1
  6
CONTINUOUS
 62
         7
  5
37D
 10
19.8916216893
 20
15.6555592698
 30
0.0
  0
VERTEX
  8
83762X1
  6
CONTINUOUS
 62
         7
  5
37E
 10
19.8696009639
 20
15.8317250729
 30
0.0
  0
VERTEX
  8
83762X1
  6
CONTINUOUS
 62
         7
  5
37F
 10
19.8048869954
 20
16.0024980453
 30
0.0
  0
VERTEX
  8
83762X1
  6
CONTINUOUS
 62
         7
  5
380
 10
19.7013231819
 20
16.1630219564
 30
0.0
  0
VERTEX
  8
83762X1
  6
CONTINUOUS
 62
         7
  5
381
 10
19.5646986124
 20
16.3094054237
 30
0.0
  0
VERTEX
  8
83762X1
  6
CONTINUOUS
 62
         7
  5
382
 10
19.4019903529
 20
16.4389694081
 30
0.0
  0
VERTEX
  8
83762X1
  6
CONTINUOUS
 62
         7
  5
383
 10
19.2205690577
 20
16.5502961119
 30
0.0
  0
VERTEX
  8
83762X1
  6
CONTINUOUS
 62
         7
  5
384
 10
19.0275138055
 20
16.643111137
 30
0.0
  0
VERTEX
  8
83762X1
  6
CONTINUOUS
 62
         7
  5
385
 10
18.8291216893
 20
16.7180592698
 30
0.0
  0
VERTEX
  8
83762X1
  6
CONTINUOUS
 62
         7
  5
386
 10
18.5415277044
 20
16.7979464879
 30
0.0
  0
VERTEX
  8
83762X1
  6
CONTINUOUS
 62
         7
  5
387
 10
18.2121862055
 20
16.855156044
 30
0.0
  0
VERTEX
  8
83762X1
  6
CONTINUOUS
 62
         7
  5
388
 10
17.8483524586
 20
16.8815208083
 30
0.0
  0
VERTEX
  8
83762X1
  6
CONTINUOUS
 62
         7
  5
389
 10
17.4630502607
 20
16.8698449841
 30
0.0
  0
VERTEX
  8
83762X1
  6
CONTINUOUS
 62
         7
  5
38A
 10
17.0745345334
 20
16.815536334
 30
0.0
  0
VERTEX
  8
83762X1
  6
CONTINUOUS
 62
         7
  5
38B
 10
16.7041216893
 20
16.7180592698
 30
0.0
  0
VERTEX
  8
83762X1
  6
CONTINUOUS
 62
         7
  5
38C
 10
16.4508833474
 20
16.6189660056
 30
0.0
  0
VERTEX
  8
83762X1
  6
CONTINUOUS
 62
         7
  5
38D
 10
16.227080873
 20
16.5012225351
 30
0.0
  0
VERTEX
  8
83762X1
  6
CONTINUOUS
 62
         7
  5
38E
 10
16.0380769132
 20
16.3691786728
 30
0.0
  0
VERTEX
  8
83762X1
  6
CONTINUOUS
 62
         7
  5
38F
 10
15.886813997
 20
16.2276746544
 30
0.0
  0
VERTEX
  8
83762X1
  6
CONTINUOUS
 62
         7
  5
390
 10
15.7738221502
 20
16.0815385325
 30
0.0
  0
VERTEX
  8
83762X1
  6
CONTINUOUS
 62
         7
  5
391
 10
15.697542742
 20
15.935164533
 30
0.0
  0
VERTEX
  8
83762X1
  6
CONTINUOUS
 62
         7
  5
392
 10
15.6548478304
 20
15.7922293943
 30
0.0
  0
VERTEX
  8
83762X1
  6
CONTINUOUS
 62
         7
  5
393
 10
15.6416216893
 20
15.6555592698
 30
0.0
  0
SEQEND
  8
83762X1
  6
CONTINUOUS
 62
         7
  5
394
  0
POLYLINE
  8
83762X1
  6
CONTINUOUS
 62
         7
  5
395
 66
         1
 10
0.0
 20
0.0
 30
0.0
  0
VERTEX
  8
83762X1
  6
CONTINUOUS
 62
         7
  5
396
 10
15.6416216893
 20
15.5796250878
 30
0.0
  0
VERTEX
  8
83762X1
  6
CONTINUOUS
 62
         7
  5
397
 10
15.6570699039
 20
15.4319584986
 30
0.0
  0
VERTEX
  8
83762X1
  6
CONTINUOUS
 62
         7
  5
398
 10
15.7058772499
 20
15.2802048952
 30
0.0
  0
VERTEX
  8
83762X1
  6
CONTINUOUS
 62
         7
  5
399
 10
15.7908215496
 20
15.128020981
 30
0.0
  0
VERTEX
  8
83762X1
  6
CONTINUOUS
 62
         7
  5
39A
 10
15.9130682987
 20
14.9796348578
 30
0.0
  0
VERTEX
  8
83762X1
  6
CONTINUOUS
 62
         7
  5
39B
 10
16.0717924287
 20
14.8395397825
 30
0.0
  0
VERTEX
  8
83762X1
  6
CONTINUOUS
 62
         7
  5
39C
 10
16.2640197793
 20
14.7120974706
 30
0.0
  0
VERTEX
  8
83762X1
  6
CONTINUOUS
 62
         7
  5
39D
 10
16.5317659545
 20
14.5811668907
 30
0.0
  0
VERTEX
  8
83762X1
  6
CONTINUOUS
 62
         7
  5
39E
 10
16.8289284053
 20
14.4786624325
 30
0.0
  0
VERTEX
  8
83762X1
  6
CONTINUOUS
 62
         7
  5
39F
 10
17.1422713217
 20
14.4069057951
 30
0.0
  0
VERTEX
  8
83762X1
  6
CONTINUOUS
 62
         7
  5
3A0
 10
17.4586677751
 20
14.3657072725
 30
0.0
  0
VERTEX
  8
83762X1
  6
CONTINUOUS
 62
         7
  5
3A1
 10
17.7666216893
 20
14.3527557658
 30
0.0
  0
VERTEX
  8
83762X1
  6
CONTINUOUS
 62
         7
  5
3A2
 10
18.0745756035
 20
14.3657072725
 30
0.0
  0
VERTEX
  8
83762X1
  6
CONTINUOUS
 62
         7
  5
3A3
 10
18.390972057
 20
14.4069057951
 30
0.0
  0
VERTEX
  8
83762X1
  6
CONTINUOUS
 62
         7
  5
3A4
 10
18.7043149733
 20
14.4786624325
 30
0.0
  0
VERTEX
  8
83762X1
  6
CONTINUOUS
 62
         7
  5
3A5
 10
19.0014774242
 20
14.5811668907
 30
0.0
  0
VERTEX
  8
83762X1
  6
CONTINUOUS
 62
         7
  5
3A6
 10
19.2692235993
 20
14.7120974706
 30
0.0
  0
VERTEX
  8
83762X1
  6
CONTINUOUS
 62
         7
  5
3A7
 10
19.4614509499
 20
14.8395397825
 30
0.0
  0
VERTEX
  8
83762X1
  6
CONTINUOUS
 62
         7
  5
3A8
 10
19.6201750799
 20
14.9796348578
 30
0.0
  0
VERTEX
  8
83762X1
  6
CONTINUOUS
 62
         7
  5
3A9
 10
19.7424218291
 20
15.128020981
 30
0.0
  0
VERTEX
  8
83762X1
  6
CONTINUOUS
 62
         7
  5
3AA
 10
19.8273661288
 20
15.2802048952
 30
0.0
  0
VERTEX
  8
83762X1
  6
CONTINUOUS
 62
         7
  5
3AB
 10
19.8761734747
 20
15.4319584986
 30
0.0
  0
VERTEX
  8
83762X1
  6
CONTINUOUS
 62
         7
  5
3AC
 10
19.8916216893
 20
15.5796250878
 30
0.0
  0
SEQEND
  8
83762X1
  6
CONTINUOUS
 62
         7
  5
3AD
  0
LINE
  8
83762X1
  6
CONTINUOUS
 62
         7
  5
3AE
 10
16.5559630297
 20
15.0440563605
 30
0.0
 11
16.7256700819
 21
14.9460759482
 31
0.0
  0
POLYLINE
  8
83762X1
  6
CONTINUOUS
 62
         7
  5
3AF
 66
         1
 10
0.0
 20
0.0
 30
0.0
  0
VERTEX
  8
83762X1
  6
CONTINUOUS
 62
         7
  5
3B0
 10
16.8430715434
 20
14.4746846478
 30
0.0
  0
VERTEX
  8
83762X1
  6
CONTINUOUS
 62
         7
  5
3B1
 10
16.9884365407
 20
14.4349818012
 30
0.0
  0
VERTEX
  8
83762X1
  6
CONTINUOUS
 62
         7
  5
3B2
 10
17.1393776042
 20
14.4020842169
 30
0.0
  0
VERTEX
  8
83762X1
  6
CONTINUOUS
 62
         7
  5
3B3
 10
17.2944359874
 20
14.3763493145
 30
0.0
  0
VERTEX
  8
83762X1
  6
CONTINUOUS
 62
         7
  5
3B4
 10
17.4520722611
 20
14.3579941541
 30
0.0
  0
SEQEND
  8
83762X1
  6
CONTINUOUS
 62
         7
  5
3B5
  0
POLYLINE
  8
83762X1
  6
CONTINUOUS
 62
         7
  5
3B6
 66
         1
 10
0.0
 20
0.0
 30
0.0
  0
VERTEX
  8
83762X1
  6
CONTINUOUS
 62
         7
  5
3B7
 10
17.5315103042
 20
14.3516019485
 30
0.0
  0
VERTEX
  8
83762X1
  6
CONTINUOUS
 62
         7
  5
3B8
 10
17.7286277723
 20
14.3437698522
 30
0.0
  0
VERTEX
  8
83762X1
  6
CONTINUOUS
 62
         7
  5
3B9
 10
17.9281100356
 20
14.347347262
 30
0.0
  0
VERTEX
  8
83762X1
  6
CONTINUOUS
 62
         7
  5
3BA
 10
18.1269673497
 20
14.3625407347
 30
0.0
  0
VERTEX
  8
83762X1
  6
CONTINUOUS
 62
         7
  5
3BB
 10
18.3221683219
 20
14.3892074224
 30
0.0
  0
VERTEX
  8
83762X1
  6
CONTINUOUS
 62
         7
  5
3BC
 10
18.5107920185
 20
14.4268578672
 30
0.0
  0
VERTEX
  8
83762X1
  6
CONTINUOUS
 62
         7
  5
3BD
 10
18.6901718352
 20
14.4746846478
 30
0.0
  0
SEQEND
  8
83762X1
  6
CONTINUOUS
 62
         7
  5
3BE
  0
LINE
  8
83762X1
  6
CONTINUOUS
 62
         7
  5
3BF
 10
18.9772803489
 20
16.2017424527
 30
0.0
 11
18.9772803489
 21
16.2099074185
 31
0.0
  0
LINE
  8
83762X1
  6
CONTINUOUS
 62
         7
  5
3C0
 10
18.7267808479
 20
16.3545333728
 30
0.0
 11
18.7267808479
 21
16.346368407
 31
0.0
  0
LINE
  8
83762X1
  6
CONTINUOUS
 62
         7
  5
3C1
 10
16.5559630297
 20
15.0440563605
 30
0.0
 11
16.5559630297
 21
15.1012111211
 31
0.0
  0
LINE
  8
83762X1
  6
CONTINUOUS
 62
         7
  5
3C5
 10
17.5315103042
 20
14.3516019485
 30
0.0
 11
17.5295682824
 21
14.3604923133
 31
0.0
  0
LINE
  8
83762X1
  6
CONTINUOUS
 62
         7
  5
3C6
 10
17.5058290112
 20
14.3471983951
 30
0.0
 11
17.5288041619
 21
14.3604631046
 31
0.0
  0
LINE
  8
83762X1
  6
CONTINUOUS
 62
         7
  5
3C7
 10
17.9921887525
 20
14.6843365868
 30
0.0
 11
17.6427849551
 21
14.8860649633
 31
0.0
  0
POLYLINE
  8
83762X1
  6
CONTINUOUS
 62
         7
  5
3C8
 66
         1
 10
0.0
 20
0.0
 30
0.0
  0
VERTEX
  8
83762X1
  6
CONTINUOUS
 62
         7
  5
3C9
 10
16.5559630297
 20
15.0440563605
 30
0.0
  0
VERTEX
  8
83762X1
  6
CONTINUOUS
 62
         7
  5
3CA
 10
16.5494864054
 20
15.0351964809
 30
0.0
  0
VERTEX
  8
83762X1
  6
CONTINUOUS
 62
         7
  5
3CB
 10
16.5443934762
 20
15.0260404059
 30
0.0
  0
SEQEND
  8
83762X1
  6
CONTINUOUS
 62
         7
  5
3CC
  0
LINE
  8
83762X1
  6
CONTINUOUS
 62
         7
  5
3CD
 10
18.3669553465
 20
14.9007081808
 30
0.0
 11
18.0175515491
 21
15.1024365573
 31
0.0
  0
POLYLINE
  8
83762X1
  6
CONTINUOUS
 62
         7
  5
3CE
 66
         1
 10
0.0
 20
0.0
 30
0.0
  0
VERTEX
  8
83762X1
  6
CONTINUOUS
 62
         7
  5
3CF
 10
16.5559630297
 20
15.1012111211
 30
0.0
  0
VERTEX
  8
83762X1
  6
CONTINUOUS
 62
         7
  5
3D0
 10
16.5434243403
 20
15.0810596859
 30
0.0
  0
VERTEX
  8
83762X1
  6
CONTINUOUS
 62
         7
  5
3D1
 10
16.5379101635
 20
15.0589478471
 30
0.0
  0
VERTEX
  8
83762X1
  6
CONTINUOUS
 62
         7
  5
3D2
 10
16.5404979634
 20
15.0361625269
 30
0.0
  0
VERTEX
  8
83762X1
  6
CONTINUOUS
 62
         7
  5
3D3
 10
16.551284874
 20
15.0141939758
 30
0.0
  0
VERTEX
  8
83762X1
  6
CONTINUOUS
 62
         7
  5
3D4
 10
16.5693144047
 20
14.9944274855
 30
0.0
  0
VERTEX
  8
83762X1
  6
CONTINUOUS
 62
         7
  5
3D5
 10
16.5928244326
 20
14.9778671077
 30
0.0
  0
VERTEX
  8
83762X1
  6
CONTINUOUS
 62
         7
  5
3D6
 10
16.6380209657
 20
14.958621653
 30
0.0
  0
VERTEX
  8
83762X1
  6
CONTINUOUS
 62
         7
  5
3D7
 10
16.6937950606
 20
14.9476564066
 30
0.0
  0
VERTEX
  8
83762X1
  6
CONTINUOUS
 62
         7
  5
3D8
 10
16.7527087762
 20
14.9471968218
 30
0.0
  0
VERTEX
  8
83762X1
  6
CONTINUOUS
 62
         7
  5
3D9
 10
16.8064625307
 20
14.9565851668
 30
0.0
  0
SEQEND
  8
83762X1
  6
CONTINUOUS
 62
         7
  5
3DA
  0
LINE
  8
83762X1
  6
CONTINUOUS
 62
         7
  5
3DB
 10
18.0346151594
 20
14.6843365868
 30
0.0
 11
18.3669553465
 21
14.8762132833
 31
0.0
  0
POLYLINE
  8
83762X1
  6
CONTINUOUS
 62
         7
  5
3DC
 66
         1
 10
0.0
 20
0.0
 30
0.0
  0
VERTEX
  8
83762X1
  6
CONTINUOUS
 62
         7
  5
3DD
 10
18.9888499024
 20
16.2279233731
 30
0.0
  0
VERTEX
  8
83762X1
  6
CONTINUOUS
 62
         7
  5
3DE
 10
18.9737463074
 20
16.2500098188
 30
0.0
  0
VERTEX
  8
83762X1
  6
CONTINUOUS
 62
         7
  5
3DF
 10
18.949205777
 20
16.2706636342
 30
0.0
  0
VERTEX
  8
83762X1
  6
CONTINUOUS
 62
         7
  5
3E0
 10
18.9161176537
 20
16.287932079
 30
0.0
  0
VERTEX
  8
83762X1
  6
CONTINUOUS
 62
         7
  5
3E1
 10
18.8769147622
 20
16.3002142443
 30
0.0
  0
VERTEX
  8
83762X1
  6
CONTINUOUS
 62
         7
  5
3E2
 10
18.8350206562
 20
16.3067171099
 30
0.0
  0
VERTEX
  8
83762X1
  6
CONTINUOUS
 62
         7
  5
3E3
 10
18.7939209421
 20
16.3076050556
 30
0.0
  0
SEQEND
  8
83762X1
  6
CONTINUOUS
 62
         7
  5
3E4
  0
POLYLINE
  8
83762X1
  6
CONTINUOUS
 62
         7
  5
3E5
 66
         1
 10
0.0
 20
0.0
 30
0.0
  0
VERTEX
  8
83762X1
  6
CONTINUOUS
 62
         7
  5
3E6
 10
18.9772803489
 20
16.2099074185
 30
0.0
  0
VERTEX
  8
83762X1
  6
CONTINUOUS
 62
         7
  5
3E7
 10
18.9898190383
 20
16.2300588537
 30
0.0
  0
VERTEX
  8
83762X1
  6
CONTINUOUS
 62
         7
  5
3E8
 10
18.9953332152
 20
16.2521706925
 30
0.0
  0
VERTEX
  8
83762X1
  6
CONTINUOUS
 62
         7
  5
3E9
 10
18.9927454152
 20
16.2749560127
 30
0.0
  0
VERTEX
  8
83762X1
  6
CONTINUOUS
 62
         7
  5
3EA
 10
18.9819585046
 20
16.2969245638
 30
0.0
  0
VERTEX
  8
83762X1
  6
CONTINUOUS
 62
         7
  5
3EB
 10
18.963928974
 20
16.3166910542
 30
0.0
  0
VERTEX
  8
83762X1
  6
CONTINUOUS
 62
         7
  5
3EC
 10
18.9404189461
 20
16.333251432
 30
0.0
  0
VERTEX
  8
83762X1
  6
CONTINUOUS
 62
         7
  5
3ED
 10
18.895222413
 20
16.3524968867
 30
0.0
  0
VERTEX
  8
83762X1
  6
CONTINUOUS
 62
         7
  5
3EE
 10
18.8394483181
 20
16.363462133
 30
0.0
  0
VERTEX
  8
83762X1
  6
CONTINUOUS
 62
         7
  5
3EF
 10
18.7805346024
 20
16.3639217178
 30
0.0
  0
VERTEX
  8
83762X1
  6
CONTINUOUS
 62
         7
  5
3F0
 10
18.7267808479
 20
16.3545333728
 30
0.0
  0
SEQEND
  8
83762X1
  6
CONTINUOUS
 62
         7
  5
3F1
  0
LINE
  8
83762X1
  6
CONTINUOUS
 62
         7
  5
3F2
 10
19.0994249243
 20
15.7270564417
 30
0.0
 11
19.4488287218
 21
15.5253280652
 31
0.0
  0
LINE
  8
83762X1
  6
CONTINUOUS
 62
         7
  5
3F3
 10
18.7246583303
 20
15.5106848477
 30
0.0
 11
19.0740621277
 21
15.3089564712
 31
0.0
  0
LINE
  8
83762X1
  6
CONTINUOUS
 62
         7
  5
3F4
 10
19.0994249243
 20
15.7270564417
 30
0.0
 11
19.0994249243
 21
15.7188914759
 31
0.0
  0
LINE
  8
83762X1
  6
CONTINUOUS
 62
         7
  5
3F5
 10
19.4488287218
 20
15.5008331677
 30
0.0
 11
19.1164885346
 21
15.3089564712
 31
0.0
  0
POLYLINE
  8
83762X1
  6
CONTINUOUS
 62
         7
  5
3F6
 66
         1
 10
0.0
 20
0.0
 30
0.0
  0
VERTEX
  8
83762X1
  6
CONTINUOUS
 62
         7
  5
3F7
 10
18.5294434009
 20
16.468466201
 30
0.0
  0
VERTEX
  8
83762X1
  6
CONTINUOUS
 62
         7
  5
3F8
 10
18.3627735806
 20
16.4836134255
 30
0.0
  0
VERTEX
  8
83762X1
  6
CONTINUOUS
 62
         7
  5
3F9
 10
18.1875608189
 20
16.4799322244
 30
0.0
  0
VERTEX
  8
83762X1
  6
CONTINUOUS
 62
         7
  5
3FA
 10
18.0136284499
 20
16.4559368979
 30
0.0
  0
VERTEX
  8
83762X1
  6
CONTINUOUS
 62
         7
  5
3FB
 10
17.8514308196
 20
16.4124561557
 30
0.0
  0
VERTEX
  8
83762X1
  6
CONTINUOUS
 62
         7
  5
3FC
 10
17.7100576558
 20
16.3525846429
 30
0.0
  0
VERTEX
  8
83762X1
  6
CONTINUOUS
 62
         7
  5
3FD
 10
17.5956168273
 20
16.2810061522
 30
0.0
  0
SEQEND
  8
83762X1
  6
CONTINUOUS
 62
         7
  5
3FE
  0
LINE
  8
83762X1
  6
CONTINUOUS
 62
         7
  5
3FF
 10
18.7267808479
 20
16.3545333728
 30
0.0
 11
18.5294434009
 21
16.468466201
 31
0.0
  0
LINE
  8
83762X1
  6
CONTINUOUS
 62
         7
  5
400
 10
19.174617796
 20
16.0959745904
 30
0.0
 11
18.9772803489
 21
16.2099074185
 31
0.0
  0
POLYLINE
  8
83762X1
  6
CONTINUOUS
 62
         7
  5
401
 66
         1
 10
0.0
 20
0.0
 30
0.0
  0
VERTEX
  8
83762X1
  6
CONTINUOUS
 62
         7
  5
402
 10
19.0994249243
 20
15.7270564417
 30
0.0
  0
VERTEX
  8
83762X1
  6
CONTINUOUS
 62
         7
  5
403
 10
19.1439857261
 20
15.7840084953
 30
0.0
  0
VERTEX
  8
83762X1
  6
CONTINUOUS
 62
         7
  5
404
 10
19.1767069739
 20
15.8445732045
 30
0.0
  0
VERTEX
  8
83762X1
  6
CONTINUOUS
 62
         7
  5
405
 10
19.1964252347
 20
15.9074796181
 30
0.0
  0
VERTEX
  8
83762X1
  6
CONTINUOUS
 62
         7
  5
406
 10
19.2025385307
 20
15.9713103528
 30
0.0
  0
VERTEX
  8
83762X1
  6
CONTINUOUS
 62
         7
  5
407
 10
19.1950625053
 20
16.0346060638
 30
0.0
  0
VERTEX
  8
83762X1
  6
CONTINUOUS
 62
         7
  5
408
 10
19.174617796
 20
16.0959745904
 30
0.0
  0
SEQEND
  8
83762X1
  6
CONTINUOUS
 62
         7
  5
409
  0
LINE
  8
83762X1
  6
CONTINUOUS
 62
         7
  5
40A
 10
18.5294434009
 20
16.4603012352
 30
0.0
 11
18.5294434009
 21
16.468466201
 31
0.0
  0
LINE
  8
83762X1
  6
CONTINUOUS
 62
         7
  5
40B
 10
19.174617796
 20
16.0517867164
 30
0.0
 11
19.174617796
 21
16.0959745904
 31
0.0
  0
POLYLINE
  8
83762X1
  6
CONTINUOUS
 62
         7
  5
40C
 66
         1
 10
0.0
 20
0.0
 30
0.0
  0
VERTEX
  8
83762X1
  6
CONTINUOUS
 62
         7
  5
40D
 10
19.2011886137
 20
15.9392918317
 30
0.0
  0
VERTEX
  8
83762X1
  6
CONTINUOUS
 62
         7
  5
40E
 10
19.1940843763
 20
15.9816525755
 30
0.0
  0
VERTEX
  8
83762X1
  6
CONTINUOUS
 62
         7
  5
40F
 10
19.1809663734
 20
16.0235321092
 30
0.0
  0
SEQEND
  8
83762X1
  6
CONTINUOUS
 62
         7
  5
410
  0
LINE
  8
83762X1
  6
CONTINUOUS
 62
         7
  5
411
 10
19.8916216893
 20
15.5796250878
 30
0.0
 11
19.8916216893
 21
15.6555592698
 31
0.0
  0
LINE
  8
83762X1
  6
CONTINUOUS
 62
         7
  5
412
 10
18.1089225942
 20
15.4290642368
 30
0.0
 11
18.1089225942
 21
15.3719094761
 31
0.0
  0
LINE
  8
83762X1
  6
CONTINUOUS
 62
         7
  5
413
 10
17.4243207844
 20
15.8442924701
 30
0.0
 11
17.4243207844
 21
15.8820543029
 31
0.0
  0
POLYLINE
  8
83762X1
  6
CONTINUOUS
 62
         7
  5
414
 66
         1
 10
0.0
 20
0.0
 30
0.0
  0
VERTEX
  8
83762X1
  6
CONTINUOUS
 62
         7
  5
415
 10
17.4221865553
 20
16.0987510583
 30
0.0
  0
VERTEX
  8
83762X1
  6
CONTINUOUS
 62
         7
  5
416
 10
17.4347772655
 20
16.1045036911
 30
0.0
  0
VERTEX
  8
83762X1
  6
CONTINUOUS
 62
         7
  5
417
 10
17.4458432227
 20
16.1112205586
 30
0.0
  0
SEQEND
  8
83762X1
  6
CONTINUOUS
 62
         7
  5
418
  0
POLYLINE
  8
83762X1
  6
CONTINUOUS
 62
         7
  5
419
 66
         1
 10
0.0
 20
0.0
 30
0.0
  0
VERTEX
  8
83762X1
  6
CONTINUOUS
 62
         7
  5
41A
 10
17.5271986224
 20
16.3032062568
 30
0.0
  0
VERTEX
  8
83762X1
  6
CONTINUOUS
 62
         7
  5
41B
 10
17.5226748873
 20
16.3054323435
 30
0.0
  0
VERTEX
  8
83762X1
  6
CONTINUOUS
 62
         7
  5
41C
 10
17.5180633612
 20
16.3075975527
 30
0.0
  0
SEQEND
  8
83762X1
  6
CONTINUOUS
 62
         7
  5
41D
  0
POLYLINE
  8
83762X1
  6
CONTINUOUS
 62
         7
  5
41E
 66
         1
 10
0.0
 20
0.0
 30
0.0
  0
VERTEX
  8
83762X1
  6
CONTINUOUS
 62
         7
  5
41F
 10
17.1079714044
 20
16.2269346467
 30
0.0
  0
VERTEX
  8
83762X1
  6
CONTINUOUS
 62
         7
  5
420
 10
17.1044130235
 20
16.2172803258
 30
0.0
  0
VERTEX
  8
83762X1
  6
CONTINUOUS
 62
         7
  5
421
 10
17.1019720819
 20
16.2075109585
 30
0.0
  0
SEQEND
  8
83762X1
  6
CONTINUOUS
 62
         7
  5
422
  0
POLYLINE
  8
83762X1
  6
CONTINUOUS
 62
         7
  5
423
 66
         1
 10
0.0
 20
0.0
 30
0.0
  0
VERTEX
  8
83762X1
  6
CONTINUOUS
 62
         7
  5
424
 10
18.1667869214
 20
15.4575724365
 30
0.0
  0
VERTEX
  8
83762X1
  6
CONTINUOUS
 62
         7
  5
425
 10
18.309079723
 20
15.4511414676
 30
0.0
  0
VERTEX
  8
83762X1
  6
CONTINUOUS
 62
         7
  5
426
 10
18.4531779355
 20
15.4580261172
 30
0.0
  0
VERTEX
  8
83762X1
  6
CONTINUOUS
 62
         7
  5
427
 10
18.5474737716
 20
15.4700521093
 30
0.0
  0
VERTEX
  8
83762X1
  6
CONTINUOUS
 62
         7
  5
428
 10
18.6384565287
 20
15.4877541518
 30
0.0
  0
VERTEX
  8
83762X1
  6
CONTINUOUS
 62
         7
  5
429
 10
18.7246583303
 20
15.5106848477
 30
0.0
  0
SEQEND
  8
83762X1
  6
CONTINUOUS
 62
         7
  5
42A
  0
POLYLINE
  8
83762X1
  6
CONTINUOUS
 62
         7
  5
42B
 66
         1
 10
0.0
 20
0.0
 30
0.0
 70
         1
  0
VERTEX
  8
83762X1
  6
CONTINUOUS
 62
         7
  5
42C
 10
18.0455316279
 20
16.6142069539
 30
0.0
  0
VERTEX
  8
83762X1
  6
CONTINUOUS
 62
         7
  5
42D
 10
18.0535638859
 20
16.584755341
 30
0.0
  0
VERTEX
  8
83762X1
  6
CONTINUOUS
 62
         7
  5
42E
 10
18.0811030564
 20
16.5549212396
 30
0.0
  0
VERTEX
  8
83762X1
  6
CONTINUOUS
 62
         7
  5
42F
 10
18.1285316279
 20
16.5312069539
 30
0.0
  0
VERTEX
  8
83762X1
  6
CONTINUOUS
 62
         7
  5
430
 10
18.1878173421
 20
16.519349811
 30
0.0
  0
VERTEX
  8
83762X1
  6
CONTINUOUS
 62
         7
  5
431
 10
18.2463380795
 20
16.5204972765
 30
0.0
  0
VERTEX
  8
83762X1
  6
CONTINUOUS
 62
         7
  5
432
 10
18.2945316279
 20
16.5312069539
 30
0.0
  0
VERTEX
  8
83762X1
  6
CONTINUOUS
 62
         7
  5
433
 10
18.3346929182
 20
16.5499488894
 30
0.0
  0
VERTEX
  8
83762X1
  6
CONTINUOUS
 62
         7
  5
434
 10
18.365674485
 20
16.5786355253
 30
0.0
  0
VERTEX
  8
83762X1
  6
CONTINUOUS
 62
         7
  5
435
 10
18.3775316279
 20
16.6142069539
 30
0.0
  0
VERTEX
  8
83762X1
  6
CONTINUOUS
 62
         7
  5
436
 10
18.365674485
 20
16.6497783825
 30
0.0
  0
VERTEX
  8
83762X1
  6
CONTINUOUS
 62
         7
  5
437
 10
18.3346929182
 20
16.6784650184
 30
0.0
  0
VERTEX
  8
83762X1
  6
CONTINUOUS
 62
         7
  5
438
 10
18.2945316279
 20
16.6972069539
 30
0.0
  0
VERTEX
  8
83762X1
  6
CONTINUOUS
 62
         7
  5
439
 10
18.2463380795
 20
16.7079166313
 30
0.0
  0
VERTEX
  8
83762X1
  6
CONTINUOUS
 62
         7
  5
43A
 10
18.1878173421
 20
16.7090640968
 30
0.0
  0
VERTEX
  8
83762X1
  6
CONTINUOUS
 62
         7
  5
43B
 10
18.1285316279
 20
16.6972069539
 30
0.0
  0
VERTEX
  8
83762X1
  6
CONTINUOUS
 62
         7
  5
43C
 10
18.0811030564
 20
16.6734926682
 30
0.0
  0
VERTEX
  8
83762X1
  6
CONTINUOUS
 62
         7
  5
43D
 10
18.0535638859
 20
16.6436585668
 30
0.0
  0
VERTEX
  8
83762X1
  6
CONTINUOUS
 62
         7
  5
43E
 10
18.0455316279
 20
16.6142069539
 30
0.0
  0
SEQEND
  8
83762X1
  6
CONTINUOUS
 62
         7
  5
43F
  0
POLYLINE
  8
83762X1
  6
CONTINUOUS
 62
         7
  5
440
 66
         1
 10
0.0
 20
0.0
 30
0.0
 70
         1
  0
VERTEX
  8
83762X1
  6
CONTINUOUS
 62
         7
  5
441
 10
15.9401951939
 20
15.398690397
 30
0.0
  0
VERTEX
  8
83762X1
  6
CONTINUOUS
 62
         7
  5
442
 10
15.948227452
 20
15.3692387841
 30
0.0
  0
VERTEX
  8
83762X1
  6
CONTINUOUS
 62
         7
  5
443
 10
15.9757666225
 20
15.3394046828
 30
0.0
  0
VERTEX
  8
83762X1
  6
CONTINUOUS
 62
         7
  5
444
 10
16.0231951939
 20
15.315690397
 30
0.0
  0
VERTEX
  8
83762X1
  6
CONTINUOUS
 62
         7
  5
445
 10
16.0824809082
 20
15.3038332542
 30
0.0
  0
VERTEX
  8
83762X1
  6
CONTINUOUS
 62
         7
  5
446
 10
16.1410016455
 20
15.3049807196
 30
0.0
  0
VERTEX
  8
83762X1
  6
CONTINUOUS
 62
         7
  5
447
 10
16.1891951939
 20
15.315690397
 30
0.0
  0
VERTEX
  8
83762X1
  6
CONTINUOUS
 62
         7
  5
448
 10
16.2293564843
 20
15.3344323325
 30
0.0
  0
VERTEX
  8
83762X1
  6
CONTINUOUS
 62
         7
  5
449
 10
16.2603380511
 20
15.3631189685
 30
0.0
  0
VERTEX
  8
83762X1
  6
CONTINUOUS
 62
         7
  5
44A
 10
16.2721951939
 20
15.398690397
 30
0.0
  0
VERTEX
  8
83762X1
  6
CONTINUOUS
 62
         7
  5
44B
 10
16.2603380511
 20
15.4342618256
 30
0.0
  0
VERTEX
  8
83762X1
  6
CONTINUOUS
 62
         7
  5
44C
 10
16.2293564843
 20
15.4629484616
 30
0.0
  0
VERTEX
  8
83762X1
  6
CONTINUOUS
 62
         7
  5
44D
 10
16.1891951939
 20
15.481690397
 30
0.0
  0
VERTEX
  8
83762X1
  6
CONTINUOUS
 62
         7
  5
44E
 10
16.1410016455
 20
15.4924000745
 30
0.0
  0
VERTEX
  8
83762X1
  6
CONTINUOUS
 62
         7
  5
44F
 10
16.0824809082
 20
15.4935475399
 30
0.0
  0
VERTEX
  8
83762X1
  6
CONTINUOUS
 62
         7
  5
450
 10
16.0231951939
 20
15.481690397
 30
0.0
  0
VERTEX
  8
83762X1
  6
CONTINUOUS
 62
         7
  5
451
 10
15.9757666225
 20
15.4579761113
 30
0.0
  0
VERTEX
  8
83762X1
  6
CONTINUOUS
 62
         7
  5
452
 10
15.948227452
 20
15.4281420099
 30
0.0
  0
VERTEX
  8
83762X1
  6
CONTINUOUS
 62
         7
  5
453
 10
15.9401951939
 20
15.398690397
 30
0.0
  0
SEQEND
  8
83762X1
  6
CONTINUOUS
 62
         7
  5
454
  0
POLYLINE
  8
83762X1
  6
CONTINUOUS
 62
         7
  5
455
 66
         1
 10
0.0
 20
0.0
 30
0.0
 70
         1
  0
VERTEX
  8
83762X1
  6
CONTINUOUS
 62
         7
  5
456
 10
18.8161382462
 20
14.9537804585
 30
0.0
  0
VERTEX
  8
83762X1
  6
CONTINUOUS
 62
         7
  5
457
 10
18.8241705042
 20
14.9243288456
 30
0.0
  0
VERTEX
  8
83762X1
  6
CONTINUOUS
 62
         7
  5
458
 10
18.8517096748
 20
14.8944947442
 30
0.0
  0
VERTEX
  8
83762X1
  6
CONTINUOUS
 62
         7
  5
459
 10
18.8991382462
 20
14.8707804585
 30
0.0
  0
VERTEX
  8
83762X1
  6
CONTINUOUS
 62
         7
  5
45A
 10
18.9584239605
 20
14.8589233157
 30
0.0
  0
VERTEX
  8
83762X1
  6
CONTINUOUS
 62
         7
  5
45B
 10
19.0169446978
 20
14.8600707811
 30
0.0
  0
VERTEX
  8
83762X1
  6
CONTINUOUS
 62
         7
  5
45C
 10
19.0651382462
 20
14.8707804585
 30
0.0
  0
VERTEX
  8
83762X1
  6
CONTINUOUS
 62
         7
  5
45D
 10
19.1052995365
 20
14.889522394
 30
0.0
  0
VERTEX
  8
83762X1
  6
CONTINUOUS
 62
         7
  5
45E
 10
19.1362811033
 20
14.9182090299
 30
0.0
  0
VERTEX
  8
83762X1
  6
CONTINUOUS
 62
         7
  5
45F
 10
19.1481382462
 20
14.9537804585
 30
0.0
  0
VERTEX
  8
83762X1
  6
CONTINUOUS
 62
         7
  5
460
 10
19.1362811033
 20
14.9893518871
 30
0.0
  0
VERTEX
  8
83762X1
  6
CONTINUOUS
 62
         7
  5
461
 10
19.1052995365
 20
15.018038523
 30
0.0
  0
VERTEX
  8
83762X1
  6
CONTINUOUS
 62
         7
  5
462
 10
19.0651382462
 20
15.0367804585
 30
0.0
  0
VERTEX
  8
83762X1
  6
CONTINUOUS
 62
         7
  5
463
 10
19.0169446978
 20
15.0474901359
 30
0.0
  0
VERTEX
  8
83762X1
  6
CONTINUOUS
 62
         7
  5
464
 10
18.9584239605
 20
15.0486376014
 30
0.0
  0
VERTEX
  8
83762X1
  6
CONTINUOUS
 62
         7
  5
465
 10
18.8991382462
 20
15.0367804585
 30
0.0
  0
VERTEX
  8
83762X1
  6
CONTINUOUS
 62
         7
  5
466
 10
18.8517096748
 20
15.0130661728
 30
0.0
  0
VERTEX
  8
83762X1
  6
CONTINUOUS
 62
         7
  5
467
 10
18.8241705042
 20
14.9832320714
 30
0.0
  0
VERTEX
  8
83762X1
  6
CONTINUOUS
 62
         7
  5
468
 10
18.8161382462
 20
14.9537804585
 30
0.0
  0
SEQEND
  8
83762X1
  6
CONTINUOUS
 62
         7
  5
469
  0
POLYLINE
  8
83762X1
  6
CONTINUOUS
 62
         7
  5
46A
 66
         1
 10
0.0
 20
0.0
 30
0.0
  0
VERTEX
  8
83762X1
  6
CONTINUOUS
 62
         7
  5
46B
 10
17.0382709378
 20
15.8751968501
 30
0.0
  0
VERTEX
  8
83762X1
  6
CONTINUOUS
 62
         7
  5
46C
 10
17.0336163389
 20
15.8913268857
 30
0.0
  0
VERTEX
  8
83762X1
  6
CONTINUOUS
 62
         7
  5
46D
 10
17.0259215661
 20
15.9070642077
 30
0.0
  0
SEQEND
  8
83762X1
  6
CONTINUOUS
 62
         7
  5
46E
  0
POLYLINE
  8
83762X1
  6
CONTINUOUS
 62
         7
  5
46F
 66
         1
 10
0.0
 20
0.0
 30
0.0
  0
VERTEX
  8
83762X1
  6
CONTINUOUS
 62
         7
  5
470
 10
16.9572757853
 20
15.9679538712
 30
0.0
  0
VERTEX
  8
83762X1
  6
CONTINUOUS
 62
         7
  5
471
 10
16.9532168187
 20
15.9700778599
 30
0.0
  0
VERTEX
  8
83762X1
  6
CONTINUOUS
 62
         7
  5
472
 10
16.949080511
 20
15.9721515162
 30
0.0
  0
SEQEND
  8
83762X1
  6
CONTINUOUS
 62
         7
  5
473
  0
POLYLINE
  8
83762X1
  6
CONTINUOUS
 62
         7
  5
474
 66
         1
 10
0.0
 20
0.0
 30
0.0
  0
VERTEX
  8
83762X1
  6
CONTINUOUS
 62
         7
  5
475
 10
16.5323864845
 20
15.8946205383
 30
0.0
  0
VERTEX
  8
83762X1
  6
CONTINUOUS
 62
         7
  5
476
 10
16.5288281036
 20
15.8849662174
 30
0.0
  0
VERTEX
  8
83762X1
  6
CONTINUOUS
 62
         7
  5
477
 10
16.526387162
 20
15.8751968501
 30
0.0
  0
SEQEND
  8
83762X1
  6
CONTINUOUS
 62
         7
  5
478
  0
POLYLINE
  8
83762X1
  6
CONTINUOUS
 62
         7
  5
479
 66
         1
 10
0.0
 20
0.0
 30
0.0
  0
VERTEX
  8
83762X1
  6
CONTINUOUS
 62
         7
  5
47A
 10
17.5956168273
 20
16.2810061522
 30
0.0
  0
VERTEX
  8
83762X1
  6
CONTINUOUS
 62
         7
  5
47B
 10
17.5649146622
 20
16.3122659306
 30
0.0
  0
VERTEX
  8
83762X1
  6
CONTINUOUS
 62
         7
  5
47C
 10
17.518746664
 20
16.3399429925
 30
0.0
  0
VERTEX
  8
83762X1
  6
CONTINUOUS
 62
         7
  5
47D
 10
17.4596275583
 20
16.3604188238
 30
0.0
  0
VERTEX
  8
83762X1
  6
CONTINUOUS
 62
         7
  5
47E
 10
17.3932175986
 20
16.3711047167
 30
0.0
  0
VERTEX
  8
83762X1
  6
CONTINUOUS
 62
         7
  5
47F
 10
17.3266648819
 20
16.3714097944
 30
0.0
  0
VERTEX
  8
83762X1
  6
CONTINUOUS
 62
         7
  5
480
 10
17.2662480891
 20
16.3627696684
 30
0.0
  0
VERTEX
  8
83762X1
  6
CONTINUOUS
 62
         7
  5
481
 10
17.211187154
 20
16.3460122064
 30
0.0
  0
VERTEX
  8
83762X1
  6
CONTINUOUS
 62
         7
  5
482
 10
17.1618537377
 20
16.3202197181
 30
0.0
  0
VERTEX
  8
83762X1
  6
CONTINUOUS
 62
         7
  5
483
 10
17.1245895682
 20
16.286732261
 30
0.0
  0
VERTEX
  8
83762X1
  6
CONTINUOUS
 62
         7
  5
484
 10
17.1040501468
 20
16.2487367357
 30
0.0
  0
VERTEX
  8
83762X1
  6
CONTINUOUS
 62
         7
  5
485
 10
17.101477958
 20
16.2103400034
 30
0.0
  0
VERTEX
  8
83762X1
  6
CONTINUOUS
 62
         7
  5
486
 10
17.1145804594
 20
16.1752094438
 30
0.0
  0
VERTEX
  8
83762X1
  6
CONTINUOUS
 62
         7
  5
487
 10
17.1419004607
 20
16.1429203244
 30
0.0
  0
VERTEX
  8
83762X1
  6
CONTINUOUS
 62
         7
  5
488
 10
17.1850381128
 20
16.1136589375
 30
0.0
  0
VERTEX
  8
83762X1
  6
CONTINUOUS
 62
         7
  5
489
 10
17.2418682359
 20
16.0911261112
 30
0.0
  0
VERTEX
  8
83762X1
  6
CONTINUOUS
 62
         7
  5
48A
 10
17.3070165445
 20
16.0781063117
 30
0.0
  0
VERTEX
  8
83762X1
  6
CONTINUOUS
 62
         7
  5
48B
 10
17.3734112624
 20
16.0754426827
 30
0.0
  0
VERTEX
  8
83762X1
  6
CONTINUOUS
 62
         7
  5
48C
 10
17.4346328873
 20
16.0819248848
 30
0.0
  0
SEQEND
  8
83762X1
  6
CONTINUOUS
 62
         7
  5
48D
  0
LINE
  8
83763X1
  6
CONTINUOUS
 62
         7
  5
48F
 10
18.0013811407
 20
14.7116892223
 30
0.0
 11
18.3195791922
 21
14.895400953
 31
0.0
  0
LINE
  8
83763X1
  6
CONTINUOUS
 62
         7
  5
490
 10
17.9981756938
 20
15.1054582467
 30
0.0
 11
18.3195662618
 21
14.9199033158
 31
0.0
  0
ARC
  8
83763X1
  6
CONTINUOUS
 62
         7
  5
491
 10
-461.1059451275
 20
71.7003853092
 30
0.0
 40
482.1015777892
 50
353.2318849851
 51
353.2334642956
  0
LINE
  8
83763X1
  6
CONTINUOUS
 62
         7
  5
492
 10
17.0025728584
 20
14.8433608163
 30
0.0
 11
17.0018566637
 21
14.8519392773
 31
0.0
  0
POLYLINE
  8
83763X1
  6
CONTINUOUS
 62
         7
  5
493
 66
         1
 10
0.0
 20
0.0
 30
0.0
  0
VERTEX
  8
83763X1
  6
CONTINUOUS
 62
         7
  5
494
 10
17.9981756938
 20
15.1054582467
 30
0.0
  0
VERTEX
  8
83763X1
  6
CONTINUOUS
 62
         7
  5
495
 10
18.0433177096
 20
15.1619594984
 30
0.0
  0
VERTEX
  8
83763X1
  6
CONTINUOUS
 62
         7
  5
496
 10
18.0766388271
 20
15.2221409128
 30
0.0
  0
VERTEX
  8
83763X1
  6
CONTINUOUS
 62
         7
  5
497
 10
18.096945251
 20
15.2847243097
 30
0.0
  0
VERTEX
  8
83763X1
  6
CONTINUOUS
 62
         7
  5
498
 10
18.1036124103
 20
15.3482799142
 30
0.0
  0
VERTEX
  8
83763X1
  6
CONTINUOUS
 62
         7
  5
499
 10
18.0966438159
 20
15.4113331813
 30
0.0
  0
VERTEX
  8
83763X1
  6
CONTINUOUS
 62
         7
  5
49A
 10
18.0766589711
 20
15.4724766788
 30
0.0
  0
SEQEND
  8
83763X1
  6
CONTINUOUS
 62
         7
  5
49B
  0
LINE
  8
83763X1
  6
CONTINUOUS
 62
         7
  5
49C
 10
17.4353712041
 20
15.8427243437
 30
0.0
 11
18.0766589711
 21
15.4724766788
 31
0.0
  0
POLYLINE
  8
83763X1
  6
CONTINUOUS
 62
         7
  5
49D
 66
         1
 10
0.0
 20
0.0
 30
0.0
  0
VERTEX
  8
83763X1
  6
CONTINUOUS
 62
         7
  5
49E
 10
17.4353712041
 20
15.8427243437
 30
0.0
  0
VERTEX
  8
83763X1
  6
CONTINUOUS
 62
         7
  5
49F
 10
17.2781941842
 20
15.8571275846
 30
0.0
  0
VERTEX
  8
83763X1
  6
CONTINUOUS
 62
         7
  5
4A0
 10
17.1050427939
 20
15.8540620465
 30
0.0
  0
VERTEX
  8
83763X1
  6
CONTINUOUS
 62
         7
  5
4A1
 10
16.9245440996
 20
15.8292543259
 30
0.0
  0
VERTEX
  8
83763X1
  6
CONTINUOUS
 62
         7
  5
4A2
 10
16.749084006
 20
15.7804471326
 30
0.0
  0
VERTEX
  8
83763X1
  6
CONTINUOUS
 62
         7
  5
4A3
 10
16.5928244326
 20
15.7086315476
 30
0.0
  0
VERTEX
  8
83763X1
  6
CONTINUOUS
 62
         7
  5
4A4
 10
16.4865407838
 20
15.6344403283
 30
0.0
  0
VERTEX
  8
83763X1
  6
CONTINUOUS
 62
         7
  5
4A5
 10
16.4074138457
 20
15.5516023965
 30
0.0
  0
VERTEX
  8
83763X1
  6
CONTINUOUS
 62
         7
  5
4A6
 10
16.3573527613
 20
15.464882073
 30
0.0
  0
VERTEX
  8
83763X1
  6
CONTINUOUS
 62
         7
  5
4A7
 10
16.3352951414
 20
15.3788114904
 30
0.0
  0
VERTEX
  8
83763X1
  6
CONTINUOUS
 62
         7
  5
4A8
 10
16.3379061584
 20
15.2970697829
 30
0.0
  0
VERTEX
  8
83763X1
  6
CONTINUOUS
 62
         7
  5
4A9
 10
16.3605688967
 20
15.2221869422
 30
0.0
  0
SEQEND
  8
83763X1
  6
CONTINUOUS
 62
         7
  5
4AA
  0
LINE
  8
83763X1
  6
CONTINUOUS
 62
         7
  5
4AB
 10
17.0018566637
 20
14.8519392773
 30
0.0
 11
16.3605688967
 21
15.2221869422
 31
0.0
  0
POLYLINE
  8
83763X1
  6
CONTINUOUS
 62
         7
  5
4AC
 66
         1
 10
0.0
 20
0.0
 30
0.0
  0
VERTEX
  8
83763X1
  6
CONTINUOUS
 62
         7
  5
4AD
 10
17.0018566637
 20
14.8519392773
 30
0.0
  0
VERTEX
  8
83763X1
  6
CONTINUOUS
 62
         7
  5
4AE
 10
17.107760308
 20
14.8404010218
 30
0.0
  0
VERTEX
  8
83763X1
  6
CONTINUOUS
 62
         7
  5
4AF
 10
17.2169717702
 20
14.8363777019
 30
0.0
  0
VERTEX
  8
83763X1
  6
CONTINUOUS
 62
         7
  5
4B0
 10
17.3270533062
 20
14.8402269882
 30
0.0
  0
VERTEX
  8
83763X1
  6
CONTINUOUS
 62
         7
  5
4B1
 10
17.4354509295
 20
14.8519509075
 30
0.0
  0
VERTEX
  8
83763X1
  6
CONTINUOUS
 62
         7
  5
4B2
 10
17.5396881968
 20
14.8711888636
 30
0.0
  0
VERTEX
  8
83763X1
  6
CONTINUOUS
 62
         7
  5
4B3
 10
17.6375512354
 20
14.8972516186
 30
0.0
  0
SEQEND
  8
83763X1
  6
CONTINUOUS
 62
         7
  5
4B4
  0
LINE
  8
83763X1
  6
CONTINUOUS
 62
         7
  5
4B5
 10
16.3618321873
 20
15.2132926152
 30
0.0
 11
16.3605688967
 21
15.2221869422
 31
0.0
  0
LINE
  8
83763X1
  6
CONTINUOUS
 62
         7
  5
4B7
 10
16.6126899822
 20
15.034171149
 30
0.0
 11
16.7617905126
 21
14.9480879176
 31
0.0
  0
POLYLINE
  8
83763X1
  6
CONTINUOUS
 62
         7
  5
4B8
 66
         1
 10
0.0
 20
0.0
 30
0.0
  0
VERTEX
  8
83763X1
  6
CONTINUOUS
 62
         7
  5
4B9
 10
16.5908070224
 20
15.0239391719
 30
0.0
  0
VERTEX
  8
83763X1
  6
CONTINUOUS
 62
         7
  5
4BA
 10
16.5987152631
 20
15.0249117882
 30
0.0
  0
VERTEX
  8
83763X1
  6
CONTINUOUS
 62
         7
  5
4BB
 10
16.6054469414
 20
15.028009046
 30
0.0
  0
SEQEND
  8
83763X1
  6
CONTINUOUS
 62
         7
  5
4BC
  0
LINE
  8
83763X1
  6
CONTINUOUS
 62
         7
  5
4BD
 10
16.6162643696
 20
15.0092413656
 30
0.0
 11
16.6162643696
 21
15.0321074755
 31
0.0
  0
LINE
  8
83763X1
  6
CONTINUOUS
 62
         7
  5
4BE
 10
16.6443378143
 20
15.0158992646
 30
0.0
 11
16.6443378143
 21
14.9930331548
 31
0.0
  0
LINE
  8
83763X1
  6
CONTINUOUS
 62
         7
  5
4BF
 10
17.6375512354
 20
14.8972516186
 30
0.0
 11
17.9589418034
 21
14.7116966876
 31
0.0
  0
LINE
  8
83763X1
  6
CONTINUOUS
 62
         7
  5
4C0
 10
18.318120778
 20
14.848018632
 30
0.0
 11
18.3195791922
 21
14.895400953
 31
0.0
  0
POLYLINE
  8
83763X1
  6
CONTINUOUS
 62
         7
  5
4C1
 66
         1
 10
0.0
 20
0.0
 30
0.0
  0
VERTEX
  8
83763X1
  6
CONTINUOUS
 62
         7
  5
4C2
 10
18.3195791922
 20
14.895400953
 30
0.0
  0
VERTEX
  8
83763X1
  6
CONTINUOUS
 62
         7
  5
4C3
 10
18.3272419153
 20
14.9029559034
 30
0.0
  0
VERTEX
  8
83763X1
  6
CONTINUOUS
 62
         7
  5
4C4
 10
18.3272369602
 20
14.9123456681
 30
0.0
  0
VERTEX
  8
83763X1
  6
CONTINUOUS
 62
         7
  5
4C5
 10
18.3195662618
 20
14.9199033158
 30
0.0
  0
SEQEND
  8
83763X1
  6
CONTINUOUS
 62
         7
  5
4C6
  0
POLYLINE
  8
83763X1
  6
CONTINUOUS
 62
         7
  5
4C7
 66
         1
 10
0.0
 20
0.0
 30
0.0
  0
VERTEX
  8
83763X1
  6
CONTINUOUS
 62
         7
  5
4C8
 10
18.0722218649
 20
15.1755190489
 30
0.0
  0
VERTEX
  8
83763X1
  6
CONTINUOUS
 62
         7
  5
4C9
 10
18.0841357607
 20
15.2106831533
 30
0.0
  0
VERTEX
  8
83763X1
  6
CONTINUOUS
 62
         7
  5
4CA
 10
18.0917095908
 20
15.2462458714
 30
0.0
  0
SEQEND
  8
83763X1
  6
CONTINUOUS
 62
         7
  5
4CB
  0
LINE
  8
83763X1
  6
CONTINUOUS
 62
         7
  5
4CC
 10
16.6144049995
 20
15.0331809833
 30
0.0
 11
16.6054469414
 21
15.028009046
 31
0.0
  0
LINE
  8
83763X1
  6
CONTINUOUS
 62
         7
  5
4CD
 10
16.6054469414
 20
15.028009046
 30
0.0
 11
16.6054469414
 21
15.0154868107
 31
0.0
  0
LINE
  8
83763X1
  6
CONTINUOUS
 62
         7
  5
4CE
 10
16.6086532598
 20
15.0413974344
 30
0.0
 11
16.762877713
 21
14.9523559048
 31
0.0
  0
POLYLINE
  8
83763X1
  6
CONTINUOUS
 62
         7
  5
4CF
 66
         1
 10
0.0
 20
0.0
 30
0.0
  0
VERTEX
  8
83763X1
  6
CONTINUOUS
 62
         7
  5
4D0
 10
16.7682054827
 20
14.9488784463
 30
0.0
  0
VERTEX
  8
83763X1
  6
CONTINUOUS
 62
         7
  5
4D1
 10
16.7655368775
 20
14.9507201271
 30
0.0
  0
VERTEX
  8
83763X1
  6
CONTINUOUS
 62
         7
  5
4D2
 10
16.762877713
 20
14.9523559048
 30
0.0
  0
SEQEND
  8
83763X1
  6
CONTINUOUS
 62
         7
  5
4D3
  0
POLYLINE
  8
83763X1
  6
CONTINUOUS
 62
         7
  5
4D4
 66
         1
 10
0.0
 20
0.0
 30
0.0
  0
VERTEX
  8
83763X1
  6
CONTINUOUS
 62
         7
  5
4D5
 10
16.6077948676
 20
15.036511588
 30
0.0
  0
VERTEX
  8
83763X1
  6
CONTINUOUS
 62
         7
  5
4D6
 10
16.6054469414
 20
15.028009046
 30
0.0
  0
SEQEND
  8
83763X1
  6
CONTINUOUS
 62
         7
  5
4D7
  0
POLYLINE
  8
83763X1
  6
CONTINUOUS
 62
         7
  5
4D8
 66
         1
 10
0.0
 20
0.0
 30
0.0
  0
VERTEX
  8
83763X1
  6
CONTINUOUS
 62
         7
  5
4D9
 10
16.6086532598
 20
15.0413974344
 30
0.0
  0
VERTEX
  8
83763X1
  6
CONTINUOUS
 62
         7
  5
4DA
 10
16.5975508451
 20
15.0459182615
 30
0.0
  0
VERTEX
  8
83763X1
  6
CONTINUOUS
 62
         7
  5
4DB
 10
16.5875857554
 20
15.0457736987
 30
0.0
  0
VERTEX
  8
83763X1
  6
CONTINUOUS
 62
         7
  5
4DC
 10
16.580628361
 20
15.0405752219
 30
0.0
  0
VERTEX
  8
83763X1
  6
CONTINUOUS
 62
         7
  5
4DD
 10
16.5775680338
 20
15.0315827055
 30
0.0
  0
SEQEND
  8
83763X1
  6
CONTINUOUS
 62
         7
  5
4DE
  0
POLYLINE
  8
83763X1
  6
CONTINUOUS
 62
         7
  5
4DF
 66
         1
 10
0.0
 20
0.0
 30
0.0
  0
VERTEX
  8
83763X1
  6
CONTINUOUS
 62
         7
  5
4E0
 10
16.6086532598
 20
15.0413974344
 30
0.0
  0
VERTEX
  8
83763X1
  6
CONTINUOUS
 62
         7
  5
4E1
 10
16.6126899822
 20
15.034171149
 30
0.0
  0
SEQEND
  8
83763X1
  6
CONTINUOUS
 62
         7
  5
4E2
  0
POLYLINE
  8
83763X1
  6
CONTINUOUS
 62
         7
  5
4E3
 66
         1
 10
0.0
 20
0.0
 30
0.0
  0
VERTEX
  8
83763X1
  6
CONTINUOUS
 62
         7
  5
4E4
 10
16.762877713
 20
14.9523559048
 30
0.0
  0
VERTEX
  8
83763X1
  6
CONTINUOUS
 62
         7
  5
4E5
 10
16.7632873697
 20
14.9502155275
 30
0.0
  0
VERTEX
  8
83763X1
  6
CONTINUOUS
 62
         7
  5
4E6
 10
16.7639971648
 20
14.9483446193
 30
0.0
  0
SEQEND
  8
83763X1
  6
CONTINUOUS
 62
         7
  5
4E7
  0
LINE
  8
83763X1
  6
CONTINUOUS
 62
         7
  5
4E8
 10
17.9586948762
 20
14.7036742853
 30
0.0
 11
17.9589418034
 21
14.7116966876
 31
0.0
  0
LINE
  8
83763X1
  6
CONTINUOUS
 62
         7
  5
4E9
 10
18.0013811407
 20
14.7116892223
 30
0.0
 11
18.0004354556
 21
14.6809649247
 31
0.0
  0
POLYLINE
  8
83763X1
  6
CONTINUOUS
 62
         7
  5
4EA
 66
         1
 10
0.0
 20
0.0
 30
0.0
  0
VERTEX
  8
83763X1
  6
CONTINUOUS
 62
         7
  5
4EB
 10
17.9589418034
 20
14.7116966876
 30
0.0
  0
VERTEX
  8
83763X1
  6
CONTINUOUS
 62
         7
  5
4EC
 10
17.98016415
 20
14.7066183495
 30
0.0
  0
VERTEX
  8
83763X1
  6
CONTINUOUS
 62
         7
  5
4ED
 10
18.0013811407
 20
14.7116892223
 30
0.0
  0
SEQEND
  8
83763X1
  6
CONTINUOUS
 62
         7
  5
4EE
  0
LINE
  8
83763X1
  6
CONTINUOUS
 62
         7
  5
4EF
 10
18.0917095908
 20
15.2462458714
 30
0.0
 11
18.1002720511
 21
15.3029697984
 31
0.0
  0
LINE
  8
83763X1
  6
CONTINUOUS
 62
         7
  5
4F0
 10
16.3369558167
 20
15.3029697984
 30
0.0
 11
16.3445538434
 21
15.2526349765
 31
0.0
  0
LINE
  8
83763X1
  6
CONTINUOUS
 62
         7
  5
4F1
 10
18.32668382
 20
14.8529625066
 30
0.0
 11
18.3283574658
 21
14.9073374722
 31
0.0
  0
LINE
  8
83763X1
  6
CONTINUOUS
 62
         7
  5
4F2
 10
17.4188291919
 20
15.9275896828
 30
0.0
 11
17.4273916522
 21
15.8708657558
 31
0.0
  0
LINE
  8
83763X1
  6
CONTINUOUS
 62
         7
  5
4F3
 10
19.173582966
 20
15.8708657558
 30
0.0
 11
19.1821454263
 21
15.9275896828
 31
0.0
  0
LINE
  8
83763X1
  6
CONTINUOUS
 62
         7
  5
4F4
 10
19.4085571952
 20
15.477582391
 30
0.0
 11
19.410230841
 21
15.5319573566
 31
0.0
  0
LINE
  8
83763X1
  6
CONTINUOUS
 62
         7
  5
4F5
 10
19.080049069
 20
15.7300781312
 30
0.0
 11
19.401439637
 21
15.5445232002
 31
0.0
  0
LINE
  8
83763X1
  6
CONTINUOUS
 62
         7
  5
4F6
 10
19.0832545159
 20
15.3363091067
 30
0.0
 11
19.4014525674
 21
15.5200208374
 31
0.0
  0
ARC
  8
83763X1
  6
CONTINUOUS
 62
         7
  5
4F7
 10
-460.0240797111
 20
72.3250061388
 30
0.0
 40
482.1015858039
 50
353.2318929308
 51
353.2334642955
  0
POLYLINE
  8
83763X1
  6
CONTINUOUS
 62
         7
  5
4F8
 66
         1
 10
0.0
 20
0.0
 30
0.0
  0
VERTEX
  8
83763X1
  6
CONTINUOUS
 62
         7
  5
4F9
 10
19.080049069
 20
15.7300781312
 30
0.0
  0
VERTEX
  8
83763X1
  6
CONTINUOUS
 62
         7
  5
4FA
 10
19.1251910848
 20
15.7865793828
 30
0.0
  0
VERTEX
  8
83763X1
  6
CONTINUOUS
 62
         7
  5
4FB
 10
19.1585122023
 20
15.8467607972
 30
0.0
  0
VERTEX
  8
83763X1
  6
CONTINUOUS
 62
         7
  5
4FC
 10
19.1788186262
 20
15.9093441942
 30
0.0
  0
VERTEX
  8
83763X1
  6
CONTINUOUS
 62
         7
  5
4FD
 10
19.1854857856
 20
15.9728997986
 30
0.0
  0
VERTEX
  8
83763X1
  6
CONTINUOUS
 62
         7
  5
4FE
 10
19.1785171911
 20
16.0359530657
 30
0.0
  0
VERTEX
  8
83763X1
  6
CONTINUOUS
 62
         7
  5
4FF
 10
19.1585323463
 20
16.0970965633
 30
0.0
  0
SEQEND
  8
83763X1
  6
CONTINUOUS
 62
         7
  5
500
  0
LINE
  8
83763X1
  6
CONTINUOUS
 62
         7
  5
501
 10
18.5172445794
 20
16.4673442281
 30
0.0
 11
19.1585323463
 21
16.0970965633
 31
0.0
  0
POLYLINE
  8
83763X1
  6
CONTINUOUS
 62
         7
  5
502
 66
         1
 10
0.0
 20
0.0
 30
0.0
  0
VERTEX
  8
83763X1
  6
CONTINUOUS
 62
         7
  5
503
 10
18.5172445794
 20
16.4673442281
 30
0.0
  0
VERTEX
  8
83763X1
  6
CONTINUOUS
 62
         7
  5
504
 10
18.3600675594
 20
16.481747469
 30
0.0
  0
VERTEX
  8
83763X1
  6
CONTINUOUS
 62
         7
  5
505
 10
18.1869161691
 20
16.4786819309
 30
0.0
  0
VERTEX
  8
83763X1
  6
CONTINUOUS
 62
         7
  5
506
 10
18.0064174748
 20
16.4538742103
 30
0.0
  0
VERTEX
  8
83763X1
  6
CONTINUOUS
 62
         7
  5
507
 10
17.8309573812
 20
16.405067017
 30
0.0
  0
VERTEX
  8
83763X1
  6
CONTINUOUS
 62
         7
  5
508
 10
17.6746978078
 20
16.333251432
 30
0.0
  0
VERTEX
  8
83763X1
  6
CONTINUOUS
 62
         7
  5
509
 10
17.5684141591
 20
16.2590602127
 30
0.0
  0
VERTEX
  8
83763X1
  6
CONTINUOUS
 62
         7
  5
50A
 10
17.4892872209
 20
16.1762222809
 30
0.0
  0
VERTEX
  8
83763X1
  6
CONTINUOUS
 62
         7
  5
50B
 10
17.4392261365
 20
16.0895019574
 30
0.0
  0
VERTEX
  8
83763X1
  6
CONTINUOUS
 62
         7
  5
50C
 10
17.4171685166
 20
16.0034313748
 30
0.0
  0
VERTEX
  8
83763X1
  6
CONTINUOUS
 62
         7
  5
50D
 10
17.4197795337
 20
15.9216896673
 30
0.0
  0
VERTEX
  8
83763X1
  6
CONTINUOUS
 62
         7
  5
50E
 10
17.442442272
 20
15.8468068266
 30
0.0
  0
SEQEND
  8
83763X1
  6
CONTINUOUS
 62
         7
  5
50F
  0
LINE
  8
83763X1
  6
CONTINUOUS
 62
         7
  5
510
 10
17.4437055626
 20
15.8379124996
 30
0.0
 11
17.442442272
 21
15.8468068266
 31
0.0
  0
LINE
  8
83763X1
  6
CONTINUOUS
 62
         7
  5
511
 10
18.0861370534
 20
15.4477283456
 30
0.0
 11
18.0837300389
 21
15.4765591617
 31
0.0
  0
LINE
  8
83763X1
  6
CONTINUOUS
 62
         7
  5
512
 10
18.0837300389
 20
15.4765591617
 30
0.0
 11
17.442442272
 21
15.8468068266
 31
0.0
  0
POLYLINE
  8
83763X1
  6
CONTINUOUS
 62
         7
  5
513
 66
         1
 10
0.0
 20
0.0
 30
0.0
  0
VERTEX
  8
83763X1
  6
CONTINUOUS
 62
         7
  5
514
 10
18.0837300389
 20
15.4765591617
 30
0.0
  0
VERTEX
  8
83763X1
  6
CONTINUOUS
 62
         7
  5
515
 10
18.1896336832
 20
15.4650209062
 30
0.0
  0
VERTEX
  8
83763X1
  6
CONTINUOUS
 62
         7
  5
516
 10
18.2988451454
 20
15.4609975863
 30
0.0
  0
VERTEX
  8
83763X1
  6
CONTINUOUS
 62
         7
  5
517
 10
18.4089266814
 20
15.4648468726
 30
0.0
  0
VERTEX
  8
83763X1
  6
CONTINUOUS
 62
         7
  5
518
 10
18.5173243047
 20
15.4765707919
 30
0.0
  0
VERTEX
  8
83763X1
  6
CONTINUOUS
 62
         7
  5
519
 10
18.621561572
 20
15.495808748
 30
0.0
  0
VERTEX
  8
83763X1
  6
CONTINUOUS
 62
         7
  5
51A
 10
18.7194246106
 20
15.521871503
 30
0.0
  0
SEQEND
  8
83763X1
  6
CONTINUOUS
 62
         7
  5
51B
  0
LINE
  8
83763X1
  6
CONTINUOUS
 62
         7
  5
51C
 10
18.7194246106
 20
15.521871503
 30
0.0
 11
19.0408151786
 21
15.336316572
 31
0.0
  0
LINE
  8
83763X1
  6
CONTINUOUS
 62
         7
  5
51D
 10
19.3999941532
 20
15.4726385164
 30
0.0
 11
19.4014525674
 21
15.5200208374
 31
0.0
  0
POLYLINE
  8
83763X1
  6
CONTINUOUS
 62
         7
  5
51E
 66
         1
 10
0.0
 20
0.0
 30
0.0
  0
VERTEX
  8
83763X1
  6
CONTINUOUS
 62
         7
  5
51F
 10
19.4014525674
 20
15.5200208374
 30
0.0
  0
VERTEX
  8
83763X1
  6
CONTINUOUS
 62
         7
  5
520
 10
19.4091152906
 20
15.5275757878
 30
0.0
  0
VERTEX
  8
83763X1
  6
CONTINUOUS
 62
         7
  5
521
 10
19.4091103354
 20
15.5369655525
 30
0.0
  0
VERTEX
  8
83763X1
  6
CONTINUOUS
 62
         7
  5
522
 10
19.401439637
 20
15.5445232002
 30
0.0
  0
SEQEND
  8
83763X1
  6
CONTINUOUS
 62
         7
  5
523
  0
POLYLINE
  8
83763X1
  6
CONTINUOUS
 62
         7
  5
524
 66
         1
 10
0.0
 20
0.0
 30
0.0
  0
VERTEX
  8
83763X1
  6
CONTINUOUS
 62
         7
  5
525
 10
19.1540952401
 20
15.8001389333
 30
0.0
  0
VERTEX
  8
83763X1
  6
CONTINUOUS
 62
         7
  5
526
 10
19.166009136
 20
15.8353030378
 30
0.0
  0
VERTEX
  8
83763X1
  6
CONTINUOUS
 62
         7
  5
527
 10
19.173582966
 20
15.8708657558
 30
0.0
  0
SEQEND
  8
83763X1
  6
CONTINUOUS
 62
         7
  5
528
  0
POLYLINE
  8
83763X1
  6
CONTINUOUS
 62
         7
  5
529
 66
         1
 10
0.0
 20
0.0
 30
0.0
  0
VERTEX
  8
83763X1
  6
CONTINUOUS
 62
         7
  5
52A
 10
18.0938370321
 20
15.4230715589
 30
0.0
  0
VERTEX
  8
83763X1
  6
CONTINUOUS
 62
         7
  5
52B
 10
18.1013720372
 20
15.4220363501
 30
0.0
  0
VERTEX
  8
83763X1
  6
CONTINUOUS
 62
         7
  5
52C
 10
18.1089225942
 20
15.4210396283
 30
0.0
  0
SEQEND
  8
83763X1
  6
CONTINUOUS
 62
         7
  5
52D
  0
POLYLINE
  8
83763X1
  6
CONTINUOUS
 62
         7
  5
52E
 66
         1
 10
0.0
 20
0.0
 30
0.0
  0
VERTEX
  8
83763X1
  6
CONTINUOUS
 62
         7
  5
52F
 10
17.4273916522
 20
15.8708657558
 30
0.0
  0
VERTEX
  8
83763X1
  6
CONTINUOUS
 62
         7
  5
530
 10
17.4298283471
 20
15.8569498848
 30
0.0
  0
VERTEX
  8
83763X1
  6
CONTINUOUS
 62
         7
  5
531
 10
17.4329303097
 20
15.8430782145
 30
0.0
  0
SEQEND
  8
83763X1
  6
CONTINUOUS
 62
         7
  5
532
  0
LINE
  8
83763X1
  6
CONTINUOUS
 62
         7
  5
533
 10
19.0405682514
 20
15.3282941697
 30
0.0
 11
19.0408151786
 21
15.336316572
 31
0.0
  0
LINE
  8
83763X1
  6
CONTINUOUS
 62
         7
  5
534
 10
19.0832545159
 20
15.3363091067
 30
0.0
 11
19.0823088308
 21
15.3055848091
 31
0.0
  0
POLYLINE
  8
83763X1
  6
CONTINUOUS
 62
         7
  5
535
 66
         1
 10
0.0
 20
0.0
 30
0.0
  0
VERTEX
  8
83763X1
  6
CONTINUOUS
 62
         7
  5
536
 10
19.0408151786
 20
15.336316572
 30
0.0
  0
VERTEX
  8
83763X1
  6
CONTINUOUS
 62
         7
  5
537
 10
19.0620375252
 20
15.3312382339
 30
0.0
  0
VERTEX
  8
83763X1
  6
CONTINUOUS
 62
         7
  5
538
 10
19.0832545159
 20
15.3363091067
 30
0.0
  0
SEQEND
  8
83763X1
  6
CONTINUOUS
 62
         7
  5
539
  0
LINE
  8
81090X
  6
CONTINUOUS
 62
         7
  5
53A
 10
16.949080511
 20
15.9990658447
 30
0.0
 11
16.949080511
 21
15.9704884644
 31
0.0
  0
LINE
  8
81090X
  6
CONTINUOUS
 62
         7
  5
53B
 10
17.0259215661
 20
15.8954182893
 30
0.0
 11
17.0259215661
 21
15.9239956697
 31
0.0
  0
LINE
  8
81090X
  6
CONTINUOUS
 62
         7
  5
53C
 10
17.0259215661
 20
15.9239956697
 30
0.0
 11
16.7777147086
 21
15.7903641168
 31
0.0
  0
POLYLINE
  8
81090X
  6
CONTINUOUS
 62
         7
  5
53D
 66
         1
 10
0.0
 20
0.0
 30
0.0
  0
VERTEX
  8
81090X
  6
CONTINUOUS
 62
         7
  5
53E
 10
16.5323290499
 20
15.8629494014
 30
0.0
  0
VERTEX
  8
81090X
  6
CONTINUOUS
 62
         7
  5
53F
 10
16.5324229858
 20
15.8589930095
 30
0.0
  0
VERTEX
  8
81090X
  6
CONTINUOUS
 62
         7
  5
540
 10
16.5327047228
 20
15.8550395907
 30
0.0
  0
SEQEND
  8
81090X
  6
CONTINUOUS
 62
         7
  5
541
  0
POLYLINE
  8
81090X
  6
CONTINUOUS
 62
         7
  5
542
 66
         1
 10
0.0
 20
0.0
 30
0.0
  0
VERTEX
  8
81090X
  6
CONTINUOUS
 62
         7
  5
543
 10
16.949080511
 20
15.9990658447
 30
0.0
  0
VERTEX
  8
81090X
  6
CONTINUOUS
 62
         7
  5
544
 10
16.9013408655
 20
16.0184600815
 30
0.0
  0
VERTEX
  8
81090X
  6
CONTINUOUS
 62
         7
  5
545
 10
16.8434826027
 20
16.0314794439
 30
0.0
  0
VERTEX
  8
81090X
  6
CONTINUOUS
 62
         7
  5
546
 10
16.7797904967
 20
16.0358569076
 30
0.0
  0
VERTEX
  8
81090X
  6
CONTINUOUS
 62
         7
  5
547
 10
16.7162654953
 20
16.0307335904
 30
0.0
  0
VERTEX
  8
81090X
  6
CONTINUOUS
 62
         7
  5
548
 10
16.6588770992
 20
16.0170385552
 30
0.0
  0
VERTEX
  8
81090X
  6
CONTINUOUS
 62
         7
  5
549
 10
16.6118294599
 20
15.9970885958
 30
0.0
  0
VERTEX
  8
81090X
  6
CONTINUOUS
 62
         7
  5
54A
 10
16.5740774118
 20
15.971383435
 30
0.0
  0
VERTEX
  8
81090X
  6
CONTINUOUS
 62
         7
  5
54B
 10
16.5464114849
 20
15.9392862573
 30
0.0
  0
VERTEX
  8
81090X
  6
CONTINUOUS
 62
         7
  5
54C
 10
16.5331279753
 20
15.9030568065
 30
0.0
  0
VERTEX
  8
81090X
  6
CONTINUOUS
 62
         7
  5
54D
 10
16.5362485588
 20
15.8660683719
 30
0.0
  0
VERTEX
  8
81090X
  6
CONTINUOUS
 62
         7
  5
54E
 10
16.5547078365
 20
15.8318370751
 30
0.0
  0
VERTEX
  8
81090X
  6
CONTINUOUS
 62
         7
  5
54F
 10
16.5848876626
 20
15.8029888452
 30
0.0
  0
SEQEND
  8
81090X
  6
CONTINUOUS
 62
         7
  5
550
  0
POLYLINE
  8
81090X
  6
CONTINUOUS
 62
         7
  5
551
 66
         1
 10
0.0
 20
0.0
 30
0.0
  0
VERTEX
  8
81090X
  6
CONTINUOUS
 62
         7
  5
552
 10
17.0259215661
 20
15.9239956697
 30
0.0
  0
VERTEX
  8
81090X
  6
CONTINUOUS
 62
         7
  5
553
 10
17.0081288056
 20
15.9534796411
 30
0.0
  0
VERTEX
  8
81090X
  6
CONTINUOUS
 62
         7
  5
554
 10
16.9797704372
 20
15.9800647182
 30
0.0
  0
SEQEND
  8
81090X
  6
CONTINUOUS
 62
         7
  5
555
  0
LINE
  8
81090X
  6
CONTINUOUS
 62
         7
  5
556
 10
16.9797704372
 20
15.9800647182
 30
0.0
 11
16.6155775888
 21
15.7839877187
 31
0.0
  0
POLYLINE
  8
81090X
  6
CONTINUOUS
 62
         7
  5
557
 66
         1
 10
0.0
 20
0.0
 30
0.0
  0
VERTEX
  8
81090X
  6
CONTINUOUS
 62
         7
  5
558
 10
16.6155775888
 20
15.7839877187
 30
0.0
  0
VERTEX
  8
81090X
  6
CONTINUOUS
 62
         7
  5
559
 10
16.6509434285
 20
15.7687290911
 30
0.0
  0
VERTEX
  8
81090X
  6
CONTINUOUS
 62
         7
  5
55A
 10
16.6904068594
 20
15.7573002184
 30
0.0
  0
SEQEND
  8
81090X
  6
CONTINUOUS
 62
         7
  5
55B
  0
LINE
  8
81090X
  6
CONTINUOUS
 62
         7
  5
55C
 10
16.5323290499
 20
15.8915267817
 30
0.0
 11
16.5323290499
 21
15.8629494014
 31
0.0
  0
LINE
  8
81090X
  6
CONTINUOUS
 62
         7
  5
55E
 10
16.6155775888
 20
15.778242184
 30
0.0
 11
16.6155775888
 21
15.7839877187
 31
0.0
  0
LINE
  8
81090X
  6
CONTINUOUS
 62
         7
  5
55F
 10
16.5848876626
 20
15.8029888452
 30
0.0
 11
16.5848876626
 21
15.7960924263
 31
0.0
  0
LINE
  8
81090X
  6
CONTINUOUS
 62
         7
  5
560
 10
16.949080511
 20
15.9990658447
 30
0.0
 11
16.5848876626
 21
15.8029888452
 31
0.0
  0
LINE
  8
81090X
  6
CONTINUOUS
 62
         7
  5
565
 10
17.5180633612
 20
16.3346743575
 30
0.0
 11
17.5180633612
 21
16.3060969771
 31
0.0
  0
LINE
  8
81090X
  6
CONTINUOUS
 62
         7
  5
566
 10
17.5251981592
 20
16.2183603893
 30
0.0
 11
17.2932092085
 21
16.0844215062
 31
0.0
  0
LINE
  8
81090X
  6
CONTINUOUS
 62
         7
  5
567
 10
17.2932092085
 20
16.0799433063
 30
0.0
 11
17.2932092085
 21
16.0844215062
 31
0.0
  0
POLYLINE
  8
81090X
  6
CONTINUOUS
 62
         7
  5
568
 66
         1
 10
0.0
 20
0.0
 30
0.0
  0
VERTEX
  8
81090X
  6
CONTINUOUS
 62
         7
  5
569
 10
17.1079139698
 20
16.1952635098
 30
0.0
  0
VERTEX
  8
81090X
  6
CONTINUOUS
 62
         7
  5
56A
 10
17.1080079057
 20
16.1913071179
 30
0.0
  0
VERTEX
  8
81090X
  6
CONTINUOUS
 62
         7
  5
56B
 10
17.1082896427
 20
16.1873536992
 30
0.0
  0
SEQEND
  8
81090X
  6
CONTINUOUS
 62
         7
  5
56C
  0
POLYLINE
  8
81090X
  6
CONTINUOUS
 62
         7
  5
56D
 66
         1
 10
0.0
 20
0.0
 30
0.0
  0
VERTEX
  8
81090X
  6
CONTINUOUS
 62
         7
  5
56E
 10
17.5180633612
 20
16.3346743575
 30
0.0
  0
VERTEX
  8
81090X
  6
CONTINUOUS
 62
         7
  5
56F
 10
17.4691804604
 20
16.3530948625
 30
0.0
  0
VERTEX
  8
81090X
  6
CONTINUOUS
 62
         7
  5
570
 10
17.4105704528
 20
16.3649404942
 30
0.0
  0
VERTEX
  8
81090X
  6
CONTINUOUS
 62
         7
  5
571
 10
17.3466525386
 20
16.3680319442
 30
0.0
  0
VERTEX
  8
81090X
  6
CONTINUOUS
 62
         7
  5
572
 10
17.2834759277
 20
16.3616317678
 30
0.0
  0
VERTEX
  8
81090X
  6
CONTINUOUS
 62
         7
  5
573
 10
17.2269503245
 20
16.3467887431
 30
0.0
  0
VERTEX
  8
81090X
  6
CONTINUOUS
 62
         7
  5
574
 10
17.1811372745
 20
16.3259029628
 30
0.0
  0
VERTEX
  8
81090X
  6
CONTINUOUS
 62
         7
  5
575
 10
17.1449620419
 20
16.299452786
 30
0.0
  0
VERTEX
  8
81090X
  6
CONTINUOUS
 62
         7
  5
576
 10
17.1192531689
 20
16.2668177138
 30
0.0
  0
VERTEX
  8
81090X
  6
CONTINUOUS
 62
         7
  5
577
 10
17.1081677383
 20
16.2303426805
 30
0.0
  0
VERTEX
  8
81090X
  6
CONTINUOUS
 62
         7
  5
578
 10
17.1135222866
 20
16.1934396555
 30
0.0
  0
VERTEX
  8
81090X
  6
CONTINUOUS
 62
         7
  5
579
 10
17.1340395227
 20
16.1596011519
 30
0.0
  0
VERTEX
  8
81090X
  6
CONTINUOUS
 62
         7
  5
57A
 10
17.1659447732
 20
16.1313785959
 30
0.0
  0
SEQEND
  8
81090X
  6
CONTINUOUS
 62
         7
  5
57B
  0
POLYLINE
  8
81090X
  6
CONTINUOUS
 62
         7
  5
57C
 66
         1
 10
0.0
 20
0.0
 30
0.0
  0
VERTEX
  8
81090X
  6
CONTINUOUS
 62
         7
  5
57D
 10
17.5904011972
 20
16.2769121916
 30
0.0
  0
VERTEX
  8
81090X
  6
CONTINUOUS
 62
         7
  5
57E
 10
17.5728664103
 20
16.2975417457
 30
0.0
  0
VERTEX
  8
81090X
  6
CONTINUOUS
 62
         7
  5
57F
 10
17.5498831664
 20
16.3163031844
 30
0.0
  0
SEQEND
  8
81090X
  6
CONTINUOUS
 62
         7
  5
580
  0
LINE
  8
81090X
  6
CONTINUOUS
 62
         7
  5
581
 10
17.5498831664
 20
16.3163031844
 30
0.0
 11
17.1977645784
 21
16.1130074228
 31
0.0
  0
POLYLINE
  8
81090X
  6
CONTINUOUS
 62
         7
  5
582
 66
         1
 10
0.0
 20
0.0
 30
0.0
  0
VERTEX
  8
81090X
  6
CONTINUOUS
 62
         7
  5
583
 10
17.1977645784
 20
16.1130074228
 30
0.0
  0
VERTEX
  8
81090X
  6
CONTINUOUS
 62
         7
  5
584
 10
17.2427935395
 20
16.0957168792
 30
0.0
  0
VERTEX
  8
81090X
  6
CONTINUOUS
 62
         7
  5
585
 10
17.2932092085
 20
16.0844215062
 30
0.0
  0
SEQEND
  8
81090X
  6
CONTINUOUS
 62
         7
  5
586
  0
LINE
  8
81090X
  6
CONTINUOUS
 62
         7
  5
587
 10
17.1079139698
 20
16.2238408901
 30
0.0
 11
17.1079139698
 21
16.1952635098
 31
0.0
  0
LINE
  8
81090X
  6
CONTINUOUS
 62
         7
  5
589
 10
17.1977645784
 20
16.1074243644
 30
0.0
 11
17.1977645784
 21
16.1130074228
 31
0.0
  0
LINE
  8
81090X
  6
CONTINUOUS
 62
         7
  5
58A
 10
17.1659447732
 20
16.1313785959
 30
0.0
 11
17.1659447732
 21
16.1247549383
 31
0.0
  0
LINE
  8
81090X
  6
CONTINUOUS
 62
         7
  5
58B
 10
17.5180633612
 20
16.3346743575
 30
0.0
 11
17.1659447732
 21
16.1313785959
 31
0.0
  0
POLYLINE
  8
1_000_700
  6
CONTINUOUS
 62
         7
  5
58C
 66
         1
 10
0.0
 20
0.0
 30
0.0
  0
VERTEX
  8
1_000_700
  6
CONTINUOUS
 62
         7
  5
58D
 10
15.8411760668
 20
15.0605604949
 30
0.0
  0
VERTEX
  8
1_000_700
  6
CONTINUOUS
 62
         7
  5
58E
 10
15.9097944677
 20
14.9201208859
 30
0.0
  0
VERTEX
  8
1_000_700
  6
CONTINUOUS
 62
         7
  5
58F
 10
16.0133214949
 20
14.781009296
 30
0.0
  0
VERTEX
  8
1_000_700
  6
CONTINUOUS
 62
         7
  5
590
 10
16.1523063923
 20
14.6474587384
 30
0.0
  0
VERTEX
  8
1_000_700
  6
CONTINUOUS
 62
         7
  5
591
 10
16.3252447396
 20
14.5238758578
 30
0.0
  0
VERTEX
  8
1_000_700
  6
CONTINUOUS
 62
         7
  5
592
 10
16.5284720639
 20
14.4144214866
 30
0.0
  0
VERTEX
  8
1_000_700
  6
CONTINUOUS
 62
         7
  5
593
 10
16.7563674998
 20
14.3225777899
 30
0.0
  0
VERTEX
  8
1_000_700
  6
CONTINUOUS
 62
         7
  5
594
 10
17.0018574731
 20
14.2507898382
 30
0.0
  0
VERTEX
  8
1_000_700
  6
CONTINUOUS
 62
         7
  5
595
 10
17.2571281388
 20
14.2002562082
 30
0.0
  0
VERTEX
  8
1_000_700
  6
CONTINUOUS
 62
         7
  5
596
 10
17.514401121
 20
14.17090454
 30
0.0
  0
VERTEX
  8
1_000_700
  6
CONTINUOUS
 62
         7
  5
597
 10
17.7666216893
 20
14.1615393356
 30
0.0
  0
VERTEX
  8
1_000_700
  6
CONTINUOUS
 62
         7
  5
598
 10
18.0188422577
 20
14.17090454
 30
0.0
  0
VERTEX
  8
1_000_700
  6
CONTINUOUS
 62
         7
  5
599
 10
18.2761152399
 20
14.2002562082
 30
0.0
  0
VERTEX
  8
1_000_700
  6
CONTINUOUS
 62
         7
  5
59A
 10
18.5313859055
 20
14.2507898382
 30
0.0
  0
VERTEX
  8
1_000_700
  6
CONTINUOUS
 62
         7
  5
59B
 10
18.7768758788
 20
14.3225777899
 30
0.0
  0
VERTEX
  8
1_000_700
  6
CONTINUOUS
 62
         7
  5
59C
 10
19.0047713147
 20
14.4144214866
 30
0.0
  0
VERTEX
  8
1_000_700
  6
CONTINUOUS
 62
         7
  5
59D
 10
19.207998639
 20
14.5238758578
 30
0.0
  0
VERTEX
  8
1_000_700
  6
CONTINUOUS
 62
         7
  5
59E
 10
19.3809369863
 20
14.6474587384
 30
0.0
  0
VERTEX
  8
1_000_700
  6
CONTINUOUS
 62
         7
  5
59F
 10
19.5199218837
 20
14.781009296
 30
0.0
  0
VERTEX
  8
1_000_700
  6
CONTINUOUS
 62
         7
  5
5A0
 10
19.6234489109
 20
14.9201208859
 30
0.0
  0
VERTEX
  8
1_000_700
  6
CONTINUOUS
 62
         7
  5
5A1
 10
19.6920673118
 20
15.0605604949
 30
0.0
  0
SEQEND
  8
1_000_700
  6
CONTINUOUS
 62
         7
  5
5A2
  0
POLYLINE
  8
1_000_700
  6
CONTINUOUS
 62
         7
  5
5A3
 66
         1
 10
0.0
 20
0.0
 30
0.0
  0
VERTEX
  8
1_000_700
  6
CONTINUOUS
 62
         7
  5
5A4
 10
16.3121567596
 20
14.6851686852
 30
0.0
  0
VERTEX
  8
1_000_700
  6
CONTINUOUS
 62
         7
  5
5A5
 10
16.5305277786
 20
14.5665560662
 30
0.0
  0
VERTEX
  8
1_000_700
  6
CONTINUOUS
 62
         7
  5
5A6
 10
16.7923204775
 20
14.4635589264
 30
0.0
  0
VERTEX
  8
1_000_700
  6
CONTINUOUS
 62
         7
  5
5A7
 10
17.0925582505
 20
14.3833216037
 30
0.0
  0
VERTEX
  8
1_000_700
  6
CONTINUOUS
 62
         7
  5
5A8
 10
17.4217762311
 20
14.3322028565
 30
0.0
  0
VERTEX
  8
1_000_700
  6
CONTINUOUS
 62
         7
  5
5A9
 10
17.7666216893
 20
14.3146324446
 30
0.0
  0
VERTEX
  8
1_000_700
  6
CONTINUOUS
 62
         7
  5
5AA
 10
18.1114671475
 20
14.3322028565
 30
0.0
  0
VERTEX
  8
1_000_700
  6
CONTINUOUS
 62
         7
  5
5AB
 10
18.4406851281
 20
14.3833216037
 30
0.0
  0
VERTEX
  8
1_000_700
  6
CONTINUOUS
 62
         7
  5
5AC
 10
18.7409229011
 20
14.4635589264
 30
0.0
  0
VERTEX
  8
1_000_700
  6
CONTINUOUS
 62
         7
  5
5AD
 10
19.0027156
 20
14.5665560662
 30
0.0
  0
VERTEX
  8
1_000_700
  6
CONTINUOUS
 62
         7
  5
5AE
 10
19.221086619
 20
14.6851686852
 30
0.0
  0
SEQEND
  8
1_000_700
  6
CONTINUOUS
 62
         7
  5
5AF
  0
POLYLINE
  8
428003-048
  6
CONTINUOUS
 62
         7
  5
5B0
 66
         1
 10
0.0
 20
0.0
 30
0.0
  0
VERTEX
  8
428003-048
  6
CONTINUOUS
 62
         7
  5
5B1
 10
18.9036465989
 20
14.3373255399
 30
0.0
  0
VERTEX
  8
428003-048
  6
CONTINUOUS
 62
         7
  5
5B2
 10
18.9063350874
 20
14.3255665744
 30
0.0
  0
VERTEX
  8
428003-048
  6
CONTINUOUS
 62
         7
  5
5B3
 10
18.9151083068
 20
14.3137464113
 30
0.0
  0
VERTEX
  8
428003-048
  6
CONTINUOUS
 62
         7
  5
5B4
 10
18.9300138816
 20
14.3034434438
 30
0.0
  0
VERTEX
  8
428003-048
  6
CONTINUOUS
 62
         7
  5
5B5
 10
18.9601227914
 20
14.2938274233
 30
0.0
  0
VERTEX
  8
428003-048
  6
CONTINUOUS
 62
         7
  5
5B6
 10
18.991400887
 20
14.2923250133
 30
0.0
  0
VERTEX
  8
428003-048
  6
CONTINUOUS
 62
         7
  5
5B7
 10
19.0211979512
 20
14.2980178726
 30
0.0
  0
VERTEX
  8
428003-048
  6
CONTINUOUS
 62
         7
  5
5B8
 10
19.0465647928
 20
14.3114401593
 30
0.0
  0
VERTEX
  8
428003-048
  6
CONTINUOUS
 62
         7
  5
5B9
 10
19.0568728832
 20
14.3234730704
 30
0.0
  0
VERTEX
  8
428003-048
  6
CONTINUOUS
 62
         7
  5
5BA
 10
19.0606035319
 20
14.3361511409
 30
0.0
  0
VERTEX
  8
428003-048
  6
CONTINUOUS
 62
         7
  5
5BB
 10
19.0584437624
 20
14.3479463825
 30
0.0
  0
SEQEND
  8
428003-048
  6
CONTINUOUS
 62
         7
  5
5BC
  0
POLYLINE
  8
428003-048
  6
CONTINUOUS
 62
         7
  5
5BD
 66
         1
 10
0.0
 20
0.0
 30
0.0
  0
VERTEX
  8
428003-048
  6
CONTINUOUS
 62
         7
  5
5BE
 10
18.90583273
 20
14.3479463825
 30
0.0
  0
VERTEX
  8
428003-048
  6
CONTINUOUS
 62
         7
  5
5BF
 10
18.9041950478
 20
14.3426733281
 30
0.0
  0
VERTEX
  8
428003-048
  6
CONTINUOUS
 62
         7
  5
5C0
 10
18.9036465989
 20
14.3373255399
 30
0.0
  0
SEQEND
  8
428003-048
  6
CONTINUOUS
 62
         7
  5
5C1
  0
LINE
  8
428003-048
  6
CONTINUOUS
 62
         7
  5
5C3
 10
19.0845207861
 20
14.8783399399
 30
0.0
 11
18.9202805085
 21
14.9731641084
 31
0.0
  0
LINE
  8
428003-048
  6
CONTINUOUS
 62
         7
  5
5C4
 10
19.1108805155
 20
14.8998634892
 30
0.0
 11
18.8958223838
 21
15.0240273594
 31
0.0
  0
POLYLINE
  8
428003-048
  6
CONTINUOUS
 62
         7
  5
5C7
 66
         1
 10
0.0
 20
0.0
 30
0.0
  0
VERTEX
  8
428003-048
  6
CONTINUOUS
 62
         7
  5
5C8
 10
18.9202805085
 20
14.9731641084
 30
0.0
  0
VERTEX
  8
428003-048
  6
CONTINUOUS
 62
         7
  5
5C9
 10
18.913838158
 20
14.9707963892
 30
0.0
  0
VERTEX
  8
428003-048
  6
CONTINUOUS
 62
         7
  5
5CA
 10
18.9076667588
 20
14.9681992115
 30
0.0
  0
SEQEND
  8
428003-048
  6
CONTINUOUS
 62
         7
  5
5CB
  0
LINE
  8
428003-048
  6
CONTINUOUS
 62
         7
  5
5CC
 10
18.8533959769
 20
14.999532462
 30
0.0
 11
19.0684541086
 21
14.8753685918
 31
0.0
  0
POLYLINE
  8
428003-048
  6
CONTINUOUS
 62
         7
  5
5CD
 66
         1
 10
0.0
 20
0.0
 30
0.0
  0
VERTEX
  8
428003-048
  6
CONTINUOUS
 62
         7
  5
5CE
 10
19.1108805155
 20
14.8998634892
 30
0.0
  0
VERTEX
  8
428003-048
  6
CONTINUOUS
 62
         7
  5
5CF
 10
19.1265651332
 20
14.9172127262
 30
0.0
  0
VERTEX
  8
428003-048
  6
CONTINUOUS
 62
         7
  5
5D0
 10
19.1356148347
 20
14.9371821618
 30
0.0
  0
VERTEX
  8
428003-048
  6
CONTINUOUS
 62
         7
  5
5D1
 10
19.1364037718
 20
14.958399462
 30
0.0
  0
VERTEX
  8
428003-048
  6
CONTINUOUS
 62
         7
  5
5D2
 10
19.1285169577
 20
14.9791273986
 30
0.0
  0
VERTEX
  8
428003-048
  6
CONTINUOUS
 62
         7
  5
5D3
 10
19.1129439129
 20
14.997707966
 30
0.0
  0
VERTEX
  8
428003-048
  6
CONTINUOUS
 62
         7
  5
5D4
 10
19.0917397973
 20
15.0129764606
 30
0.0
  0
VERTEX
  8
428003-048
  6
CONTINUOUS
 62
         7
  5
5D5
 10
19.0498199599
 20
15.0302050884
 30
0.0
  0
VERTEX
  8
428003-048
  6
CONTINUOUS
 62
         7
  5
5D6
 10
18.9972096628
 20
15.0387632184
 30
0.0
  0
VERTEX
  8
428003-048
  6
CONTINUOUS
 62
         7
  5
5D7
 10
18.9427251977
 20
15.0362458653
 30
0.0
  0
VERTEX
  8
428003-048
  6
CONTINUOUS
 62
         7
  5
5D8
 10
18.8958223838
 20
15.0240273594
 30
0.0
  0
SEQEND
  8
428003-048
  6
CONTINUOUS
 62
         7
  5
5D9
  0
POLYLINE
  8
428003-048
  6
CONTINUOUS
 62
         7
  5
5DA
 66
         1
 10
0.0
 20
0.0
 30
0.0
  0
VERTEX
  8
428003-048
  6
CONTINUOUS
 62
         7
  5
5DB
 10
18.8533959769
 20
14.999532462
 30
0.0
  0
VERTEX
  8
428003-048
  6
CONTINUOUS
 62
         7
  5
5DC
 10
18.8377113591
 20
14.9821832251
 30
0.0
  0
VERTEX
  8
428003-048
  6
CONTINUOUS
 62
         7
  5
5DD
 10
18.8286616577
 20
14.9622137894
 30
0.0
  0
VERTEX
  8
428003-048
  6
CONTINUOUS
 62
         7
  5
5DE
 10
18.8278727205
 20
14.9409964892
 30
0.0
  0
VERTEX
  8
428003-048
  6
CONTINUOUS
 62
         7
  5
5DF
 10
18.8357595347
 20
14.9202685526
 30
0.0
  0
VERTEX
  8
428003-048
  6
CONTINUOUS
 62
         7
  5
5E0
 10
18.8513325794
 20
14.9016879852
 30
0.0
  0
VERTEX
  8
428003-048
  6
CONTINUOUS
 62
         7
  5
5E1
 10
18.8725366951
 20
14.8864194906
 30
0.0
  0
VERTEX
  8
428003-048
  6
CONTINUOUS
 62
         7
  5
5E2
 10
18.9144565324
 20
14.8691908628
 30
0.0
  0
VERTEX
  8
428003-048
  6
CONTINUOUS
 62
         7
  5
5E3
 10
18.9670668296
 20
14.8606327329
 30
0.0
  0
VERTEX
  8
428003-048
  6
CONTINUOUS
 62
         7
  5
5E4
 10
19.0215512947
 20
14.863150086
 30
0.0
  0
VERTEX
  8
428003-048
  6
CONTINUOUS
 62
         7
  5
5E5
 10
19.0684541086
 20
14.8753685918
 30
0.0
  0
SEQEND
  8
428003-048
  6
CONTINUOUS
 62
         7
  5
5E6
  0
LINE
  8
428003-048
  6
CONTINUOUS
 62
         7
  5
5E7
 10
19.0954464752
 20
14.8855341088
 30
0.0
 11
19.1135458896
 21
14.9022391118
 31
0.0
  0
POLYLINE
  8
428003-048
  6
CONTINUOUS
 62
         7
  5
5E8
 66
         1
 10
0.0
 20
0.0
 30
0.0
  0
VERTEX
  8
428003-048
  6
CONTINUOUS
 62
         7
  5
5E9
 10
19.0256470337
 20
14.4243061312
 30
0.0
  0
VERTEX
  8
428003-048
  6
CONTINUOUS
 62
         7
  5
5EA
 10
19.0335999316
 20
14.4277026852
 30
0.0
  0
VERTEX
  8
428003-048
  6
CONTINUOUS
 62
         7
  5
5EB
 10
19.0407659617
 20
14.4316399574
 30
0.0
  0
SEQEND
  8
428003-048
  6
CONTINUOUS
 62
         7
  5
5EC
  0
POLYLINE
  8
428003-048
  6
CONTINUOUS
 62
         7
  5
5ED
 66
         1
 10
0.0
 20
0.0
 30
0.0
  0
VERTEX
  8
428003-048
  6
CONTINUOUS
 62
         7
  5
5EE
 10
19.0621382462
 20
14.3871318313
 30
0.0
  0
VERTEX
  8
428003-048
  6
CONTINUOUS
 62
         7
  5
5EF
 10
19.0613691207
 20
14.3935211068
 30
0.0
  0
VERTEX
  8
428003-048
  6
CONTINUOUS
 62
         7
  5
5F0
 10
19.0590765331
 20
14.3997875284
 30
0.0
  0
SEQEND
  8
428003-048
  6
CONTINUOUS
 62
         7
  5
5F1
  0
POLYLINE
  8
428003-048
  6
CONTINUOUS
 62
         7
  5
5F2
 66
         1
 10
0.0
 20
0.0
 30
0.0
  0
VERTEX
  8
428003-048
  6
CONTINUOUS
 62
         7
  5
5F3
 10
18.9068334338
 20
14.3715413938
 30
0.0
  0
VERTEX
  8
428003-048
  6
CONTINUOUS
 62
         7
  5
5F4
 10
18.9200808218
 20
14.3579834976
 30
0.0
  0
VERTEX
  8
428003-048
  6
CONTINUOUS
 62
         7
  5
5F5
 10
18.9418911386
 20
14.3472145405
 30
0.0
  0
VERTEX
  8
428003-048
  6
CONTINUOUS
 62
         7
  5
5F6
 10
18.9688807628
 20
14.3415824474
 30
0.0
  0
VERTEX
  8
428003-048
  6
CONTINUOUS
 62
         7
  5
5F7
 10
18.9958425339
 20
14.3416265478
 30
0.0
  0
VERTEX
  8
428003-048
  6
CONTINUOUS
 62
         7
  5
5F8
 10
19.0212477059
 20
14.3468393583
 30
0.0
  0
VERTEX
  8
428003-048
  6
CONTINUOUS
 62
         7
  5
5F9
 10
19.0433605584
 20
14.3574006553
 30
0.0
  0
VERTEX
  8
428003-048
  6
CONTINUOUS
 62
         7
  5
5FA
 10
19.0575948528
 20
14.3717879888
 30
0.0
  0
VERTEX
  8
428003-048
  6
CONTINUOUS
 62
         7
  5
5FB
 10
19.0621382462
 20
14.3871318313
 30
0.0
  0
SEQEND
  8
428003-048
  6
CONTINUOUS
 62
         7
  5
5FC
  0
POLYLINE
  8
428003-048
  6
CONTINUOUS
 62
         7
  5
5FD
 66
         1
 10
0.0
 20
0.0
 30
0.0
  0
VERTEX
  8
428003-048
  6
CONTINUOUS
 62
         7
  5
5FE
 10
19.0621382462
 20
14.4124432254
 30
0.0
  0
VERTEX
  8
428003-048
  6
CONTINUOUS
 62
         7
  5
5FF
 10
19.0613691207
 20
14.4188325008
 30
0.0
  0
VERTEX
  8
428003-048
  6
CONTINUOUS
 62
         7
  5
600
 10
19.0590765331
 20
14.4250989224
 30
0.0
  0
SEQEND
  8
428003-048
  6
CONTINUOUS
 62
         7
  5
601
  0
POLYLINE
  8
428003-048
  6
CONTINUOUS
 62
         7
  5
602
 66
         1
 10
0.0
 20
0.0
 30
0.0
  0
VERTEX
  8
428003-048
  6
CONTINUOUS
 62
         7
  5
603
 10
18.9260355647
 20
14.3795165942
 30
0.0
  0
VERTEX
  8
428003-048
  6
CONTINUOUS
 62
         7
  5
604
 10
18.9516487763
 20
14.369741187
 30
0.0
  0
VERTEX
  8
428003-048
  6
CONTINUOUS
 62
         7
  5
605
 10
18.9829869724
 20
14.3662578032
 30
0.0
  0
VERTEX
  8
428003-048
  6
CONTINUOUS
 62
         7
  5
606
 10
19.0130557613
 20
14.3698439012
 30
0.0
  0
VERTEX
  8
428003-048
  6
CONTINUOUS
 62
         7
  5
607
 10
19.0326801971
 20
14.3766404731
 30
0.0
  0
VERTEX
  8
428003-048
  6
CONTINUOUS
 62
         7
  5
608
 10
19.0487468087
 20
14.3868613347
 30
0.0
  0
VERTEX
  8
428003-048
  6
CONTINUOUS
 62
         7
  5
609
 10
19.0588651296
 20
14.3993667151
 30
0.0
  0
VERTEX
  8
428003-048
  6
CONTINUOUS
 62
         7
  5
60A
 10
19.0621382462
 20
14.4124432254
 30
0.0
  0
SEQEND
  8
428003-048
  6
CONTINUOUS
 62
         7
  5
60B
  0
POLYLINE
  8
428003-048
  6
CONTINUOUS
 62
         7
  5
60C
 66
         1
 10
0.0
 20
0.0
 30
0.0
  0
VERTEX
  8
428003-048
  6
CONTINUOUS
 62
         7
  5
60D
 10
19.0621382462
 20
14.4377546194
 30
0.0
  0
VERTEX
  8
428003-048
  6
CONTINUOUS
 62
         7
  5
60E
 10
19.0620499743
 20
14.4399237747
 30
0.0
  0
VERTEX
  8
428003-048
  6
CONTINUOUS
 62
         7
  5
60F
 10
19.0617853536
 20
14.4420881431
 30
0.0
  0
SEQEND
  8
428003-048
  6
CONTINUOUS
 62
         7
  5
610
  0
POLYLINE
  8
428003-048
  6
CONTINUOUS
 62
         7
  5
611
 66
         1
 10
0.0
 20
0.0
 30
0.0
  0
VERTEX
  8
428003-048
  6
CONTINUOUS
 62
         7
  5
612
 10
18.9587598068
 20
14.3935828011
 30
0.0
  0
VERTEX
  8
428003-048
  6
CONTINUOUS
 62
         7
  5
613
 10
18.9935712275
 20
14.3920407012
 30
0.0
  0
VERTEX
  8
428003-048
  6
CONTINUOUS
 62
         7
  5
614
 10
19.029728817
 20
14.4006280899
 30
0.0
  0
VERTEX
  8
428003-048
  6
CONTINUOUS
 62
         7
  5
615
 10
19.0481294326
 20
14.41164483
 30
0.0
  0
VERTEX
  8
428003-048
  6
CONTINUOUS
 62
         7
  5
616
 10
19.0589024949
 20
14.4247514131
 30
0.0
  0
VERTEX
  8
428003-048
  6
CONTINUOUS
 62
         7
  5
617
 10
19.0621382462
 20
14.4377546194
 30
0.0
  0
SEQEND
  8
428003-048
  6
CONTINUOUS
 62
         7
  5
618
  0
POLYLINE
  8
428003-048
  6
CONTINUOUS
 62
         7
  5
619
 66
         1
 10
0.0
 20
0.0
 30
0.0
  0
VERTEX
  8
428003-048
  6
CONTINUOUS
 62
         7
  5
61A
 10
19.0621382462
 20
14.3618204373
 30
0.0
  0
VERTEX
  8
428003-048
  6
CONTINUOUS
 62
         7
  5
61B
 10
19.0613691207
 20
14.3682097128
 30
0.0
  0
VERTEX
  8
428003-048
  6
CONTINUOUS
 62
         7
  5
61C
 10
19.0590765331
 20
14.3744761343
 30
0.0
  0
SEQEND
  8
428003-048
  6
CONTINUOUS
 62
         7
  5
61D
  0
POLYLINE
  8
428003-048
  6
CONTINUOUS
 62
         7
  5
61E
 66
         1
 10
0.0
 20
0.0
 30
0.0
  0
VERTEX
  8
428003-048
  6
CONTINUOUS
 62
         7
  5
61F
 10
18.9034524375
 20
14.3701579732
 30
0.0
  0
VERTEX
  8
428003-048
  6
CONTINUOUS
 62
         7
  5
620
 10
18.9023772472
 20
14.3582528495
 30
0.0
  0
VERTEX
  8
428003-048
  6
CONTINUOUS
 62
         7
  5
621
 10
18.9071913584
 20
14.3456653142
 30
0.0
  0
VERTEX
  8
428003-048
  6
CONTINUOUS
 62
         7
  5
622
 10
18.9184160814
 20
14.3338950265
 30
0.0
  0
VERTEX
  8
428003-048
  6
CONTINUOUS
 62
         7
  5
623
 10
18.944670021
 20
14.321011402
 30
0.0
  0
VERTEX
  8
428003-048
  6
CONTINUOUS
 62
         7
  5
624
 10
18.9748878908
 20
14.3158224941
 30
0.0
  0
VERTEX
  8
428003-048
  6
CONTINUOUS
 62
         7
  5
625
 10
19.0062317113
 20
14.3177768796
 30
0.0
  0
VERTEX
  8
428003-048
  6
CONTINUOUS
 62
         7
  5
626
 10
19.0360825303
 20
14.3277126952
 30
0.0
  0
VERTEX
  8
428003-048
  6
CONTINUOUS
 62
         7
  5
627
 10
19.0508029302
 20
14.3381197962
 30
0.0
  0
VERTEX
  8
428003-048
  6
CONTINUOUS
 62
         7
  5
628
 10
19.0594735465
 20
14.3499988283
 30
0.0
  0
VERTEX
  8
428003-048
  6
CONTINUOUS
 62
         7
  5
629
 10
19.0621382462
 20
14.3618204373
 30
0.0
  0
SEQEND
  8
428003-048
  6
CONTINUOUS
 62
         7
  5
62A
  0
LINE
  8
428003-048
  6
CONTINUOUS
 62
         7
  5
62B
 10
18.8507306028
 20
14.9022391118
 30
0.0
 11
18.8732843517
 21
14.8814229441
 31
0.0
  0
LINE
  8
428003-048
  6
CONTINUOUS
 62
         7
  5
62C
 10
15.9747875505
 20
15.3471490504
 30
0.0
 11
15.9973412995
 21
15.3263328827
 31
0.0
  0
LINE
  8
428003-048
  6
CONTINUOUS
 62
         7
  5
62E
 10
16.2085777338
 20
15.3232498785
 30
0.0
 11
16.0443374563
 21
15.4180740469
 31
0.0
  0
LINE
  8
428003-048
  6
CONTINUOUS
 62
         7
  5
62F
 10
16.2349374632
 20
15.3447734277
 30
0.0
 11
16.0198793315
 21
15.468937298
 31
0.0
  0
POLYLINE
  8
428003-048
  6
CONTINUOUS
 62
         7
  5
630
 66
         1
 10
0.0
 20
0.0
 30
0.0
  0
VERTEX
  8
428003-048
  6
CONTINUOUS
 62
         7
  5
631
 10
16.2349374632
 20
15.3447734277
 30
0.0
  0
VERTEX
  8
428003-048
  6
CONTINUOUS
 62
         7
  5
632
 10
16.250622081
 20
15.3621226647
 30
0.0
  0
VERTEX
  8
428003-048
  6
CONTINUOUS
 62
         7
  5
633
 10
16.2596717824
 20
15.3820921004
 30
0.0
  0
VERTEX
  8
428003-048
  6
CONTINUOUS
 62
         7
  5
634
 10
16.2604607196
 20
15.4033094006
 30
0.0
  0
VERTEX
  8
428003-048
  6
CONTINUOUS
 62
         7
  5
635
 10
16.2525739054
 20
15.4240373372
 30
0.0
  0
VERTEX
  8
428003-048
  6
CONTINUOUS
 62
         7
  5
636
 10
16.2370008607
 20
15.4426179046
 30
0.0
  0
VERTEX
  8
428003-048
  6
CONTINUOUS
 62
         7
  5
637
 10
16.215796745
 20
15.4578863992
 30
0.0
  0
VERTEX
  8
428003-048
  6
CONTINUOUS
 62
         7
  5
638
 10
16.1738769077
 20
15.4751150269
 30
0.0
  0
VERTEX
  8
428003-048
  6
CONTINUOUS
 62
         7
  5
639
 10
16.1212666105
 20
15.4836731569
 30
0.0
  0
VERTEX
  8
428003-048
  6
CONTINUOUS
 62
         7
  5
63A
 10
16.0667821454
 20
15.4811558038
 30
0.0
  0
VERTEX
  8
428003-048
  6
CONTINUOUS
 62
         7
  5
63B
 10
16.0198793315
 20
15.468937298
 30
0.0
  0
SEQEND
  8
428003-048
  6
CONTINUOUS
 62
         7
  5
63C
  0
POLYLINE
  8
428003-048
  6
CONTINUOUS
 62
         7
  5
63F
 66
         1
 10
0.0
 20
0.0
 30
0.0
  0
VERTEX
  8
428003-048
  6
CONTINUOUS
 62
         7
  5
640
 10
16.0443374563
 20
15.4180740469
 30
0.0
  0
VERTEX
  8
428003-048
  6
CONTINUOUS
 62
         7
  5
641
 10
16.0378951057
 20
15.4157063277
 30
0.0
  0
VERTEX
  8
428003-048
  6
CONTINUOUS
 62
         7
  5
642
 10
16.0317237065
 20
15.41310915
 30
0.0
  0
SEQEND
  8
428003-048
  6
CONTINUOUS
 62
         7
  5
643
  0
LINE
  8
428003-048
  6
CONTINUOUS
 62
         7
  5
644
 10
15.9774529247
 20
15.4444424005
 30
0.0
 11
16.1925110563
 21
15.3202785303
 31
0.0
  0
POLYLINE
  8
428003-048
  6
CONTINUOUS
 62
         7
  5
645
 66
         1
 10
0.0
 20
0.0
 30
0.0
  0
VERTEX
  8
428003-048
  6
CONTINUOUS
 62
         7
  5
646
 10
15.9774529247
 20
15.4444424005
 30
0.0
  0
VERTEX
  8
428003-048
  6
CONTINUOUS
 62
         7
  5
647
 10
15.9617683069
 20
15.4270931636
 30
0.0
  0
VERTEX
  8
428003-048
  6
CONTINUOUS
 62
         7
  5
648
 10
15.9527186054
 20
15.4071237279
 30
0.0
  0
VERTEX
  8
428003-048
  6
CONTINUOUS
 62
         7
  5
649
 10
15.9519296683
 20
15.3859064277
 30
0.0
  0
VERTEX
  8
428003-048
  6
CONTINUOUS
 62
         7
  5
64A
 10
15.9598164824
 20
15.3651784911
 30
0.0
  0
VERTEX
  8
428003-048
  6
CONTINUOUS
 62
         7
  5
64B
 10
15.9753895272
 20
15.3465979237
 30
0.0
  0
VERTEX
  8
428003-048
  6
CONTINUOUS
 62
         7
  5
64C
 10
15.9965936428
 20
15.3313294291
 30
0.0
  0
VERTEX
  8
428003-048
  6
CONTINUOUS
 62
         7
  5
64D
 10
16.0385134802
 20
15.3141008014
 30
0.0
  0
VERTEX
  8
428003-048
  6
CONTINUOUS
 62
         7
  5
64E
 10
16.0911237774
 20
15.3055426714
 30
0.0
  0
VERTEX
  8
428003-048
  6
CONTINUOUS
 62
         7
  5
64F
 10
16.1456082424
 20
15.3080600245
 30
0.0
  0
VERTEX
  8
428003-048
  6
CONTINUOUS
 62
         7
  5
650
 10
16.1925110563
 20
15.3202785303
 30
0.0
  0
SEQEND
  8
428003-048
  6
CONTINUOUS
 62
         7
  5
651
  0
LINE
  8
428003-048
  6
CONTINUOUS
 62
         7
  5
652
 10
16.219503423
 20
15.3304440473
 30
0.0
 11
16.2376028374
 21
15.3471490504
 31
0.0
  0
LINE
  8
428003-048
  6
CONTINUOUS
 62
         7
  5
655
 10
18.3139141677
 20
16.5387664353
 30
0.0
 11
18.1496738902
 21
16.6335906038
 31
0.0
  0
LINE
  8
428003-048
  6
CONTINUOUS
 62
         7
  5
656
 10
18.3402738971
 20
16.5602899846
 30
0.0
 11
18.1252157655
 21
16.6844538548
 31
0.0
  0
LINE
  8
428003-048
  6
CONTINUOUS
 62
         7
  5
657
 10
18.0827893586
 20
16.6599589574
 30
0.0
 11
18.2978474903
 21
16.5357950872
 31
0.0
  0
POLYLINE
  8
428003-048
  6
CONTINUOUS
 62
         7
  5
658
 66
         1
 10
0.0
 20
0.0
 30
0.0
  0
VERTEX
  8
428003-048
  6
CONTINUOUS
 62
         7
  5
659
 10
18.3402738971
 20
16.5602899846
 30
0.0
  0
VERTEX
  8
428003-048
  6
CONTINUOUS
 62
         7
  5
65A
 10
18.3559585149
 20
16.5776392215
 30
0.0
  0
VERTEX
  8
428003-048
  6
CONTINUOUS
 62
         7
  5
65B
 10
18.3650082163
 20
16.5976086572
 30
0.0
  0
VERTEX
  8
428003-048
  6
CONTINUOUS
 62
         7
  5
65C
 10
18.3657971535
 20
16.6188259574
 30
0.0
  0
VERTEX
  8
428003-048
  6
CONTINUOUS
 62
         7
  5
65D
 10
18.3579103394
 20
16.639553894
 30
0.0
  0
VERTEX
  8
428003-048
  6
CONTINUOUS
 62
         7
  5
65E
 10
18.3423372946
 20
16.6581344614
 30
0.0
  0
VERTEX
  8
428003-048
  6
CONTINUOUS
 62
         7
  5
65F
 10
18.3211331789
 20
16.673402956
 30
0.0
  0
VERTEX
  8
428003-048
  6
CONTINUOUS
 62
         7
  5
660
 10
18.2792133416
 20
16.6906315838
 30
0.0
  0
VERTEX
  8
428003-048
  6
CONTINUOUS
 62
         7
  5
661
 10
18.2266030444
 20
16.6991897138
 30
0.0
  0
VERTEX
  8
428003-048
  6
CONTINUOUS
 62
         7
  5
662
 10
18.1721185794
 20
16.6966723606
 30
0.0
  0
VERTEX
  8
428003-048
  6
CONTINUOUS
 62
         7
  5
663
 10
18.1252157655
 20
16.6844538548
 30
0.0
  0
SEQEND
  8
428003-048
  6
CONTINUOUS
 62
         7
  5
664
  0
POLYLINE
  8
428003-048
  6
CONTINUOUS
 62
         7
  5
666
 66
         1
 10
0.0
 20
0.0
 30
0.0
  0
VERTEX
  8
428003-048
  6
CONTINUOUS
 62
         7
  5
667
 10
18.1496738902
 20
16.6335906038
 30
0.0
  0
VERTEX
  8
428003-048
  6
CONTINUOUS
 62
         7
  5
668
 10
18.1432315396
 20
16.6312228846
 30
0.0
  0
VERTEX
  8
428003-048
  6
CONTINUOUS
 62
         7
  5
669
 10
18.1370601404
 20
16.6286257069
 30
0.0
  0
SEQEND
  8
428003-048
  6
CONTINUOUS
 62
         7
  5
66A
  0
POLYLINE
  8
428003-048
  6
CONTINUOUS
 62
         7
  5
66B
 66
         1
 10
0.0
 20
0.0
 30
0.0
  0
VERTEX
  8
428003-048
  6
CONTINUOUS
 62
         7
  5
66C
 10
18.0827893586
 20
16.6599589574
 30
0.0
  0
VERTEX
  8
428003-048
  6
CONTINUOUS
 62
         7
  5
66D
 10
18.0671047408
 20
16.6426097205
 30
0.0
  0
VERTEX
  8
428003-048
  6
CONTINUOUS
 62
         7
  5
66E
 10
18.0580550394
 20
16.6226402848
 30
0.0
  0
VERTEX
  8
428003-048
  6
CONTINUOUS
 62
         7
  5
66F
 10
18.0572661022
 20
16.6014229846
 30
0.0
  0
VERTEX
  8
428003-048
  6
CONTINUOUS
 62
         7
  5
670
 10
18.0651529163
 20
16.580695048
 30
0.0
  0
VERTEX
  8
428003-048
  6
CONTINUOUS
 62
         7
  5
671
 10
18.0807259611
 20
16.5621144806
 30
0.0
  0
VERTEX
  8
428003-048
  6
CONTINUOUS
 62
         7
  5
672
 10
18.1019300768
 20
16.546845986
 30
0.0
  0
VERTEX
  8
428003-048
  6
CONTINUOUS
 62
         7
  5
673
 10
18.1438499141
 20
16.5296173582
 30
0.0
  0
VERTEX
  8
428003-048
  6
CONTINUOUS
 62
         7
  5
674
 10
18.1964602113
 20
16.5210592282
 30
0.0
  0
VERTEX
  8
428003-048
  6
CONTINUOUS
 62
         7
  5
675
 10
18.2509446763
 20
16.5235765813
 30
0.0
  0
VERTEX
  8
428003-048
  6
CONTINUOUS
 62
         7
  5
676
 10
18.2978474903
 20
16.5357950872
 30
0.0
  0
SEQEND
  8
428003-048
  6
CONTINUOUS
 62
         7
  5
677
  0
LINE
  8
428003-048
  6
CONTINUOUS
 62
         7
  5
678
 10
18.3248398569
 20
16.5459606042
 30
0.0
 11
18.3429392713
 21
16.5626656072
 31
0.0
  0
LINE
  8
428003-048
  6
CONTINUOUS
 62
         7
  5
679
 10
18.0801239844
 20
16.5626656072
 30
0.0
 11
18.1026777334
 21
16.5418494395
 31
0.0
  0
ENDBLK
  8
428003-048
  6
CONTINUOUS
 62
         7
  5
67A
  0
BLOCK
  8
0
 62
         1
 48
0.0
  5
67B
  2
*X7
 70
         1
 10
0.0
 20
0.0
 30
0.0
  3
*X7
  0
INSERT
  8
0
 62
         0
 48
0.0
  5
67C
  2
*X6
 10
0.0
 20
0.0
 30
0.0
  0
ENDBLK
  8
0
 62
         0
 48
0.0
  5
67D
  0
ENDSEC
  0
SECTION
  2
ENTITIES
  0
TEXT
  8
DEFAULT
  6
CONTINUOUS
 62
         7
  5
3A
 10
9.8495463015
 20
5.4574725598
 30
0.0
 40
0.25
  1
SYSTEM: ROUND FLOOR BOX COVERS
  7
ARIAL_TTF
 11
9.8495463015
 21
5.7074725598
 31
0.0
 73
         3
  0
TEXT
  8
DEFAULT
  6
CONTINUOUS
 62
         7
  5
3B
 10
10.9120463015
 20
5.0661682119
 30
0.0
 40
0.25
  1
 CATALOG NUMBER:  895T
  7
ARIAL_TTF
 11
10.9120463015
 21
5.3161682119
 31
0.0
 73
         3
  0
INSERT
  8
0
 62
         0
 48
0.0
  5
3E
  2
*X1
 10
0.0
 20
0.0
 30
0.0
  0
INSERT
  8
0
 62
         0
 48
0.0
  5
41
  2
*X3
 10
0.0
 20
0.0
 30
0.0
  0
INSERT
  8
0
 62
         0
 48
0.0
  5
44
  2
*X5
 10
0.0
 20
0.0
 30
0.0
  0
INSERT
  8
0
 62
         0
 48
0.0
  5
47
  2
*X7
 10
0.0
 20
0.0
 30
0.0
  0
ENDSEC
  0
EOF
