  0
SECTION
  2
HEADER
  9
$ACADVER
  1
AC1014
  9
$ACADMAINTVER
 70
     0
  9
$DWGCODEPAGE
  3
ANSI_1252
  9
$INSBASE
 10
0.0
 20
0.0
 30
0.0
  9
$EXTMIN
 10
-3.639587
 20
-2.595795
 30
-0.001526
  9
$EXTMAX
 10
3.639771
 20
1.313278
 30
0.0
  9
$LIMMIN
 10
0.0
 20
0.0
  9
$LIMMAX
 10
12.0
 20
9.0
  9
$ORTHOMODE
 70
     0
  9
$REGENMODE
 70
     1
  9
$FILLMODE
 70
     1
  9
$QTEXTMODE
 70
     0
  9
$MIRRTEXT
 70
     1
  9
$DRAGMODE
 70
     2
  9
$LTSCALE
 40
1.0
  9
$OSMODE
 70
     0
  9
$ATTMODE
 70
     1
  9
$TEXTSIZE
 40
0.2
  9
$TRACEWID
 40
0.05
  9
$TEXTSTYLE
  7
STANDARD
  9
$CLAYER
  8
100
  9
$CELTYPE
  6
BYLAYER
  9
$CECOLOR
 62
     1
  9
$CELTSCALE
 40
1.0
  9
$DELOBJ
 70
     1
  9
$DISPSILH
 70
     0
  9
$DIMSCALE
 40
1.0
  9
$DIMASZ
 40
0.18
  9
$DIMEXO
 40
0.0625
  9
$DIMDLI
 40
0.38
  9
$DIMRND
 40
0.0
  9
$DIMDLE
 40
0.0
  9
$DIMEXE
 40
0.18
  9
$DIMTP
 40
0.0
  9
$DIMTM
 40
0.0
  9
$DIMTXT
 40
0.18
  9
$DIMCEN
 40
0.09
  9
$DIMTSZ
 40
0.0
  9
$DIMTOL
 70
     0
  9
$DIMLIM
 70
     0
  9
$DIMTIH
 70
     1
  9
$DIMTOH
 70
     1
  9
$DIMSE1
 70
     0
  9
$DIMSE2
 70
     0
  9
$DIMTAD
 70
     0
  9
$DIMZIN
 70
     0
  9
$DIMBLK
  1

  9
$DIMASO
 70
     1
  9
$DIMSHO
 70
     1
  9
$DIMPOST
  1

  9
$DIMAPOST
  1

  9
$DIMALT
 70
     0
  9
$DIMALTD
 70
     2
  9
$DIMALTF
 40
25.4
  9
$DIMLFAC
 40
1.0
  9
$DIMTOFL
 70
     0
  9
$DIMTVP
 40
0.0
  9
$DIMTIX
 70
     0
  9
$DIMSOXD
 70
     0
  9
$DIMSAH
 70
     0
  9
$DIMBLK1
  1

  9
$DIMBLK2
  1

  9
$DIMSTYLE
  2
STANDARD
  9
$DIMCLRD
 70
     0
  9
$DIMCLRE
 70
     0
  9
$DIMCLRT
 70
     0
  9
$DIMTFAC
 40
1.0
  9
$DIMGAP
 40
0.09
  9
$DIMJUST
 70
     0
  9
$DIMSD1
 70
     0
  9
$DIMSD2
 70
     0
  9
$DIMTOLJ
 70
     1
  9
$DIMTZIN
 70
     0
  9
$DIMALTZ
 70
     0
  9
$DIMALTTZ
 70
     0
  9
$DIMFIT
 70
     3
  9
$DIMUPT
 70
     0
  9
$DIMUNIT
 70
     2
  9
$DIMDEC
 70
     4
  9
$DIMTDEC
 70
     4
  9
$DIMALTU
 70
     2
  9
$DIMALTTD
 70
     2
  9
$DIMTXSTY
  7
STANDARD
  9
$DIMAUNIT
 70
     0
  9
$LUNITS
 70
     2
  9
$LUPREC
 70
     4
  9
$SKETCHINC
 40
0.1
  9
$FILLETRAD
 40
0.5
  9
$AUNITS
 70
     0
  9
$AUPREC
 70
     0
  9
$MENU
  1
.
  9
$ELEVATION
 40
0.0
  9
$PELEVATION
 40
0.0
  9
$THICKNESS
 40
0.0
  9
$LIMCHECK
 70
     0
  9
$BLIPMODE
 70
     0
  9
$CHAMFERA
 40
0.5
  9
$CHAMFERB
 40
0.5
  9
$CHAMFERC
 40
1.0
  9
$CHAMFERD
 40
0.0
  9
$SKPOLY
 70
     0
  9
$TDCREATE
 40
2451486.615238518
  9
$TDUPDATE
 40
2451486.615238518
  9
$TDINDWG
 40
0.0000000000
  9
$TDUSRTIMER
 40
0.0000000000
  9
$USRTIMER
 70
     1
  9
$ANGBASE
 50
0.0
  9
$ANGDIR
 70
     0
  9
$PDMODE
 70
     0
  9
$PDSIZE
 40
0.0
  9
$PLINEWID
 40
0.0
  9
$COORDS
 70
     1
  9
$SPLFRAME
 70
     0
  9
$SPLINETYPE
 70
     6
  9
$SPLINESEGS
 70
     8
  9
$ATTDIA
 70
     0
  9
$ATTREQ
 70
     1
  9
$HANDLING
 70
     1
  9
$HANDSEED
  5
7E
  9
$SURFTAB1
 70
     6
  9
$SURFTAB2
 70
     6
  9
$SURFTYPE
 70
     6
  9
$SURFU
 70
     6
  9
$SURFV
 70
     6
  9
$UCSNAME
  2
KKK
  9
$UCSORG
 10
0.0
 20
0.0
 30
0.0
  9
$UCSXDIR
 10
1.0
 20
0.0
 30
0.0
  9
$UCSYDIR
 10
0.0
 20
1.0
 30
0.0
  9
$PUCSNAME
  2

  9
$PUCSORG
 10
0.0
 20
0.0
 30
0.0
  9
$PUCSXDIR
 10
1.0
 20
0.0
 30
0.0
  9
$PUCSYDIR
 10
0.0
 20
1.0
 30
0.0
  9
$USERI1
 70
     0
  9
$USERI2
 70
     0
  9
$USERI3
 70
     0
  9
$USERI4
 70
     0
  9
$USERI5
 70
     0
  9
$USERR1
 40
0.0
  9
$USERR2
 40
0.0
  9
$USERR3
 40
0.0
  9
$USERR4
 40
0.0
  9
$USERR5
 40
0.0
  9
$WORLDVIEW
 70
     1
  9
$SHADEDGE
 70
     3
  9
$SHADEDIF
 70
    70
  9
$TILEMODE
 70
     1
  9
$MAXACTVP
 70
    48
  9
$PINSBASE
 10
0.0
 20
0.0
 30
0.0
  9
$PLIMCHECK
 70
     0
  9
$PEXTMIN
 10
1.000000E+20
 20
1.000000E+20
 30
1.000000E+20
  9
$PEXTMAX
 10
-1.000000E+20
 20
-1.000000E+20
 30
-1.000000E+20
  9
$PLIMMIN
 10
0.0
 20
0.0
  9
$PLIMMAX
 10
12.0
 20
9.0
  9
$UNITMODE
 70
     0
  9
$VISRETAIN
 70
     1
  9
$PLINEGEN
 70
     0
  9
$PSLTSCALE
 70
     1
  9
$TREEDEPTH
 70
  3020
  9
$PICKSTYLE
 70
     1
  9
$CMLSTYLE
  2
STANDARD
  9
$CMLJUST
 70
     0
  9
$CMLSCALE
 40
1.0
  9
$PROXYGRAPHICS
 70
     1
  9
$MEASUREMENT
 70
     0
  0
ENDSEC
  0
SECTION
  2
CLASSES
  0
ENDSEC
  0
SECTION
  2
TABLES
  0
TABLE
  2
VPORT
  5
8
100
AcDbSymbolTable
 70
     3
  0
VPORT
  5
7C
100
AcDbSymbolTableRecord
100
AcDbViewportTableRecord
  2
NEW_VIEWPORT
 70
     0
 10
0.0
 20
0.0
 11
1.0
 21
1.0
 12
8.854526
 22
4.5
 13
0.0
 23
0.0
 14
1.0
 24
1.0
 15
0.0
 25
0.0
 16
0.0
 26
0.0
 36
1.0
 17
0.0
 27
0.0
 37
0.0
 40
9.0
 41
1.967672
 42
50.0
 43
0.0
 44
0.0
 50
0.0
 51
0.0
 71
     0
 72
   100
 73
     1
 74
     1
 75
     0
 76
     0
 77
     0
 78
     0
  0
VPORT
  5
7D
100
AcDbSymbolTableRecord
100
AcDbViewportTableRecord
  2
*ACTIVE
 70
     0
 10
0.0
 20
0.0
 11
1.0
 21
1.0
 12
0.000092
 22
-0.641258
 13
0.0
 23
0.0
 14
1.0
 24
1.0
 15
0.0
 25
0.0
 16
0.0
 26
0.0
 36
1.0
 17
0.0
 27
0.0
 37
0.0
 40
3.959513
 41
1.967672
 42
50.0
 43
0.0
 44
0.0
 50
0.0
 51
0.0
 71
     0
 72
   100
 73
     1
 74
     1
 75
     0
 76
     0
 77
     0
 78
     0
  0
ENDTAB
  0
TABLE
  2
LTYPE
  5
5
100
AcDbSymbolTable
 70
     1
  0
LTYPE
  5
12
100
AcDbSymbolTableRecord
100
AcDbLinetypeTableRecord
  2
BYBLOCK
 70
     0
  3

 72
    65
 73
     0
 40
0.0
  0
LTYPE
  5
13
100
AcDbSymbolTableRecord
100
AcDbLinetypeTableRecord
  2
BYLAYER
 70
     0
  3

 72
    65
 73
     0
 40
0.0
  0
LTYPE
  5
14
100
AcDbSymbolTableRecord
100
AcDbLinetypeTableRecord
  2
CONTINUOUS
 70
     0
  3
Solid line
 72
    65
 73
     0
 40
0.0
  0
ENDTAB
  0
TABLE
  2
LAYER
  5
2
100
AcDbSymbolTable
 70
     2
  0
LAYER
  5
E
100
AcDbSymbolTableRecord
100
AcDbLayerTableRecord
  2
0
 70
     0
 62
     7
  6
CONTINUOUS
  0
LAYER
  5
20
100
AcDbSymbolTableRecord
100
AcDbLayerTableRecord
  2
100
 70
     0
 62
     7
  6
CONTINUOUS
  0
ENDTAB
  0
TABLE
  2
STYLE
  5
3
100
AcDbSymbolTable
 70
     1
  0
STYLE
  5
F
100
AcDbSymbolTableRecord
100
AcDbTextStyleTableRecord
  2
STANDARD
 70
     0
 40
0.0
 41
1.0
 50
0.0
 71
     0
 42
0.2
  3
txt
  4

  0
ENDTAB
  0
TABLE
  2
VIEW
  5
6
100
AcDbSymbolTable
 70
     0
  0
ENDTAB
  0
TABLE
  2
UCS
  5
7
100
AcDbSymbolTable
 70
     1
  0
UCS
  5
21
100
AcDbSymbolTableRecord
100
AcDbUCSTableRecord
  2
KKK
 70
     0
 10
0.0
 20
0.0
 30
0.0
 11
1.0
 21
0.0
 31
0.0
 12
0.0
 22
1.0
 32
0.0
  0
ENDTAB
  0
TABLE
  2
APPID
  5
9
100
AcDbSymbolTable
 70
     1
  0
APPID
  5
10
100
AcDbSymbolTableRecord
100
AcDbRegAppTableRecord
  2
ACAD
 70
     0
  0
ENDTAB
  0
TABLE
  2
DIMSTYLE
  5
A
100
AcDbSymbolTable
 70
     1
  0
DIMSTYLE
105
1D
100
AcDbSymbolTableRecord
100
AcDbDimStyleTableRecord
  2
STANDARD
 70
     0
  3

  4

  5

  6

  7

 40
1.0
 41
0.18
 42
0.0625
 43
0.38
 44
0.18
 45
0.0
 46
0.0
 47
0.0
 48
0.0
140
0.18
141
0.09
142
0.0
143
25.4
144
1.0
145
0.0
146
1.0
147
0.09
 71
     0
 72
     0
 73
     1
 74
     1
 75
     0
 76
     0
 77
     0
 78
     0
170
     0
171
     2
172
     0
173
     0
174
     0
175
     0
176
     0
177
     0
178
     0
270
     2
271
     4
272
     4
273
     2
274
     2
340
F
275
     0
280
     0
281
     0
282
     0
283
     1
284
     0
285
     0
286
     0
287
     3
288
     0
  0
ENDTAB
  0
TABLE
  2
BLOCK_RECORD
  5
1
100
AcDbSymbolTable
 70
     0
  0
BLOCK_RECORD
  5
18
100
AcDbSymbolTableRecord
100
AcDbBlockTableRecord
  2
*MODEL_SPACE
  0
BLOCK_RECORD
  5
15
100
AcDbSymbolTableRecord
100
AcDbBlockTableRecord
  2
*PAPER_SPACE
  0
ENDTAB
  0
ENDSEC
  0
SECTION
  2
BLOCKS
  0
BLOCK
  5
19
100
AcDbEntity
  8
0
100
AcDbBlockBegin
  2
*MODEL_SPACE
 70
     0
 10
0.0
 20
0.0
 30
0.0
  3
*MODEL_SPACE
  1

  0
ENDBLK
  5
1A
100
AcDbEntity
  8
0
100
AcDbBlockEnd
  0
BLOCK
  5
16
100
AcDbEntity
 67
     1
  8
0
100
AcDbBlockBegin
  2
*PAPER_SPACE
 70
     0
 10
0.0
 20
0.0
 30
0.0
  3
*PAPER_SPACE
  1

  0
ENDBLK
  5
17
100
AcDbEntity
 67
     1
  8
0
100
AcDbBlockEnd
  0
ENDSEC
  0
SECTION
  2
ENTITIES
  0
ELLIPSE
  5
22
100
AcDbEntity
  8
100
 62
     1
100
AcDbEllipse
 10
-0.34805
 20
-0.107234
 30
0.0
 11
-0.01300067
 21
0.01506629
 31
0.0
210
0.0
220
0.0
230
1.0
 40
0.376884
 41
-1.909460633701967
 42
0.0000002462834967
  0
ELLIPSE
  5
23
100
AcDbEntity
  8
100
 62
     1
100
AcDbEllipse
 10
2.94495
 20
1.296166
 30
0.0
 11
0.09
 21
0.0
 31
0.0
210
0.0
220
0.0
230
0.9999999999999998
 40
0.687778
 41
-3.141603200004678
 42
0.0000001349569825
  0
ELLIPSE
  5
24
100
AcDbEntity
  8
100
 62
     1
100
AcDbEllipse
 10
-0.34075
 20
-0.101834
 30
0.0
 11
-0.02029275
 21
0.00972
 31
0.0
210
0.0
220
0.0
230
0.9999999999999998
 40
0.346667
 41
-2.36483067779543
 42
0.0000002677511919
  0
LINE
  5
25
100
AcDbEntity
  8
100
 62
     1
100
AcDbLine
 10
2.854966
 20
1.296169
 30
0.0
 11
2.624958
 21
1.296169
 31
0.0
  0
ELLIPSE
  5
26
100
AcDbEntity
  8
100
 62
     1
100
AcDbEllipse
 10
-2.94545
 20
1.291366
 30
0.0
 11
0.0896
 21
-0.0001344
 31
0.0
210
0.0
220
0.0
230
1.0
 40
0.768973
 41
3.094521667861115
 42
6.205094150933293
  0
LINE
  5
27
100
AcDbEntity
  8
100
 62
     1
100
AcDbLine
 10
2.855275
 20
0.024624
 30
0.0
 11
2.624958
 21
0.024624
 31
0.0
  0
LINE
  5
28
100
AcDbEntity
  8
100
 62
     1
100
AcDbLine
 10
2.854966
 20
0.019498
 30
0.0
 11
2.624958
 21
0.019498
 31
0.0
  0
ELLIPSE
  5
29
100
AcDbEntity
  8
100
 62
     1
100
AcDbEllipse
 10
3.34535
 20
1.291366
 30
0.0
 11
-0.0896
 21
0.0001344
 31
0.0
210
0.0
220
0.0
230
1.0
 40
0.768973
 41
0.078091276653027
 42
3.188663759916202
  0
ELLIPSE
  5
2A
100
AcDbEntity
  8
100
 62
     1
100
AcDbEllipse
 10
-3.34545
 20
0.024266
 30
0.0
 11
0.0896
 21
-0.0001344
 31
0.0
210
0.0
220
0.0
230
1.0
 40
0.768973
 41
0.078091276653027
 42
3.188663759916202
  0
LINE
  5
2B
100
AcDbEntity
  8
100
 62
     1
100
AcDbLine
 10
-2.625042
 20
0.035834
 30
0.0
 11
2.624958
 21
0.035834
 31
0.0
  0
ELLIPSE
  5
2C
100
AcDbEntity
  8
100
 62
     1
100
AcDbEllipse
 10
2.94535
 20
0.024266
 30
0.0
 11
-0.0896
 21
0.0001344
 31
0.0
210
0.0
220
0.0
230
1.0
 40
0.768973
 41
3.094521667861115
 42
6.205094150933293
  0
LINE
  5
2D
100
AcDbEntity
  8
100
 62
     1
100
AcDbLine
 10
3.255275
 20
1.291043
 30
0.0
 11
3.034957
 21
1.291043
 31
0.0
  0
LINE
  5
2E
100
AcDbEntity
  8
100
 62
     1
100
AcDbLine
 10
3.535902
 20
1.296169
 30
0.0
 11
3.434952
 21
1.296169
 31
0.0
  0
ARC
  5
2F
100
AcDbEntity
  8
100
 62
     1
100
AcDbCircle
 10
3.53595
 20
0.109466
 30
0.0
 40
0.09
100
AcDbArc
 50
269.997453
 51
351.689776
  0
ELLIPSE
  5
30
100
AcDbEntity
  8
100
 62
     1
100
AcDbEllipse
 10
3.34495
 20
0.019466
 30
0.0
 11
0.09
 21
0.0
 31
0.0
210
0.0
220
0.0
230
0.9999999999999998
 40
0.687778
 41
0.0
 42
3.14160333496166
  0
LINE
  5
31
100
AcDbEntity
  8
100
 62
     1
100
AcDbLine
 10
3.254966
 20
0.019498
 30
0.0
 11
3.034952
 21
0.019498
 31
0.0
  0
ARC
  5
32
100
AcDbEntity
  8
100
 62
     1
100
AcDbCircle
 10
3.53685
 20
0.114666
 30
0.0
 40
0.09
100
AcDbArc
 50
269.997957
 51
348.378583
  0
LINE
  5
33
100
AcDbEntity
  8
100
 62
     1
100
AcDbLine
 10
2.624958
 20
1.279834
 30
0.0
 11
2.624958
 21
0.019498
 31
0.0
  0
ELLIPSE
  5
34
100
AcDbEntity
  8
100
 62
     1
100
AcDbEllipse
 10
3.34495
 20
1.296166
 30
0.0
 11
0.09
 21
0.0
 31
0.0
210
0.0
220
0.0
230
0.9999999999999998
 40
0.687778
 41
-3.141603200004678
 42
0.0000001349569825
  0
LINE
  5
35
100
AcDbEntity
  8
100
 62
     1
100
AcDbLine
 10
3.535902
 20
0.019498
 30
0.0
 11
3.434952
 21
0.019498
 31
0.0
  0
LINE
  5
36
100
AcDbEntity
  8
100
 62
     1
100
AcDbLine
 10
3.536803
 20
0.024624
 30
0.0
 11
3.434957
 21
0.024624
 31
0.0
  0
ELLIPSE
  5
37
100
AcDbEntity
  8
100
 62
     1
100
AcDbEllipse
 10
-3.34505
 20
0.019466
 30
0.0
 11
-0.09
 21
0.0
 31
0.0
210
0.0
220
0.0
230
0.9999999999999998
 40
0.687778
 41
-3.141603200004678
 42
0.0000001349569825
  0
LINE
  5
38
100
AcDbEntity
  8
100
 62
     1
100
AcDbLine
 10
3.624958
 20
0.096498
 30
0.0
 11
2.624958
 21
0.096498
 31
0.0
  0
LINE
  5
39
100
AcDbEntity
  8
100
 62
     1
100
AcDbLine
 10
0.179958
 20
0.035834
 30
0.0
 11
0.259958
 21
0.035834
 31
0.0
  0
ARC
  5
3A
100
AcDbEntity
  8
100
 62
     1
100
AcDbCircle
 10
-0.27505
 20
-1.109334
 30
0.0
 40
0.06
100
AcDbArc
 50
180.000003
 51
225.000108
  0
LINE
  5
3B
100
AcDbEntity
  8
100
 62
     1
100
AcDbLine
 10
0.119958
 20
0.035834
 30
0.0
 11
0.159958
 21
0.035834
 31
0.0
  0
LINE
  5
3C
100
AcDbEntity
  8
100
 62
     1
100
AcDbLine
 10
-0.304434
 20
-0.092131
 30
0.0
 11
-0.277082
 21
-0.092131
 31
0.0
  0
ARC
  5
3D
100
AcDbEntity
  8
100
 62
     1
100
AcDbCircle
 10
0.27695
 20
-0.226134
 30
0.0
 40
0.134
100
AcDbArc
 50
90.0
 51
180.00021
  0
ARC
  5
3E
100
AcDbEntity
  8
100
 62
     1
100
AcDbCircle
 10
-0.27705
 20
-0.226134
 30
0.0
 40
0.134
100
AcDbArc
 50
359.99979
 51
90.0
  0
LINE
  5
3F
100
AcDbEntity
  8
100
 62
     1
100
AcDbLine
 10
0.099958
 20
0.035834
 30
0.0
 11
0.019958
 21
0.035834
 31
0.0
  0
ELLIPSE
  5
40
100
AcDbEntity
  8
100
 62
     1
100
AcDbEllipse
 10
2.94495
 20
0.019466
 30
0.0
 11
0.09
 21
0.0
 31
0.0
210
0.0
220
0.0
230
0.9999999999999998
 40
0.687778
 41
0.0
 42
3.14160333496166
  0
ARC
  5
41
100
AcDbEntity
  8
100
 62
     1
100
AcDbCircle
 10
3.53595
 20
1.206166
 30
0.0
 40
0.09
100
AcDbArc
 50
8.31023
 51
90.002552
  0
ELLIPSE
  5
42
100
AcDbEntity
  8
100
 62
     1
100
AcDbEllipse
 10
2.94535
 20
1.291366
 30
0.0
 11
-0.0896
 21
0.0001344
 31
0.0
210
0.0
220
0.0
230
1.0
 40
0.768973
 41
0.078091276653027
 42
3.188663759916202
  0
LINE
  5
43
100
AcDbEntity
  8
100
 62
     1
100
AcDbLine
 10
0.334958
 20
-1.109314
 30
0.0
 11
0.334958
 21
-0.113924
 31
0.0
  0
LINE
  5
44
100
AcDbEntity
  8
100
 62
     1
100
AcDbLine
 10
0.320349
 20
-1.148776
 30
0.0
 11
0.320349
 21
-0.108796
 31
0.0
  0
ARC
  5
45
100
AcDbEntity
  8
100
 62
     1
100
AcDbCircle
 10
0.27495
 20
-1.109334
 30
0.0
 40
0.06
100
AcDbArc
 50
314.999456
 51
359.999561
  0
ELLIPSE
  5
46
100
AcDbEntity
  8
100
 62
     1
100
AcDbEllipse
 10
3.34535
 20
0.024266
 30
0.0
 11
-0.0896
 21
0.0001344
 31
0.0
210
0.0
220
0.0
230
1.0
 40
0.768973
 41
3.094521667861115
 42
6.205094150933293
  0
CIRCLE
  5
47
100
AcDbEntity
  8
100
 62
     1
100
AcDbCircle
 10
-0.00005
 20
-0.636134
 30
0.0
 40
0.1375
  0
LINE
  5
48
100
AcDbEntity
  8
100
 62
     1
100
AcDbLine
 10
2.855275
 20
1.291043
 30
0.0
 11
2.624958
 21
1.291043
 31
0.0
  0
LINE
  5
49
100
AcDbEntity
  8
100
 62
     1
100
AcDbLine
 10
0.304351
 20
-0.092131
 30
0.0
 11
0.276998
 21
-0.092131
 31
0.0
  0
ELLIPSE
  5
4A
100
AcDbEntity
  8
100
 62
     1
100
AcDbEllipse
 10
0.34065
 20
-0.101834
 30
0.0
 11
0.02029275
 21
-0.00972
 31
0.0
210
0.0
220
0.0
230
1.0
 40
0.346667
 41
0.0
 42
2.364830829794271
  0
LINE
  5
4B
100
AcDbEntity
  8
100
 62
     1
100
AcDbLine
 10
3.624958
 20
0.096498
 30
0.0
 11
3.624958
 21
1.219169
 31
0.0
  0
LINE
  5
4C
100
AcDbEntity
  8
100
 62
     1
100
AcDbLine
 10
3.536803
 20
1.291043
 30
0.0
 11
3.434957
 21
1.291043
 31
0.0
  0
ELLIPSE
  5
4D
100
AcDbEntity
  8
100
 62
     1
100
AcDbEllipse
 10
0.34795
 20
-0.107234
 30
0.0
 11
0.01300067
 21
-0.01506629
 31
0.0
210
0.0
220
0.0
230
1.0
 40
0.376884
 41
0.0
 42
1.909460692006911
  0
LINE
  5
4E
100
AcDbEntity
  8
100
 62
     1
100
AcDbLine
 10
-0.320432
 20
-1.148776
 30
0.0
 11
-0.320432
 21
-0.108796
 31
0.0
  0
LINE
  5
4F
100
AcDbEntity
  8
100
 62
     1
100
AcDbLine
 10
3.255275
 20
0.024624
 30
0.0
 11
3.034957
 21
0.024624
 31
0.0
  0
LINE
  5
50
100
AcDbEntity
  8
100
 62
     1
100
AcDbLine
 10
-0.335042
 20
-1.109314
 30
0.0
 11
-0.335042
 21
-0.113924
 31
0.0
  0
ARC
  5
51
100
AcDbEntity
  8
100
 62
     1
100
AcDbCircle
 10
3.53685
 20
1.201066
 30
0.0
 40
0.09
100
AcDbArc
 50
11.621422
 51
90.002049
  0
LINE
  5
52
100
AcDbEntity
  8
100
 62
     1
100
AcDbLine
 10
3.624958
 20
1.219169
 30
0.0
 11
2.624958
 21
1.219169
 31
0.0
  0
ELLIPSE
  5
53
100
AcDbEntity
  8
100
 62
     1
100
AcDbEllipse
 10
-2.94545
 20
0.024266
 30
0.0
 11
0.0896
 21
-0.0001344
 31
0.0
210
0.0
220
0.0
230
1.0
 40
0.768973
 41
0.078091276653027
 42
3.188663759916202
  0
ELLIPSE
  5
54
100
AcDbEntity
  8
100
 62
     1
100
AcDbEllipse
 10
-3.34545
 20
1.291366
 30
0.0
 11
0.0896
 21
-0.0001344
 31
0.0
210
0.0
220
0.0
230
1.0
 40
0.768973
 41
3.094521667861115
 42
6.205094150933293
  0
LINE
  5
55
100
AcDbEntity
  8
100
 62
     1
100
AcDbLine
 10
-2.625042
 20
1.279834
 30
0.0
 11
2.624958
 21
1.279834
 31
0.0
  0
LINE
  5
56
100
AcDbEntity
  8
100
 62
     1
100
AcDbLine
 10
3.254966
 20
1.296169
 30
0.0
 11
3.034952
 21
1.296169
 31
0.0
  0
LINE
  5
57
100
AcDbEntity
  8
100
 62
     1
100
AcDbLine
 10
-0.103042
 20
-1.386166
 30
0.0
 11
0.102958
 21
-1.386166
 31
0.0
  0
LINE
  5
58
100
AcDbEntity
  8
100
 62
     1
100
AcDbLine
 10
-0.143042
 20
-1.326166
 30
0.0
 11
-0.143042
 21
-0.226171
 31
0.0
  0
ARC
  5
59
100
AcDbEntity
  8
100
 62
     1
100
AcDbCircle
 10
-3.53685
 20
0.114666
 30
0.0
 40
0.09
100
AcDbArc
 50
191.621428
 51
270.002054
  0
ARC
  5
5A
100
AcDbEntity
  8
100
 62
     1
100
AcDbCircle
 10
0.10295
 20
-1.346134
 30
0.0
 40
0.04
100
AcDbArc
 50
270.000005
 51
0.000216
  0
LINE
  5
5B
100
AcDbEntity
  8
100
 62
     1
100
AcDbLine
 10
-2.855049
 20
0.019498
 30
0.0
 11
-2.625042
 21
0.019498
 31
0.0
  0
LINE
  5
5C
100
AcDbEntity
  8
100
 62
     1
100
AcDbLine
 10
0.360958
 20
-0.092131
 30
0.0
 11
0.360958
 21
0.035834
 31
0.0
  0
LINE
  5
5D
100
AcDbEntity
  8
100
 62
     1
100
AcDbLine
 10
-3.255049
 20
0.019498
 30
0.0
 11
-3.035035
 21
0.019498
 31
0.0
  0
LINE
  5
5E
100
AcDbEntity
  8
100
 62
     1
100
AcDbLine
 10
-3.255049
 20
1.296169
 30
0.0
 11
-3.035035
 21
1.296169
 31
0.0
  0
LINE
  5
5F
100
AcDbEntity
  8
100
 62
     1
100
AcDbLine
 10
-2.855049
 20
1.296169
 30
0.0
 11
-2.625042
 21
1.296169
 31
0.0
  0
LINE
  5
60
100
AcDbEntity
  8
100
 62
     1
100
AcDbLine
 10
-3.535985
 20
1.296169
 30
0.0
 11
-3.435035
 21
1.296169
 31
0.0
  0
LINE
  5
61
100
AcDbEntity
  8
100
 62
     1
100
AcDbLine
 10
-3.255358
 20
1.291043
 30
0.0
 11
-3.03504
 21
1.291043
 31
0.0
  0
LINE
  5
62
100
AcDbEntity
  8
100
 62
     1
100
AcDbLine
 10
-3.536886
 20
1.291043
 30
0.0
 11
-3.43504
 21
1.291043
 31
0.0
  0
LINE
  5
63
100
AcDbEntity
  8
100
 62
     1
100
AcDbLine
 10
-0.361042
 20
-0.092131
 30
0.0
 11
-0.361042
 21
0.035834
 31
0.0
  0
LINE
  5
64
100
AcDbEntity
  8
100
 62
     1
100
AcDbLine
 10
-3.625042
 20
1.219169
 30
0.0
 11
-2.625042
 21
1.219169
 31
0.0
  0
ARC
  5
65
100
AcDbEntity
  8
100
 62
     1
100
AcDbCircle
 10
-3.53595
 20
1.206166
 30
0.0
 40
0.09
100
AcDbArc
 50
89.997448
 51
171.68977
  0
ARC
  5
66
100
AcDbEntity
  8
100
 62
     1
100
AcDbCircle
 10
-3.53685
 20
1.201066
 30
0.0
 40
0.09
100
AcDbArc
 50
89.997951
 51
168.378578
  0
LINE
  5
67
100
AcDbEntity
  8
100
 62
     1
100
AcDbLine
 10
-2.855358
 20
0.024624
 30
0.0
 11
-2.625042
 21
0.024624
 31
0.0
  0
ELLIPSE
  5
68
100
AcDbEntity
  8
100
 62
     1
100
AcDbEllipse
 10
-2.94505
 20
1.296166
 30
0.0
 11
-0.09
 21
0.0
 31
0.0
210
0.0
220
0.0
230
0.9999999999999998
 40
0.687778
 41
0.0
 42
3.14160333496166
  0
ELLIPSE
  5
69
100
AcDbEntity
  8
100
 62
     1
100
AcDbEllipse
 10
-3.34505
 20
1.296166
 30
0.0
 11
-0.09
 21
0.0
 31
0.0
210
0.0
220
0.0
230
0.9999999999999998
 40
0.687778
 41
0.0
 42
3.14160333496166
  0
ELLIPSE
  5
6A
100
AcDbEntity
  8
100
 62
     1
100
AcDbEllipse
 10
-2.94505
 20
0.019466
 30
0.0
 11
-0.09
 21
0.0
 31
0.0
210
0.0
220
0.0
230
0.9999999999999998
 40
0.687778
 41
-3.141603200004678
 42
0.0000001349569825
  0
LINE
  5
6B
100
AcDbEntity
  8
100
 62
     1
100
AcDbLine
 10
-3.625042
 20
0.096498
 30
0.0
 11
-2.625042
 21
0.096498
 31
0.0
  0
LINE
  5
6C
100
AcDbEntity
  8
100
 62
     1
100
AcDbLine
 10
-0.143042
 20
-1.346166
 30
0.0
 11
-0.143042
 21
-1.326166
 31
0.0
  0
ARC
  5
6D
100
AcDbEntity
  8
100
 62
     1
100
AcDbCircle
 10
-0.10305
 20
-1.346134
 30
0.0
 40
0.04
100
AcDbArc
 50
179.999795
 51
270.000005
  0
LINE
  5
6E
100
AcDbEntity
  8
100
 62
     1
100
AcDbLine
 10
-0.143042
 20
-1.326166
 30
0.0
 11
-0.317468
 21
-1.15174
 31
0.0
  0
ARC
  5
6F
100
AcDbEntity
  8
100
 62
     1
100
AcDbCircle
 10
0.13995
 20
0.035866
 30
0.0
 40
0.08
100
AcDbArc
 50
180.000003
 51
0.000424
  0
ARC
  5
70
100
AcDbEntity
  8
100
 62
     1
100
AcDbCircle
 10
-3.53595
 20
0.109466
 30
0.0
 40
0.09
100
AcDbArc
 50
188.310235
 51
270.002557
  0
LINE
  5
71
100
AcDbEntity
  8
100
 62
     1
100
AcDbLine
 10
-3.535985
 20
0.019498
 30
0.0
 11
-3.435035
 21
0.019498
 31
0.0
  0
LINE
  5
72
100
AcDbEntity
  8
100
 62
     1
100
AcDbLine
 10
-2.855358
 20
1.291043
 30
0.0
 11
-2.625042
 21
1.291043
 31
0.0
  0
LINE
  5
73
100
AcDbEntity
  8
100
 62
     1
100
AcDbLine
 10
0.142958
 20
-1.326166
 30
0.0
 11
0.142958
 21
-0.226171
 31
0.0
  0
LINE
  5
74
100
AcDbEntity
  8
100
 62
     1
100
AcDbLine
 10
-3.255358
 20
0.024624
 30
0.0
 11
-3.03504
 21
0.024624
 31
0.0
  0
LINE
  5
75
100
AcDbEntity
  8
100
 62
     1
100
AcDbLine
 10
0.142958
 20
-1.346166
 30
0.0
 11
0.142958
 21
-1.326166
 31
0.0
  0
LINE
  5
76
100
AcDbEntity
  8
100
 62
     1
100
AcDbLine
 10
-2.625042
 20
0.019498
 30
0.0
 11
-2.625042
 21
1.291043
 31
0.0
  0
LINE
  5
77
100
AcDbEntity
  8
100
 62
     1
100
AcDbLine
 10
0.142958
 20
-1.326166
 30
0.0
 11
0.317385
 21
-1.15174
 31
0.0
  0
LINE
  5
78
100
AcDbEntity
  8
100
 62
     1
100
AcDbLine
 10
-3.625042
 20
1.219169
 30
0.0
 11
-3.625042
 21
0.096498
 31
0.0
  0
LINE
  5
79
100
AcDbEntity
  8
100
 62
     1
100
AcDbLine
 10
-3.536886
 20
0.024624
 30
0.0
 11
-3.43504
 21
0.024624
 31
0.0
  0
TEXT
  5
7A
100
AcDbEntity
  8
100
 62
     1
100
AcDbText
 10
-3.62685
 20
-1.930194
 30
0.0
 40
0.362685
  1
Part Family: 2000
100
AcDbText
  0
TEXT
  5
7B
100
AcDbEntity
  8
100
 62
     1
100
AcDbText
 10
-3.62685
 20
-2.474221
 30
0.0
 40
0.362685
  1
Component Name: 2089
100
AcDbText
  0
ENDSEC
  0
SECTION
  2
OBJECTS
  0
DICTIONARY
  5
C
100
AcDbDictionary
  3
ACAD_GROUP
350
D
  3
ACAD_MLINESTYLE
350
1B
  0
DICTIONARY
  5
D
102
{ACAD_REACTORS
330
C
102
}
100
AcDbDictionary
  0
DICTIONARY
  5
1B
102
{ACAD_REACTORS
330
C
102
}
100
AcDbDictionary
  3
STANDARD
350
1C
  0
MLINESTYLE
  5
1C
102
{ACAD_REACTORS
330
1B
102
}
100
AcDbMlineStyle
  2
STANDARD
 70
     0
  3

 62
   256
 51
90.0
 52
90.0
 71
     2
 49
0.5
 62
   256
  6
BYLAYER
 49
-0.5
 62
   256
  6
BYLAYER
  0
ENDSEC
  0
EOF
