  0
SECTION
  2
HEADER
  9
$ACADVER
  1
AC1014
  9
$ACADMAINTVER
 70
         0
  9
$DWGCODEPAGE
  3
ANSI_1252
  9
$INSBASE
 10
0.0
 20
0.0
 30
0.0
  9
$EXTMIN
 10
0.0
 20
0.0
 30
0.0
  9
$EXTMAX
 10
16.999966
 20
10.999978
 30
0.0
  9
$LIMMIN
 10
0.0
 20
0.0
  9
$LIMMAX
 10
16.999966
 20
10.999978
  9
$ORTHOMODE
 70
         0
  9
$REGENMODE
 70
         1
  9
$FILLMODE
 70
         1
  9
$QTEXTMODE
 70
         0
  9
$MIRRTEXT
 70
         1
  9
$DRAGMODE
 70
         2
  9
$LTSCALE
 40
1.0
  9
$OSMODE
 70
         0
  9
$ATTMODE
 70
         1
  9
$TEXTSIZE
 40
0.2
  9
$TRACEWID
 40
0.05
  9
$TEXTSTYLE
  7
Standard
  9
$CLAYER
  8
0
  9
$CELTYPE
  6
CONTINUOUS
  9
$CECOLOR
 62
       256
  9
$CELTSCALE
 40
1.0
  9
$DELOBJ
 70
         1
  9
$DISPSILH
 70
         0
  9
$DIMSCALE
 40
1.0
  9
$DIMASZ
 40
0.18
  9
$DIMEXO
 40
0.0625
  9
$DIMDLI
 40
0.38
  9
$DIMRND
 40
0.0
  9
$DIMDLE
 40
0.0
  9
$DIMEXE
 40
0.18
  9
$DIMTP
 40
0.0
  9
$DIMTM
 40
0.0
  9
$DIMTXT
 40
0.18
  9
$DIMCEN
 40
0.09
  9
$DIMTSZ
 40
0.0
  9
$DIMTOL
 70
         0
  9
$DIMLIM
 70
         0
  9
$DIMTIH
 70
         1
  9
$DIMTOH
 70
         1
  9
$DIMSE1
 70
         0
  9
$DIMSE2
 70
         0
  9
$DIMTAD
 70
         0
  9
$DIMZIN
 70
         0
  9
$DIMBLK
  1

  9
$DIMASO
 70
         1
  9
$DIMSHO
 70
         1
  9
$DIMPOST
  1

  9
$DIMAPOST
  1

  9
$DIMALT
 70
         0
  9
$DIMALTD
 70
         2
  9
$DIMALTF
 40
25.4
  9
$DIMLFAC
 40
1.0
  9
$DIMTOFL
 70
         0
  9
$DIMTVP
 40
0.0
  9
$DIMTIX
 70
         0
  9
$DIMSOXD
 70
         0
  9
$DIMSAH
 70
         0
  9
$DIMBLK1
  1

  9
$DIMBLK2
  1

  9
$DIMSTYLE
  2
Standard
  9
$DIMCLRD
 70
         0
  9
$DIMCLRE
 70
         0
  9
$DIMCLRT
 70
         0
  9
$DIMTFAC
 40
1.0
  9
$DIMGAP
 40
0.09
  9
$DIMJUST
 70
         0
  9
$DIMSD1
 70
         0
  9
$DIMSD2
 70
         0
  9
$DIMTOLJ
 70
         1
  9
$DIMTZIN
 70
         0
  9
$DIMALTZ
 70
         0
  9
$DIMALTTZ
 70
         0
  9
$DIMFIT
 70
         3
  9
$DIMUPT
 70
         0
  9
$DIMUNIT
 70
         2
  9
$DIMDEC
 70
         4
  9
$DIMTDEC
 70
         4
  9
$DIMALTU
 70
         2
  9
$DIMALTTD
 70
         2
  9
$DIMTXSTY
  7
Standard
  9
$DIMAUNIT
 70
         0
  9
$LUNITS
 70
         2
  9
$LUPREC
 70
         4
  9
$SKETCHINC
 40
0.1
  9
$FILLETRAD
 40
0.0
  9
$AUNITS
 70
         0
  9
$AUPREC
 70
         0
  9
$MENU
  1
acad
  9
$ELEVATION
 40
0.0
  9
$PELEVATION
 40
0.0
  9
$THICKNESS
 40
0.0
  9
$LIMCHECK
 70
         0
  9
$BLIPMODE
 70
         1
  9
$CHAMFERA
 40
0.0
  9
$CHAMFERB
 40
0.0
  9
$CHAMFERC
 40
0.0
  9
$CHAMFERD
 40
0.0
  9
$SKPOLY
 70
         0
  9
$TDCREATE
 40
0.000000000
  9
$TDUPDATE
 40
0.000000000
  9
$TDINDWG
 40
0.0000000000
  9
$TDUSRTIMER
 40
0.0000000000
  9
$USRTIMER
 70
         1
  9
$ANGBASE
 50
0.0
  9
$ANGDIR
 70
         0
  9
$PDMODE
 70
         0
  9
$PDSIZE
 40
0.0
  9
$PLINEWID
 40
0.0
  9
$COORDS
 70
         0
  9
$SPLFRAME
 70
         0
  9
$SPLINETYPE
 70
         6
  9
$SPLINESEGS
 70
         8
  9
$ATTDIA
 70
         0
  9
$ATTREQ
 70
         1
  9
$HANDLING
 70
         1
  9
$HANDSEED
  5
FF
  9
$SURFTAB1
 70
         6
  9
$SURFTAB2
 70
         6
  9
$SURFTYPE
 70
         6
  9
$SURFU
 70
         6
  9
$SURFV
 70
         6
  9
$UCSNAME
  2

  9
$UCSORG
 10
0.0
 20
0.0
 30
0.0
  9
$UCSXDIR
 10
1.0
 20
0.0
 30
0.0
  9
$UCSYDIR
 10
0.0
 20
1.0
 30
0.0
  9
$PUCSNAME
  2

  9
$PUCSORG
 10
0.0
 20
0.0
 30
0.0
  9
$PUCSXDIR
 10
1.0
 20
0.0
 30
0.0
  9
$PUCSYDIR
 10
0.0
 20
1.0
 30
0.0
  9
$USERI1
 70
         0
  9
$USERI2
 70
         0
  9
$USERI3
 70
         0
  9
$USERI4
 70
         0
  9
$USERI5
 70
         0
  9
$USERR1
 40
0.0
  9
$USERR2
 40
0.0
  9
$USERR3
 40
0.0
  9
$USERR4
 40
0.0
  9
$USERR5
 40
0.0
  9
$WORLDVIEW
 70
         1
  9
$SHADEDGE
 70
         3
  9
$SHADEDIF
 70
        70
  9
$TILEMODE
 70
         1
  9
$MAXACTVP
 70
        16
  9
$PINSBASE
 10
0.0
 20
0.0
 30
0.0
  9
$PLIMCHECK
 70
         0
  9
$PEXTMIN
 10
1.0000000000E+20
 20
1.0000000000E+20
 30
1.0000000000E+20
  9
$PEXTMAX
 10
-1.0000000000E+20
 20
-1.0000000000E+20
 30
-1.0000000000E+20
  9
$PLIMMIN
 10
0.0
 20
0.0
  9
$PLIMMAX
 10
12.0
 20
9.0
  9
$UNITMODE
 70
         0
  9
$VISRETAIN
 70
         0
  9
$PLINEGEN
 70
         1
  9
$PSLTSCALE
 70
         0
  9
$TREEDEPTH
 70
      3020
  9
$PICKSTYLE
 70
         1
  9
$CMLSTYLE
  2
Standard
  9
$CMLJUST
 70
         0
  9
$CMLSCALE
 40
1.0
  9
$PROXYGRAPHICS
 70
         0
  9
$MEASUREMENT
 70
         0
  0
ENDSEC
  0
SECTION
  2
CLASSES
  0
CLASS
  1
LWPOLYLINE
  2
AcDbPolyline
  3
"AutoCAD"
 90
        0
280
         0
281
         1
  0
CLASS
  1
IMAGE
  2
AcDbRasterImage
  3
ISM
 90
      127
280
         0
281
         1
  0
CLASS
  1
OLE2FRAME
  2
AcDbOle2Frame
  3
""
 90
        0
280
         0
281
         1
  0
CLASS
  1
HATCH
  2
AcDbHatch
  3
"ACAD_SEDONA"
 90
        0
280
         0
281
         1
  0
CLASS
  1
DICTIONARYVAR
  2
AcDbDictionaryVar
  3
"AutoCAD"
 90
        0
280
         0
281
         0
  0
CLASS
  1
RASTERVARIABLES
  2
AcDbRasterVariables
  3
ISM
 90
        0
280
         0
281
         0
  0
CLASS
  1
IMAGEDEF
  2
AcDbRasterImageDef
  3
ISM
 90
        0
280
         0
281
         0
  0
CLASS
  1
IMAGEDEF_REACTOR
  2
AcDbRasterImageDefReactor
  3
ISM
 90
        1
280
         0
281
         0
  0
CLASS
  1
IDBUFFER
  2
AcDbIdBuffer
  3
"Acad"
 90
        0
280
         0
281
         0
  0
CLASS
  1
SPATIAL_FILTER
  2
AcDbSpatialFilter
  3
"Acad"
 90
        0
280
         0
281
         0
  0
CLASS
  1
XRECORD
  2
AcDbXrecord
  3
"<Built In>"
 90
        0
280
         0
281
         0
  0
CLASS
  1
SORTENTSTABLE
  2
AcDbSortentsTable
  3
"AutoCAD"
 90
        0
280
         0
281
         0
  0
CLASS
  1
LAYER_INDEX
  2
AcDbLayerIndex
  3
"Acad"
 90
        0
280
         0
281
         0
  0
CLASS
  1
SPATIAL_INDEX
  2
AcDbSpatialIndex
  3
"Acad"
 90
        0
280
         0
281
         0
  0
CLASS
  1
OBJECT_PTR
  2
CAseDLPNTableRecord
  3
"ASE-LPNTableRecord"
 90
        1
280
         0
281
         0
  0
CLASS
  1
LAYOUT
  2
AcDbLayout
  3
"AutoCAD 2000"
 90
        1
280
         0
281
         0
  0
CLASS
  1
PLOTSETTINGS
  2
AcDbPlotSettings
  3
"AutoCAD 2000"
 90
        1
280
         0
281
         0
  0
CLASS
  1
ACDBDICTIONARYWDFLT
  2
AcDbDictionaryWithDefault
  3
"AutoCAD 2000"
 90
        1
280
         0
281
         0
  0
CLASS
  1
ACDBPLACEHOLDER
  2
AcDbPlaceHolder
  3
"AutoCAD 2000"
 90
        1
280
         0
281
         0
  0
CLASS
  1
VBA_PROJECT
  2
AcDbVbaProject
  3
"acadvba"
 90
        1
280
         0
281
         0
  0
CLASS
  1
WIPEOUT
  2
AcDbWipeout
  3
WipeOut|AutoCAD Express Tool|expresstools@autodesk.com
 90
      127
280
         0
281
         1
  0
CLASS
  1
WIPEOUTVARIABLES
  2
AcDbWipeoutVariables
  3
WipeOut|AutoCAD Express Tool|expresstools@autodesk.com
 90
        0
280
         0
281
         0
  0
CLASS
  1
RTEXT
  2
RText
  3
RText|AutoCAD Express Tool|expresstools@autodesk.com
 90
        0
280
         0
281
         1
  0
CLASS
  1
ARCALIGNEDTEXT
  2
AcDbArcAlignedText
  3
ATEXT|AutoCAD Express Tool|expresstools@autodesk.com
 90
        0
280
         0
281
         1
  0
ENDSEC
  0
SECTION
  2
TABLES
  0
TABLE
  2
VPORT
  5
7
100
AcDbSymbolTable
 70
         1
  0
VPORT
  5
15
100
AcDbSymbolTableRecord
100
AcDbViewportTableRecord
  2
*ACTIVE
 70
         0
 10
0.0
 20
0.0
 11
1.0
 21
1.0
 12
8.499983
 22
5.499989
 13
0.0
 23
0.0
 14
1.0
 24
1.0
 15
0.0
 25
0.0
 16
0.0
 26
0.0
 36
1.0
 17
0.0
 27
0.0
 37
0.0
 40
10.999978
 41
1.604229
 42
50.0
 43
0.0
 44
0.0
 50
0.0
 51
0.0
 71
         0
 72
       100
 73
         1
 74
         1
 75
         0
 76
         0
 77
         0
 78
         0
  0
ENDTAB
  0
TABLE
  2
LTYPE
  5
4
100
AcDbSymbolTable
 70
         7
  0
LTYPE
  5
11
100
AcDbSymbolTableRecord
100
AcDbLinetypeTableRecord
  2
ByBlock
 70
        64
  3

 72
        65
 73
         0
 40
0.0
  0
LTYPE
  5
12
100
AcDbSymbolTableRecord
100
AcDbLinetypeTableRecord
  2
ByLayer
 70
        64
  3

 72
        65
 73
         0
 40
0.0
  0
LTYPE
  5
13
100
AcDbSymbolTableRecord
100
AcDbLinetypeTableRecord
  2
CONTINUOUS
 70
         0
  3
Solid line
 72
        65
 73
         0
 40
0.0
  0
LTYPE
  5
21
100
AcDbSymbolTableRecord
100
AcDbLinetypeTableRecord
  2
HIDDEN2
 70
        64
  3
_ _ _ _ _ _ _ _ _ _ _ _ _ _ _ _ _ _ _ _ _ _ _ _
 72
        65
 73
         2
 40
0.1875
 49
0.125
 74
         0
 49
-0.0625
 74
         0
  0
LTYPE
  5
22
100
AcDbSymbolTableRecord
100
AcDbLinetypeTableRecord
  2
CENTER2
 70
        64
  3
___ _ ___ _ ___ _ ___ _ ___ _ ___ _ ___ _ ___ _
 72
        65
 73
         4
 40
1.125
 49
0.75
 74
         0
 49
-0.125
 74
         0
 49
0.125
 74
         0
 49
-0.125
 74
         0
  0
LTYPE
  5
23
100
AcDbSymbolTableRecord
100
AcDbLinetypeTableRecord
  2
PHANTOM2
 70
        64
  3
___ _ _ ___ _ _ ___ _ _ ___ _ _ ___ _ _ ___ _ _
 72
        65
 73
         6
 40
1.25
 49
0.625
 74
         0
 49
-0.125
 74
         0
 49
0.125
 74
         0
 49
-0.125
 74
         0
 49
0.125
 74
         0
 49
-0.125
 74
         0
  0
LTYPE
  5
24
100
AcDbSymbolTableRecord
100
AcDbLinetypeTableRecord
  2
DOT2
 70
        64
  3
...............................................
 72
        65
 73
         2
 40
0.125
 49
0.0
 74
         0
 49
-0.125
 74
         0
  0
ENDTAB
  0
TABLE
  2
LAYER
  5
2
100
AcDbSymbolTable
 70
         2
  0
LAYER
  5
14
100
AcDbSymbolTableRecord
100
AcDbLayerTableRecord
  2
0
 70
         0
 62
         7
  6
CONTINUOUS
  0
LAYER
  5
26
100
AcDbSymbolTableRecord
100
AcDbLayerTableRecord
  2
DEFAULT
 70
         0
 62
         7
  6
CONTINUOUS
  0
ENDTAB
  0
TABLE
  2
STYLE
  5
3
100
AcDbSymbolTable
 70
         2
  0
STYLE
  5
17
100
AcDbSymbolTableRecord
100
AcDbTextStyleTableRecord
  2
Standard
 70
         0
 40
0.0
 41
1.0
 50
0.0
 71
         0
 42
0.2
  3
txt
  4

  0
STYLE
  5
8F
100
AcDbSymbolTableRecord
100
AcDbTextStyleTableRecord
  2
arial_ttf
 70
         0
 40
0.0
 41
1.0
 50
0.0
 71
         0
 42
0.2
  3
arial.ttf
  4

1001
ACAD
1000
Arial
1071
        2
  0
ENDTAB
  0
TABLE
  2
VIEW
  5
5
100
AcDbSymbolTable
 70
         0
  0
ENDTAB
  0
TABLE
  2
UCS
  5
6
100
AcDbSymbolTable
 70
         0
  0
ENDTAB
  0
TABLE
  2
APPID
  5
8
100
AcDbSymbolTable
 70
         1
  0
APPID
  5
16
100
AcDbSymbolTableRecord
100
AcDbRegAppTableRecord
  2
ACAD
 70
         0
  0
ENDTAB
  0
TABLE
  2
DIMSTYLE
  5
9
100
AcDbSymbolTable
 70
         1
  0
DIMSTYLE
105
18
100
AcDbSymbolTableRecord
100
AcDbDimStyleTableRecord
  2
Standard
 70
         0
  3

  4

  5

  6

  7

 40
1.0
 41
0.18
 42
0.0625
 43
0.38
 44
0.18
 45
0.0
 46
0.0
 47
0.0
 48
0.0
 71
         0
 72
         0
 73
         1
 74
         1
 75
         0
 76
         0
 77
         0
 78
         0
140
0.18
141
0.09
142
0.0
143
25.4
144
1.0
145
0.0
146
1.0
147
0.09
170
         0
171
         2
172
         0
173
         0
174
         0
175
         0
176
         0
177
         0
178
         0
270
         2
271
         4
272
         4
273
         2
274
         2
275
         0
280
         0
281
         0
282
         0
283
         1
284
         0
285
         0
286
         0
287
         0
288
         0
340
17
  0
ENDTAB
  0
TABLE
  2
BLOCK_RECORD
  5
1
100
AcDbSymbolTable
 70
         7
  0
BLOCK_RECORD
  5
A
100
AcDbSymbolTableRecord
100
AcDbBlockTableRecord
  2
*MODEL_SPACE
  0
BLOCK_RECORD
  5
B
100
AcDbSymbolTableRecord
100
AcDbBlockTableRecord
  2
*PAPER_SPACE
  0
BLOCK_RECORD
  5
8E
100
AcDbSymbolTableRecord
100
AcDbBlockTableRecord
  2
SE317
  0
BLOCK_RECORD
  5
91
100
AcDbSymbolTableRecord
100
AcDbBlockTableRecord
  2
SE318
  0
BLOCK_RECORD
  5
92
100
AcDbSymbolTableRecord
100
AcDbBlockTableRecord
  2
SE319
  0
BLOCK_RECORD
  5
98
100
AcDbSymbolTableRecord
100
AcDbBlockTableRecord
  2
SE320
  0
BLOCK_RECORD
  5
99
100
AcDbSymbolTableRecord
100
AcDbBlockTableRecord
  2
SE321
  0
BLOCK_RECORD
  5
9F
100
AcDbSymbolTableRecord
100
AcDbBlockTableRecord
  2
SE322
  0
BLOCK_RECORD
  5
A3
100
AcDbSymbolTableRecord
100
AcDbBlockTableRecord
  2
SE323
  0
ENDTAB
  0
ENDSEC
  0
SECTION
  2
BLOCKS
  0
BLOCK
  5
D
100
AcDbEntity
  8
0
100
AcDbBlockBegin
  2
*MODEL_SPACE
 70
         0
 10
0.0
 20
0.0
 30
0.0
  3
*MODEL_SPACE
  1

  0
ENDBLK
  5
E
100
AcDbEntity
  8
0
100
AcDbBlockEnd
  0
BLOCK
  5
F
100
AcDbEntity
 67
         1
  8
0
100
AcDbBlockBegin
  2
*PAPER_SPACE
 70
         0
 10
0.0
 20
0.0
 30
0.0
  3
*PAPER_SPACE
  1

  0
ENDBLK
  5
10
100
AcDbEntity
 67
         1
  8
0
100
AcDbBlockEnd
  0
BLOCK
  5
A7
100
AcDbEntity
  8
DEFAULT
 62
         1
 48
0.0
100
AcDbBlockBegin
  2
SE317
 70
         0
 10
0.0
 20
0.0
 30
0.0
  3
SE317
  1

  0
TEXT
  5
A8
100
AcDbEntity
  8
0
  6
CONTINUOUS
 62
         7
100
AcDbText
 10
7.9174432966
 20
1.6774455591
 30
0.0
 40
0.25
  1
SYSTEM: FLOOR BOX
  7
arial_ttf
 11
7.9174432966
 21
1.9274455591
 31
0.0
100
AcDbText
 73
         3
  0
TEXT
  5
A9
100
AcDbEntity
  8
0
  6
CONTINUOUS
 62
         7
100
AcDbText
 10
7.9174432966
 20
1.1774455591
 30
0.0
 40
0.25
  1
CATALOG NUMBER: RFB119-D
  7
arial_ttf
 11
7.9174432966
 21
1.4274455591
 31
0.0
100
AcDbText
 73
         3
  0
ENDBLK
  5
AA
100
AcDbEntity
  8
0
  6
CONTINUOUS
 62
         7
100
AcDbBlockEnd
  0
BLOCK
  5
BE
100
AcDbEntity
  8
0
 62
         1
 48
0.0
100
AcDbBlockBegin
  2
SE318
 70
         0
 10
0.0
 20
0.0
 30
0.0
  3
SE318
  1

  0
ENDBLK
  5
BF
100
AcDbEntity
  8
0
 62
         1
 48
0.0
100
AcDbBlockEnd
  0
BLOCK
  5
AB
100
AcDbEntity
  8
0
 62
         1
 48
0.0
100
AcDbBlockBegin
  2
SE319
 70
         0
 10
0.0
 20
0.0
 30
0.0
  3
SE319
  1

  0
LINE
  5
AC
100
AcDbEntity
  8
0
  6
CONTINUOUS
 62
         7
100
AcDbLine
 10
4.5913824199
 20
4.0634797794
 30
0.0
 11
3.857881227
 21
4.0634797794
 31
0.0
  0
ARC
  5
AD
100
AcDbEntity
  8
0
  6
CONTINUOUS
 62
         7
100
AcDbCircle
 10
4.2246318234
 20
4.6259797794
 30
0.0
 40
0.6715
100
AcDbArc
 50
303.1043930386
 51
56.8956069614
  0
CIRCLE
  5
AE
100
AcDbEntity
  8
0
  6
CONTINUOUS
 62
         7
100
AcDbCircle
 10
4.2246318234
 20
5.3916047794
 30
0.0
 40
0.078
  0
ARC
  5
AF
100
AcDbEntity
  8
0
  6
CONTINUOUS
 62
         7
100
AcDbCircle
 10
4.2246318234
 20
4.6259797794
 30
0.0
 40
0.6715
100
AcDbArc
 50
123.1043930386
 51
236.8956069614
  0
LINE
  5
B0
100
AcDbEntity
  8
0
  6
CONTINUOUS
 62
         7
100
AcDbLine
 10
3.857881227
 20
5.1884797794
 30
0.0
 11
4.5913824199
 21
5.1884797794
 31
0.0
  0
LINE
  5
B1
100
AcDbEntity
  8
0
  6
CONTINUOUS
 62
         7
100
AcDbLine
 10
3.857881227
 20
5.5947297794
 30
0.0
 11
4.5913824199
 21
5.5947297794
 31
0.0
  0
ARC
  5
B2
100
AcDbEntity
  8
0
  6
CONTINUOUS
 62
         7
100
AcDbCircle
 10
4.2246318234
 20
6.1572297794
 30
0.0
 40
0.6715
100
AcDbArc
 50
123.1043930386
 51
236.8956069614
  0
LINE
  5
B3
100
AcDbEntity
  8
0
  6
CONTINUOUS
 62
         7
100
AcDbLine
 10
4.5913824199
 20
6.7197297794
 30
0.0
 11
3.857881227
 21
6.7197297794
 31
0.0
  0
ARC
  5
B4
100
AcDbEntity
  8
0
  6
CONTINUOUS
 62
         7
100
AcDbCircle
 10
4.2246318234
 20
6.1572297794
 30
0.0
 40
0.6715
100
AcDbArc
 50
303.1043930386
 51
56.8956069614
  0
LINE
  5
B5
100
AcDbEntity
  8
0
  6
CONTINUOUS
 62
         7
100
AcDbLine
 10
2.8496318234
 20
3.2016047794
 30
0.0
 11
2.8496318234
 21
7.5816047794
 31
0.0
  0
LINE
  5
B6
100
AcDbEntity
  8
0
  6
CONTINUOUS
 62
         7
100
AcDbLine
 10
2.9096318234
 20
7.6416047794
 30
0.0
 11
5.5396318234
 21
7.6416047794
 31
0.0
  0
LINE
  5
B7
100
AcDbEntity
  8
0
  6
CONTINUOUS
 62
         7
100
AcDbLine
 10
5.5396318234
 20
3.1416047794
 30
0.0
 11
2.9096318234
 21
3.1416047794
 31
0.0
  0
LINE
  5
B8
100
AcDbEntity
  8
0
  6
CONTINUOUS
 62
         7
100
AcDbLine
 10
5.5996318234
 20
7.5816047794
 30
0.0
 11
5.5996318234
 21
3.2016047794
 31
0.0
  0
ARC
  5
B9
100
AcDbEntity
  8
0
  6
CONTINUOUS
 62
         7
100
AcDbCircle
 10
5.5396318234
 20
7.5816047794
 30
0.0
 40
0.06
100
AcDbArc
 50
0.0
 51
90.0
  0
ARC
  5
BA
100
AcDbEntity
  8
0
  6
CONTINUOUS
 62
         7
100
AcDbCircle
 10
2.9096318234
 20
3.2016047794
 30
0.0
 40
0.06
100
AcDbArc
 50
180.0
 51
270.0
  0
ARC
  5
BB
100
AcDbEntity
  8
0
  6
CONTINUOUS
 62
         7
100
AcDbCircle
 10
5.5396318234
 20
3.2016047794
 30
0.0
 40
0.06
100
AcDbArc
 50
270.0
 51
360.0
  0
ARC
  5
BC
100
AcDbEntity
  8
0
  6
CONTINUOUS
 62
         7
100
AcDbCircle
 10
2.9096318234
 20
7.5816047794
 30
0.0
 40
0.06
100
AcDbArc
 50
90.0
 51
180.0
  0
ENDBLK
  5
BD
100
AcDbEntity
  8
0
  6
CONTINUOUS
 62
         7
100
AcDbBlockEnd
  0
BLOCK
  5
E9
100
AcDbEntity
  8
0
 62
         1
 48
0.0
100
AcDbBlockBegin
  2
SE320
 70
         0
 10
0.0
 20
0.0
 30
0.0
  3
SE320
  1

  0
ENDBLK
  5
EA
100
AcDbEntity
  8
0
 62
         1
 48
0.0
100
AcDbBlockEnd
  0
BLOCK
  5
C0
100
AcDbEntity
  8
0
 62
         1
 48
0.0
100
AcDbBlockBegin
  2
SE321
 70
         0
 10
0.0
 20
0.0
 30
0.0
  3
SE321
  1

  0
LINE
  5
C1
100
AcDbEntity
  8
0
  6
CONTINUOUS
 62
         7
100
AcDbLine
 10
11.0079268344
 20
9.4344975135
 30
0.0
 11
10.9655004275
 21
9.458992411
 31
0.0
  0
LINE
  5
C2
100
AcDbEntity
  8
0
  6
CONTINUOUS
 62
         7
100
AcDbLine
 10
9.105809593
 20
8.385299407
 30
0.0
 11
9.1482359999
 21
8.3608045096
 31
0.0
  0
LINE
  5
C3
100
AcDbEntity
  8
0
  6
CONTINUOUS
 62
         7
100
AcDbLine
 10
10.3374132509
 20
6.125849487
 30
0.0
 11
9.8187495834
 21
5.8263988789
 31
0.0
  0
LINE
  5
C4
100
AcDbEntity
  8
0
  6
CONTINUOUS
 62
         7
100
AcDbLine
 10
9.7763231765
 20
5.8508937763
 30
0.0
 11
10.294986844
 21
6.1503443844
 31
0.0
  0
ELLIPSE
  5
C5
100
AcDbEntity
  8
0
  6
CONTINUOUS
 62
         7
100
AcDbEllipse
 10
10.0356550103
 20
6.4598984071
 30
0.0
 11
-0.3357499999999713
 21
-0.5815360586412675
 31
0.0
210
0.0
220
0.0
230
1.0
 40
0.5773502692
 41
1.3631788187953999
 42
3.0783689979730529
  0
LINE
  5
C6
100
AcDbEntity
  8
0
  6
CONTINUOUS
 62
         7
100
AcDbLine
 10
10.294986844
 20
6.1503443844
 30
0.0
 11
10.3374132509
 21
6.125849487
 31
0.0
  0
ELLIPSE
  5
C7
100
AcDbEntity
  8
0
  6
CONTINUOUS
 62
         7
100
AcDbEllipse
 10
10.0780814171
 20
6.4354035097
 30
0.0
 11
-0.3357499999999712
 21
-0.5815360586412673
 31
0.0
210
0.0
220
0.0
230
1.0
 40
0.5773502692
 41
1.3631788187954013
 42
3.3492101615891157
  0
ELLIPSE
  5
C8
100
AcDbEntity
  8
0
  6
CONTINUOUS
 62
         7
100
AcDbEllipse
 10
10.0356550103
 20
7.0850286019
 30
0.0
 11
-0.0389999999999967
 21
-0.0675499814951881
 31
0.0
210
0.0
220
0.0
230
1.0
 40
0.5773502692
 41
0.5751114237017782
 42
2.5664812298880069
  0
ELLIPSE
  5
C9
100
AcDbEntity
  8
0
  6
CONTINUOUS
 62
         7
100
AcDbEllipse
 10
10.0356550103
 20
6.4598984071
 30
0.0
 11
0.3357499999999712
 21
0.5815360586412672
 31
0.0
210
0.0
220
0.0
230
1.0
 40
0.5773502692
 41
3.2048163092065232
 42
3.3492101615891161
  0
LINE
  5
CA
100
AcDbEntity
  8
0
  6
CONTINUOUS
 62
         7
100
AcDbLine
 10
9.7763231765
 20
5.8508937763
 30
0.0
 11
9.8187495834
 21
5.8263988789
 31
0.0
  0
ELLIPSE
  5
CB
100
AcDbEntity
  8
0
  6
CONTINUOUS
 62
         7
100
AcDbEllipse
 10
10.0780814171
 20
7.0605337045
 30
0.0
 11
0.0389999999999966
 21
0.0675499814951881
 31
0.0
210
0.0
220
0.0
230
1.0
 40
0.5773502692
 41
0.0
 42
6.2831853071795862
  0
LINE
  5
CC
100
AcDbEntity
  8
0
  6
CONTINUOUS
 62
         7
100
AcDbLine
 10
10.294986844
 20
7.400604774
 30
0.0
 11
9.7763231765
 21
7.1011541659
 31
0.0
  0
ELLIPSE
  5
CD
100
AcDbEntity
  8
0
  6
CONTINUOUS
 62
         7
100
AcDbEllipse
 10
10.0356550103
 20
7.7101587967
 30
0.0
 11
0.3357499999999705
 21
0.5815360586412672
 31
0.0
210
0.0
220
0.0
230
1.0
 40
0.5773502692
 41
3.2048163092065214
 42
3.3492101615891121
  0
ELLIPSE
  5
CE
100
AcDbEntity
  8
0
  6
CONTINUOUS
 62
         7
100
AcDbEllipse
 10
10.0780814171
 20
6.4354035097
 30
0.0
 11
0.335749999999971
 21
0.581536058641267
 31
0.0
210
0.0
220
0.0
230
1.0
 40
0.5773502692
 41
1.3631788187953995
 42
3.3492101615891192
  0
LINE
  5
CF
100
AcDbEntity
  8
0
  6
CONTINUOUS
 62
         7
100
AcDbLine
 10
9.8187495834
 20
6.7449575325
 30
0.0
 11
10.3374132509
 21
7.0444081405
 31
0.0
  0
LINE
  5
D0
100
AcDbEntity
  8
0
  6
CONTINUOUS
 62
         7
100
AcDbLine
 10
10.294986844
 20
7.400604774
 30
0.0
 11
10.3374132509
 21
7.3761098765
 31
0.0
  0
LINE
  5
D1
100
AcDbEntity
  8
0
  6
CONTINUOUS
 62
         7
100
AcDbLine
 10
9.8187495834
 20
7.0766592685
 30
0.0
 11
10.3374132509
 21
7.3761098765
 31
0.0
  0
ELLIPSE
  5
D2
100
AcDbEntity
  8
0
  6
CONTINUOUS
 62
         7
100
AcDbEllipse
 10
10.0780814171
 20
7.6856638993
 30
0.0
 11
0.3357499999999705
 21
0.5815360586412668
 31
0.0
210
0.0
220
0.0
230
1.0
 40
0.5773502692
 41
1.3631788187953979
 42
3.3492101615891086
  0
LINE
  5
D3
100
AcDbEntity
  8
0
  6
CONTINUOUS
 62
         7
100
AcDbLine
 10
10.3374132509
 20
8.2946685301
 30
0.0
 11
9.8187495834
 21
7.995217922
 31
0.0
  0
ELLIPSE
  5
D4
100
AcDbEntity
  8
0
  6
CONTINUOUS
 62
         7
100
AcDbEllipse
 10
10.0356550103
 20
7.7101587967
 30
0.0
 11
-0.3357499999999707
 21
-0.581536058641267
 31
0.0
210
0.0
220
0.0
230
1.0
 40
0.5773502692
 41
1.3631788187953995
 42
3.0783689979725941
  0
LINE
  5
D5
100
AcDbEntity
  8
0
  6
CONTINUOUS
 62
         7
100
AcDbLine
 10
9.7763231765
 20
7.1011541659
 30
0.0
 11
9.8187495834
 21
7.0766592685
 31
0.0
  0
ELLIPSE
  5
D6
100
AcDbEntity
  8
0
  6
CONTINUOUS
 62
         7
100
AcDbEllipse
 10
10.0780814171
 20
7.6856638993
 30
0.0
 11
-0.3357499999999712
 21
-0.5815360586412672
 31
0.0
210
0.0
220
0.0
230
1.0
 40
0.5773502692
 41
1.363178818795401
 42
3.3492101615891214
  0
LINE
  5
D7
100
AcDbEntity
  8
0
  6
CONTINUOUS
 62
         7
100
AcDbLine
 10
9.105809593
 20
4.7110647929
 30
0.0
 11
9.105809593
 21
8.2873198173
 31
0.0
  0
LINE
  5
D8
100
AcDbEntity
  8
0
  6
CONTINUOUS
 62
         7
100
AcDbLine
 10
11.0503532413
 20
9.4100026161
 30
0.0
 11
11.0503532413
 21
5.8337475916
 31
0.0
  0
LINE
  5
D9
100
AcDbEntity
  8
0
  6
CONTINUOUS
 62
         7
100
AcDbLine
 10
9.1482359999
 20
8.3608045096
 30
0.0
 11
11.0079268344
 21
9.4344975135
 31
0.0
  0
LINE
  5
DA
100
AcDbEntity
  8
0
  6
CONTINUOUS
 62
         7
100
AcDbLine
 10
9.105809593
 20
8.385299407
 30
0.0
 11
10.9655004275
 21
9.458992411
 31
0.0
  0
LINE
  5
DB
100
AcDbEntity
  8
0
  6
CONTINUOUS
 62
         7
100
AcDbLine
 10
9.0633831861
 20
4.7355596903
 30
0.0
 11
9.0633831861
 21
8.3118147148
 31
0.0
  0
LINE
  5
DC
100
AcDbEntity
  8
0
  6
CONTINUOUS
 62
         7
100
AcDbLine
 10
11.0079268344
 20
5.7602628994
 30
0.0
 11
9.1482359999
 21
4.6865698954
 31
0.0
  0
LINE
  5
DD
100
AcDbEntity
  8
0
  6
CONTINUOUS
 62
         7
100
AcDbLine
 10
9.0633831861
 20
4.7355596903
 30
0.0
 11
9.105809593
 21
4.7110647929
 31
0.0
  0
ELLIPSE
  5
DE
100
AcDbEntity
  8
0
  6
CONTINUOUS
 62
         7
100
AcDbEllipse
 10
11.0079268344
 20
5.8092526942
 30
0.0
 11
-0.0299999999999974
 21
-0.0519615242270677
 31
0.0
210
0.0
220
0.0
230
1.0
 40
0.5773502692
 41
0.7853981633973796
 42
2.3561944901922991
  0
ELLIPSE
  5
DF
100
AcDbEntity
  8
0
  6
CONTINUOUS
 62
         7
100
AcDbEllipse
 10
11.0079268344
 20
9.3855077187
 30
0.0
 11
-0.0299999999999972
 21
-0.0519615242270675
 31
0.0
210
0.0
220
0.0
230
1.0
 40
0.5773502692
 41
2.3561944901922462
 42
3.9269908169871495
  0
LINE
  5
E0
100
AcDbEntity
  8
0
  6
CONTINUOUS
 62
         7
100
AcDbLine
 10
9.105809593
 20
8.2873198173
 30
0.0
 11
9.0633831861
 21
8.3118147148
 31
0.0
  0
ELLIPSE
  5
E1
100
AcDbEntity
  8
0
  6
CONTINUOUS
 62
         7
100
AcDbEllipse
 10
9.1482359999
 20
8.3118147148
 30
0.0
 11
0.0299999999999973
 21
0.0519615242270678
 31
0.0
210
0.0
220
0.0
230
1.0
 40
0.5773502692
 41
0.7853981633973236
 42
2.3561944901922622
  0
ELLIPSE
  5
E2
100
AcDbEntity
  8
0
  6
CONTINUOUS
 62
         7
100
AcDbEllipse
 10
9.105809593
 20
4.7600545877
 30
0.0
 11
0.0299999999999972
 21
0.0519615242270675
 31
0.0
210
0.0
220
0.0
230
1.0
 40
0.5773502692
 41
2.3561944901922849
 42
3.141592653589782
  0
ELLIPSE
  5
E3
100
AcDbEntity
  8
0
  6
CONTINUOUS
 62
         7
100
AcDbEllipse
 10
10.9655004275
 20
9.4100026161
 30
0.0
 11
-0.0299999999999975
 21
-0.0519615242270676
 31
0.0
210
0.0
220
0.0
230
1.0
 40
0.5773502692
 41
3.1415926535897452
 42
3.9269908169871548
  0
ELLIPSE
  5
E4
100
AcDbEntity
  8
0
  6
CONTINUOUS
 62
         7
100
AcDbEllipse
 10
9.1482359999
 20
4.7355596903
 30
0.0
 11
0.0299999999999975
 21
0.0519615242270676
 31
0.0
210
0.0
220
0.0
230
1.0
 40
0.5773502692
 41
2.3561944901922631
 42
3.9269908169871366
  0
ELLIPSE
  5
E5
100
AcDbEntity
  8
0
  6
CONTINUOUS
 62
         7
100
AcDbEllipse
 10
9.105809593
 20
8.3363096122
 30
0.0
 11
-0.0299999999999973
 21
-0.0519615242270678
 31
0.0
210
0.0
220
0.0
230
1.0
 40
0.5773502692
 41
3.926990816987153
 42
5.497787143782034
  0
LINE
  5
E6
100
AcDbEntity
  8
0
  6
CONTINUOUS
 62
         7
100
AcDbLine
 10
11.0379268344
 20
9.4374692429
 30
0.0
 11
10.9955004275
 21
9.4619641403
 31
0.0
  0
LINE
  5
E7
100
AcDbEntity
  8
0
  6
CONTINUOUS
 62
         7
100
AcDbLine
 10
9.075809593
 20
4.7080930635
 30
0.0
 11
9.1182359999
 21
4.6835981661
 31
0.0
  0
ENDBLK
  5
E8
100
AcDbEntity
  8
0
  6
CONTINUOUS
 62
         7
100
AcDbBlockEnd
  0
BLOCK
  5
EB
100
AcDbEntity
  8
DEFAULT
 62
         1
 48
0.0
100
AcDbBlockBegin
  2
SE322
 70
         0
 10
0.0
 20
0.0
 30
0.0
  3
SE322
  1

  0
HATCH
  5
EC
100
AcDbEntity
  8
DEFAULT
  6
CONTINUOUS
 62
         7
100
AcDbHatch
 10
0.0
 20
0.0
 30
0.0
210
0.0
220
0.0
230
1.0
  2
SOLID
 70
         1
 71
         1
 91
        1
 92
        1
 93
        3
 72
         1
 10
11.942717905543903
 20
4.970561025818907
 11
12.123139862485234
 21
5.1163943573898072
 72
         1
 10
12.123139862485235
 20
5.1163943573898072
 11
11.870549122767375
 21
5.0122276919820283
 72
         1
 10
11.870549122767375
 20
5.0122276919820283
 11
11.942717905543905
 21
4.970561025818907
 97
        0
 75
         0
 76
         1
 98
        1
 10
0.0
 20
0.0
  0
HATCH
  5
ED
100
AcDbEntity
  8
DEFAULT
  6
CONTINUOUS
 62
         7
100
AcDbHatch
 10
0.0
 20
0.0
 30
0.0
210
0.0
220
0.0
230
1.0
  2
SOLID
 70
         1
 71
         1
 91
        1
 92
        1
 93
        3
 72
         1
 10
10.516039767682473
 20
4.1468680188777505
 11
10.263449027964613
 21
4.0427013534699707
 72
         1
 10
10.263449027964613
 20
4.0427013534699707
 11
10.443870984905944
 21
4.1885346850408709
 72
         1
 10
10.443870984905944
 20
4.1885346850408709
 11
10.516039767682473
 21
4.1468680188777505
 97
        0
 75
         0
 76
         1
 98
        1
 10
0.0
 20
0.0
  0
LINE
  5
EE
100
AcDbEntity
  8
DEFAULT
  6
CONTINUOUS
 62
         7
100
AcDbLine
 10
11.1161800086
 20
5.6977629001
 30
0.0
 11
12.2313930367
 21
5.0538943581
 31
0.0
  0
LINE
  5
EF
100
AcDbEntity
  8
DEFAULT
  6
CONTINUOUS
 62
         7
100
AcDbLine
 10
9.256489174
 20
4.6240698962
 30
0.0
 11
10.3717022021
 21
3.9802013542
 31
0.0
  0
LINE
  5
F0
100
AcDbEntity
  8
DEFAULT
  6
CONTINUOUS
 62
         7
100
AcDbLine
 10
12.1231398625
 20
5.1163943574
 30
0.0
 11
11.561355234
 21
4.7920478509
 31
0.0
  0
LINE
  5
F1
100
AcDbEntity
  8
DEFAULT
  6
CONTINUOUS
 62
         7
100
AcDbLine
 10
10.6269901338
 20
4.2525919088
 30
0.0
 11
10.263449028
 21
4.0427013535
 31
0.0
  0
TEXT
  5
F2
100
AcDbEntity
  8
DEFAULT
  6
CONTINUOUS
 62
         7
100
AcDbText
 10
10.7144901211
 20
4.4545478691
 30
0.0
 40
0.25
  1
2 3/4
  7
arial_ttf
 11
10.7144901211
 21
4.7045478691
 31
0.0
100
AcDbText
 73
         3
  0
TEXT
  5
F3
100
AcDbEntity
  8
DEFAULT
  6
CONTINUOUS
 62
         7
100
AcDbText
 10
10.7144901211
 20
4.0795478691
 30
0.0
 40
0.25
  1
[70 mm]
  7
arial_ttf
 11
10.7144901211
 21
4.3295478691
 31
0.0
100
AcDbText
 73
         3
  0
ENDBLK
  5
F4
100
AcDbEntity
  8
DEFAULT
  6
CONTINUOUS
 62
         7
100
AcDbBlockEnd
  0
BLOCK
  5
F5
100
AcDbEntity
  8
DEFAULT
 62
         1
 48
0.0
100
AcDbBlockBegin
  2
SE323
 70
         0
 10
0.0
 20
0.0
 30
0.0
  3
SE323
  1

  0
HATCH
  5
F6
100
AcDbEntity
  8
DEFAULT
  6
CONTINUOUS
 62
         7
100
AcDbHatch
 10
0.0
 20
0.0
 30
0.0
210
0.0
220
0.0
230
1.0
  2
SOLID
 70
         1
 71
         1
 91
        1
 92
        1
 93
        3
 72
         1
 10
7.7518504135627015
 20
4.1793560931344613
 11
7.7879348049509662
 21
3.9501894292373181
 72
         1
 10
7.7879348049509654
 20
3.9501894292373181
 11
7.82401919633923
 21
4.2210227592975782
 72
         1
 10
7.82401919633923
 20
4.2210227592975782
 11
7.7518504135627015
 21
4.1793560931344613
 97
        0
 75
         0
 76
         1
 98
        1
 10
0.0
 20
0.0
  0
HATCH
  5
F7
100
AcDbEntity
  8
DEFAULT
  6
CONTINUOUS
 62
         7
100
AcDbHatch
 10
0.0
 20
0.0
 30
0.0
210
0.0
220
0.0
230
1.0
  2
SOLID
 70
         1
 71
         1
 91
        1
 92
        1
 93
        3
 72
         1
 10
7.7518504135626998
 20
7.2556111236407039
 11
7.7879348049509645
 21
7.5264444537009636
 72
         1
 10
7.7879348049509645
 20
7.5264444537009636
 11
7.8240191963392292
 21
7.2972777898038208
 72
         1
 10
7.8240191963392292
 20
7.2972777898038208
 11
7.7518504135627007
 21
7.2556111236407039
 97
        0
 75
         0
 76
         1
 98
        1
 10
0.0
 20
0.0
  0
LINE
  5
F8
100
AcDbEntity
  8
DEFAULT
  6
CONTINUOUS
 62
         7
100
AcDbLine
 10
8.9975564188
 20
4.6485647936
 30
0.0
 11
7.6796816308
 21
3.88768943
 31
0.0
  0
LINE
  5
F9
100
AcDbEntity
  8
DEFAULT
  6
CONTINUOUS
 62
         7
100
AcDbLine
 10
8.9975564188
 20
8.2248198181
 30
0.0
 11
7.6796816308
 21
7.4639444545
 31
0.0
  0
LINE
  5
FA
100
AcDbEntity
  8
DEFAULT
  6
CONTINUOUS
 62
         7
100
AcDbLine
 10
7.787934805
 20
3.9501894292
 30
0.0
 11
7.787934805
 21
5.6278115825
 31
0.0
  0
LINE
  5
FB
100
AcDbEntity
  8
DEFAULT
  6
CONTINUOUS
 62
         7
100
AcDbLine
 10
7.787934805
 20
6.4278115385
 30
0.0
 11
7.787934805
 21
7.5264444537
 31
0.0
  0
TEXT
  5
FC
100
AcDbEntity
  8
DEFAULT
  6
CONTINUOUS
 62
         7
100
AcDbText
 10
7.3091304571
 20
6.090311569
 30
0.0
 40
0.25
  1
4 1/2
  7
arial_ttf
 11
7.3091304571
 21
6.340311569
 31
0.0
100
AcDbText
 73
         3
  0
TEXT
  5
FD
100
AcDbEntity
  8
DEFAULT
  6
CONTINUOUS
 62
         7
100
AcDbText
 10
7.3091304571
 20
5.715311569
 30
0.0
 40
0.25
  1
[114 mm]
  7
arial_ttf
 11
7.3091304571
 21
5.965311569
 31
0.0
100
AcDbText
 73
         3
  0
ENDBLK
  5
FE
100
AcDbEntity
  8
DEFAULT
  6
CONTINUOUS
 62
         7
100
AcDbBlockEnd
  0
ENDSEC
  0
SECTION
  2
ENTITIES
  0
INSERT
  5
90
100
AcDbEntity
  8
DEFAULT
 62
         0
 48
0.0
100
AcDbBlockReference
  2
SE317
 10
0.0
 20
0.0
 30
0.0
  0
INSERT
  5
93
102
{ACAD_XDICTIONARY
360
94
102
}
100
AcDbEntity
  8
0
 62
         0
 48
0.0
100
AcDbBlockReference
  2
SE319
 10
0.0
 20
0.0
 30
0.0
  0
INSERT
  5
97
100
AcDbEntity
  8
0
 62
         0
 48
0.0
100
AcDbBlockReference
  2
SE318
 10
0.0
 20
0.0
 30
0.0
  0
INSERT
  5
9A
102
{ACAD_XDICTIONARY
360
9B
102
}
100
AcDbEntity
  8
0
 62
         0
 48
0.0
100
AcDbBlockReference
  2
SE321
 10
0.0
 20
0.0
 30
0.0
  0
INSERT
  5
9E
100
AcDbEntity
  8
0
 62
         0
 48
0.0
100
AcDbBlockReference
  2
SE320
 10
0.0
 20
0.0
 30
0.0
  0
INSERT
  5
A2
100
AcDbEntity
  8
DEFAULT
 62
         0
 48
0.0
100
AcDbBlockReference
  2
SE322
 10
0.0
 20
0.0
 30
0.0
  0
INSERT
  5
A6
100
AcDbEntity
  8
DEFAULT
 62
         0
 48
0.0
100
AcDbBlockReference
  2
SE323
 10
0.0
 20
0.0
 30
0.0
  0
ENDSEC
  0
SECTION
  2
OBJECTS
  0
DICTIONARY
  5
19
100
AcDbDictionary
  3
ACAD_GROUP
350
1A
  3
ACAD_MLINESTYLE
350
1B
  0
DICTIONARY
  5
1A
102
{ACAD_REACTORS
330
19
102
}
100
AcDbDictionary
  0
DICTIONARY
  5
1B
102
{ACAD_REACTORS
330
19
102
}
100
AcDbDictionary
  3
STANDARD
350
1C
  0
MLINESTYLE
  5
1C
102
{ACAD_REACTORS
330
1B
102
}
100
AcDbMlineStyle
  2
Standard
 70
         0
  3

 62
         0
 51
90.0
 52
90.0
 71
         2
 49
0.5
 62
       256
  6
ByLayer
 49
-0.5
 62
       256
  6
ByLayer
  0
DICTIONARY
  5
94
100
AcDbDictionary
  3
ACAD_FILTER
350
95
  0
DICTIONARY
  5
95
100
AcDbDictionary
  3
SPATIAL
350
96
  0
SPATIAL_FILTER
  5
96
100
AcDbFilter
100
AcDbSpatialFilter
 70
         2
 10
2.5996318234
 20
2.8916047794
 10
5.8496318234
 20
7.8916047794
210
0.0
220
0.0
230
1.0
 11
0.0
 21
0.0
 31
0.0
 71
         1
 72
         0
 73
         0
 40
1.0
 40
0.0
 40
0.0
 40
0.0
 40
0.0
 40
1.0
 40
0.0
 40
0.0
 40
0.0
 40
0.0
 40
1.0
 40
0.0
 40
1.0
 40
0.0
 40
0.0
 40
0.0
 40
0.0
 40
1.0
 40
0.0
 40
0.0
 40
0.0
 40
0.0
 40
1.0
 40
0.0
  0
DICTIONARY
  5
9B
100
AcDbDictionary
  3
ACAD_FILTER
350
9C
  0
DICTIONARY
  5
9C
100
AcDbDictionary
  3
SPATIAL
350
9D
  0
SPATIAL_FILTER
  5
9D
100
AcDbFilter
100
AcDbSpatialFilter
 70
         2
 10
8.8133831861
 20
4.4307874346
 10
11.3003532413
 20
9.7147748719
210
0.0
220
0.0
230
1.0
 11
0.0
 21
0.0
 31
0.0
 71
         1
 72
         0
 73
         0
 40
1.0
 40
0.0
 40
0.0
 40
0.0
 40
0.0
 40
1.0
 40
0.0
 40
0.0
 40
0.0
 40
0.0
 40
1.0
 40
0.0
 40
1.0
 40
0.0
 40
0.0
 40
0.0
 40
0.0
 40
1.0
 40
0.0
 40
0.0
 40
0.0
 40
0.0
 40
1.0
 40
0.0
  0
ENDSEC
  0
EOF
