  0
SECTION
  2
HEADER
  9
$ACADVER
  1
AC1009
  9
$INSBASE
 10
0.0
 20
0.0
 30
0.0
  9
$EXTMIN
 10
-2.1552686307
 20
-1.6452818078
 30
0.0
  9
$EXTMAX
 10
2.1552705992
 20
1.6452818078
 30
0.0
  9
$LIMMIN
 10
0.0
 20
0.0
  9
$LIMMAX
 10
12.0
 20
9.0
  9
$ORTHOMODE
 70
         0
  9
$REGENMODE
 70
         1
  9
$FILLMODE
 70
         1
  9
$QTEXTMODE
 70
         0
  9
$MIRRTEXT
 70
         1
  9
$DRAGMODE
 70
         2
  9
$LTSCALE
 40
1.0
  9
$OSMODE
 70
         0
  9
$ATTMODE
 70
         1
  9
$TEXTSIZE
 40
0.2
  9
$TRACEWID
 40
0.05
  9
$TEXTSTYLE
  7
STANDARD
  9
$CLAYER
  8
0
  9
$CELTYPE
  6
CONTINUOUS
  9
$CECOLOR
 62
       256
  9
$DIMSCALE
 40
1.0
  9
$DIMASZ
 40
0.18
  9
$DIMEXO
 40
0.0625
  9
$DIMDLI
 40
0.38
  9
$DIMRND
 40
0.0
  9
$DIMDLE
 40
0.0
  9
$DIMEXE
 40
0.18
  9
$DIMTP
 40
0.0
  9
$DIMTM
 40
0.0
  9
$DIMTXT
 40
0.18
  9
$DIMCEN
 40
0.09
  9
$DIMTSZ
 40
0.0
  9
$DIMTOL
 70
         0
  9
$DIMLIM
 70
         0
  9
$DIMTIH
 70
         1
  9
$DIMTOH
 70
         1
  9
$DIMSE1
 70
         0
  9
$DIMSE2
 70
         0
  9
$DIMTAD
 70
         0
  9
$DIMZIN
 70
         0
  9
$DIMBLK
  1

  9
$DIMASO
 70
         1
  9
$DIMSHO
 70
         1
  9
$DIMPOST
  1

  9
$DIMAPOST
  1

  9
$DIMALT
 70
         0
  9
$DIMALTD
 70
         2
  9
$DIMALTF
 40
25.4
  9
$DIMLFAC
 40
1.0
  9
$DIMTOFL
 70
         0
  9
$DIMTVP
 40
0.0
  9
$DIMTIX
 70
         0
  9
$DIMSOXD
 70
         0
  9
$DIMSAH
 70
         0
  9
$DIMBLK1
  1

  9
$DIMBLK2
  1

  9
$DIMSTYLE
  2
STANDARD
  9
$DIMCLRD
 70
         0
  9
$DIMCLRE
 70
         0
  9
$DIMCLRT
 70
         0
  9
$DIMTFAC
 40
1.0
  9
$DIMGAP
 40
0.09
  9
$LUNITS
 70
         2
  9
$LUPREC
 70
         4
  9
$AXISMODE
 70
         0
  9
$AXISUNIT
 10
0.0
 20
0.0
  9
$SKETCHINC
 40
0.1
  9
$FILLETRAD
 40
0.0
  9
$AUNITS
 70
         0
  9
$AUPREC
 70
         0
  9
$MENU
  1
acad
  9
$ELEVATION
 40
0.0
  9
$PELEVATION
 40
0.0
  9
$THICKNESS
 40
0.0
  9
$LIMCHECK
 70
         0
  9
$BLIPMODE
 70
         1
  9
$CHAMFERA
 40
0.0
  9
$CHAMFERB
 40
0.0
  9
$SKPOLY
 70
         0
  9
$TDCREATE
 40
0.000000000
  9
$TDUPDATE
 40
0.000000000
  9
$TDINDWG
 40
0.0000000000
  9
$TDUSRTIMER
 40
0.0000000000
  9
$USRTIMER
 70
         1
  9
$ANGBASE
 50
0.0
  9
$ANGDIR
 70
         0
  9
$PDMODE
 70
         0
  9
$PDSIZE
 40
0.0
  9
$PLINEWID
 40
0.0
  9
$COORDS
 70
         0
  9
$SPLFRAME
 70
         0
  9
$SPLINETYPE
 70
         6
  9
$SPLINESEGS
 70
         8
  9
$ATTDIA
 70
         0
  9
$ATTREQ
 70
         1
  9
$HANDLING
 70
         1
  9
$HANDSEED
  5
3F8
  9
$SURFTAB1
 70
         6
  9
$SURFTAB2
 70
         6
  9
$SURFTYPE
 70
         6
  9
$SURFU
 70
         6
  9
$SURFV
 70
         6
  9
$UCSNAME
  2

  9
$UCSORG
 10
0.0
 20
0.0
 30
0.0
  9
$UCSXDIR
 10
1.0
 20
0.0
 30
0.0
  9
$UCSYDIR
 10
0.0
 20
1.0
 30
0.0
  9
$PUCSNAME
  2

  9
$PUCSORG
 10
0.0
 20
0.0
 30
0.0
  9
$PUCSXDIR
 10
1.0
 20
0.0
 30
0.0
  9
$PUCSYDIR
 10
0.0
 20
1.0
 30
0.0
  9
$USERI1
 70
         0
  9
$USERI2
 70
         0
  9
$USERI3
 70
         0
  9
$USERI4
 70
         0
  9
$USERI5
 70
         0
  9
$USERR1
 40
0.0
  9
$USERR2
 40
0.0
  9
$USERR3
 40
0.0
  9
$USERR4
 40
0.0
  9
$USERR5
 40
0.0
  9
$WORLDVIEW
 70
         1
  9
$SHADEDGE
 70
         3
  9
$SHADEDIF
 70
        70
  9
$TILEMODE
 70
         1
  9
$MAXACTVP
 70
        16
  9
$PINSBASE
 10
0.0
 20
0.0
 30
0.0
  9
$PLIMCHECK
 70
         0
  9
$PEXTMIN
 10
1.0000000000E+20
 20
1.0000000000E+20
 30
1.0000000000E+20
  9
$PEXTMAX
 10
-1.0000000000E+20
 20
-1.0000000000E+20
 30
-1.0000000000E+20
  9
$PLIMMIN
 10
0.0
 20
0.0
  9
$PLIMMAX
 10
12.0
 20
9.0
  9
$UNITMODE
 70
         0
  9
$VISRETAIN
 70
         0
  9
$PLINEGEN
 70
         1
  9
$PSLTSCALE
 70
         0
  9
$TREEDEPTH
 70
      3020
  9
$DWGCODEPAGE
  3
ansi_1252
  0
ENDSEC
  0
SECTION
  2
TABLES
  0
TABLE
  2
VPORT
 70
         1
  0
VPORT
  2
*ACTIVE
 70
         0
 10
0.0
 20
0.0
 11
1.0
 21
1.0
 12
0.0000009843
 22
0.0
 13
0.0
 23
0.0
 14
1.0
 24
1.0
 15
0.0
 25
0.0
 16
0.0
 26
0.0
 36
1.0
 17
0.0
 27
0.0
 37
0.0
 40
3.2905636156
 41
1.604229
 42
50.0
 43
0.0
 44
0.0
 50
0.0
 51
0.0
 71
         0
 72
       100
 73
         1
 74
         1
 75
         0
 76
         0
 77
         0
 78
         0
  0
ENDTAB
  0
TABLE
  2
LTYPE
 70
         5
  0
LTYPE
  2
CONTINUOUS
 70
         0
  3
Solid line
 72
        65
 73
         0
 40
0.0
  0
LTYPE
  2
HIDDEN2
 70
        64
  3
_ _ _ _ _ _ _ _ _ _ _ _ _ _ _ _ _ _ _ _ _ _ _ _
 72
        65
 73
         2
 40
0.1875
 49
0.125
 49
-0.0625
  0
LTYPE
  2
CENTER2
 70
        64
  3
___ _ ___ _ ___ _ ___ _ ___ _ ___ _ ___ _ ___ _
 72
        65
 73
         4
 40
1.125
 49
0.75
 49
-0.125
 49
0.125
 49
-0.125
  0
LTYPE
  2
PHANTOM2
 70
        64
  3
___ _ _ ___ _ _ ___ _ _ ___ _ _ ___ _ _ ___ _ _
 72
        65
 73
         6
 40
1.25
 49
0.625
 49
-0.125
 49
0.125
 49
-0.125
 49
0.125
 49
-0.125
  0
LTYPE
  2
DOT2
 70
        64
  3
...............................................
 72
        65
 73
         2
 40
0.125
 49
0.0
 49
-0.125
  0
ENDTAB
  0
TABLE
  2
LAYER
 70
         2
  0
LAYER
  2
0
 70
         0
 62
         7
  6
CONTINUOUS
  0
LAYER
  2
DEFAULT
 70
         0
 62
         7
  6
CONTINUOUS
  0
ENDTAB
  0
TABLE
  2
STYLE
 70
         2
  0
STYLE
  2
STANDARD
 70
         0
 40
0.0
 41
1.0
 50
0.0
 71
         0
 42
0.2
  3
txt
  4

  0
STYLE
  2
ARIAL_TTF
 70
         0
 40
0.0
 41
1.0
 50
0.0
 71
         0
 42
0.2
  3
arial.ttf
  4

  0
ENDTAB
  0
TABLE
  2
VIEW
 70
         0
  0
ENDTAB
  0
TABLE
  2
UCS
 70
         0
  0
ENDTAB
  0
TABLE
  2
APPID
 70
         1
  0
APPID
  2
ACAD
 70
         0
  0
ENDTAB
  0
TABLE
  2
DIMSTYLE
 70
         1
  0
DIMSTYLE
  2
STANDARD
 70
         0
  3

  4

  5

  6

  7

 40
1.0
 41
0.18
 42
0.0625
 43
0.38
 44
0.18
 45
0.0
 46
0.0
 47
0.0
 48
0.0
 71
         0
 72
         0
 73
         1
 74
         1
 75
         0
 76
         0
 77
         0
 78
         0
140
0.18
141
0.09
142
0.0
143
25.4
144
1.0
145
0.0
146
1.0
147
0.09
170
         0
171
         2
172
         0
173
         0
174
         0
175
         0
176
         0
177
         0
178
         0
  0
ENDTAB
  0
ENDSEC
  0
SECTION
  2
BLOCKS
  0
BLOCK
  8
DEFAULT
 62
         1
 48
0.0
  5
47
  2
*X0
 70
         1
 10
0.0
 20
0.0
 30
0.0
  3
*X0
  0
LINE
  8
DEFAULT
  6
CONTINUOUS
 62
         7
  5
48
 10
19.8099336232
 20
12.6415105043
 30
0.0
 11
20.9131944927
 21
12.6415105043
 31
0.0
  0
LINE
  8
DEFAULT
  6
CONTINUOUS
 62
         7
  5
4B
 10
20.2794899404
 20
11.5142374351
 30
0.0
 11
19.0901202561
 21
12.2009203424
 31
0.0
  0
LINE
  8
DEFAULT
  6
CONTINUOUS
 62
         7
  5
4C
 10
22.6058712505
 20
12.8573743107
 30
0.0
 11
21.4165015662
 21
13.5440572181
 31
0.0
  0
LINE
  8
DEFAULT
  6
CONTINUOUS
 62
         7
  5
4D
 10
19.1983734303
 20
12.1384203432
 30
0.0
 11
19.9935032928
 21
12.5974887833
 31
0.0
  0
LINE
  8
DEFAULT
  6
CONTINUOUS
 62
         7
  5
4E
 10
20.7296248779
 20
13.0224887787
 30
0.0
 11
21.5247547404
 21
13.4815572188
 31
0.0
  0
TEXT
  8
DEFAULT
  6
CONTINUOUS
 62
         7
  5
4F
 10
19.8099336232
 20
12.6849887652
 30
0.0
 40
0.25
  1
3 5/16"
  7
ARIAL_TTF
 11
19.8099336232
 21
12.9349887652
 31
0.0
 73
         3
  0
ENDBLK
  8
DEFAULT
  6
CONTINUOUS
 62
         7
  5
50
  0
BLOCK
  8
DEFAULT
 62
         1
 48
0.0
  5
51
  2
*X1
 70
         1
 10
0.0
 20
0.0
 30
0.0
  3
*X1
  0
LINE
  8
DEFAULT
  6
CONTINUOUS
 62
         7
  5
52
 10
20.3458476523
 20
9.8180047117
 30
0.0
 11
21.4491085219
 21
9.8180047117
 31
0.0
  0
LINE
  8
DEFAULT
  6
CONTINUOUS
 62
         7
  5
55
 10
20.2794899404
 20
11.3892374366
 30
0.0
 11
19.2654098385
 21
10.8037580168
 31
0.0
  0
LINE
  8
DEFAULT
  6
CONTINUOUS
 62
         7
  5
56
 10
23.3271201673
 20
9.6296873047
 30
0.0
 11
22.3130400654
 21
9.0442078849
 31
0.0
  0
LINE
  8
DEFAULT
  6
CONTINUOUS
 62
         7
  5
57
 10
19.3736630127
 20
10.866258016
 30
0.0
 11
20.5294172584
 21
10.1989829911
 31
0.0
  0
LINE
  8
DEFAULT
  6
CONTINUOUS
 62
         7
  5
58
 10
21.2655388668
 20
9.7739829823
 30
0.0
 11
22.4212932396
 21
9.1067078841
 31
0.0
  0
TEXT
  8
DEFAULT
  6
CONTINUOUS
 62
         7
  5
59
 10
20.3458476523
 20
9.8614829726
 30
0.0
 40
0.25
  1
4 5/16"
  7
ARIAL_TTF
 11
20.3458476523
 21
10.1114829726
 31
0.0
 73
         3
  0
ENDBLK
  8
DEFAULT
  6
CONTINUOUS
 62
         7
  5
5A
  0
BLOCK
  8
DEFAULT
 62
         1
 48
0.0
  5
5B
  2
*X2
 70
         1
 10
0.0
 20
0.0
 30
0.0
  3
*X2
  0
LINE
  8
DEFAULT
  6
CONTINUOUS
 62
         7
  5
5C
 10
24.9347167151
 20
12.0181479349
 30
0.0
 11
25.7444993238
 21
12.0181479349
 31
0.0
  0
LINE
  8
DEFAULT
  6
CONTINUOUS
 62
         7
  5
5F
 10
25.8702973252
 20
10.7400670369
 30
0.0
 11
26.6912049769
 21
11.2150919048
 31
0.0
  0
LINE
  8
DEFAULT
  6
CONTINUOUS
 62
         7
  5
60
 10
25.8699465036
 20
11.0979302718
 30
0.0
 11
26.6908541553
 21
11.5729551396
 31
0.0
  0
LINE
  8
DEFAULT
  6
CONTINUOUS
 62
         7
  5
61
 10
26.5819993331
 20
12.1866261958
 30
0.0
 11
25.8319993238
 21
12.1866261958
 31
0.0
  0
LINE
  8
DEFAULT
  6
CONTINUOUS
 62
         7
  5
62
 10
26.5835032863
 20
10.6524860588
 30
0.0
 11
26.583013125
 21
11.1524858125
 31
0.0
  0
LINE
  8
DEFAULT
  6
CONTINUOUS
 62
         7
  5
63
 10
26.5826623033
 20
11.5103490474
 30
0.0
 11
26.5819993331
 21
12.18662619
 31
0.0
  0
TEXT
  8
DEFAULT
  6
CONTINUOUS
 62
         7
  5
64
 10
24.9347167151
 20
12.0616261958
 30
0.0
 40
0.25
  1
7/16"
  7
ARIAL_TTF
 11
24.9347167151
 21
12.3116261958
 31
0.0
 73
         3
  0
ENDBLK
  8
DEFAULT
  6
CONTINUOUS
 62
         7
  5
65
  0
BLOCK
  8
0
 62
         1
 48
0.0
  5
174
  2
*X3
 70
         1
 10
0.0
 20
0.0
 30
0.0
  3
*X3
  0
INSERT
  8
0
 62
         0
 48
0.0
  5
175
  2
*X4
 10
0.0
 20
0.0
 30
0.0
  0
ENDBLK
  8
0
 62
         0
 48
0.0
  5
176
  0
BLOCK
  8
0
 62
         1
 48
0.0
  5
66
  2
*X4
 70
         1
 10
0.0
 20
0.0
 30
0.0
  3
*X4
  0
LINE
  8
DEFAULT
  6
CONTINUOUS
 62
         7
  5
67
 10
24.8891848836
 20
10.3780444319
 30
0.0
 11
24.8637290395
 21
10.3927413704
 31
0.0
  0
LINE
  8
DEFAULT
  6
CONTINUOUS
 62
         7
  5
68
 10
24.241475072
 20
10.0040889978
 30
0.0
 11
24.241475072
 21
9.9534662098
 31
0.0
  0
LINE
  8
DEFAULT
  6
CONTINUOUS
 62
         7
  5
69
 10
24.241475072
 20
10.0040889978
 30
0.0
 11
24.3079431095
 21
10.0424643371
 31
0.0
  0
LINE
  8
DEFAULT
  6
CONTINUOUS
 62
         7
  5
6A
 10
24.955652921
 20
10.4164197712
 30
0.0
 11
24.955652921
 21
10.3657969832
 31
0.0
  0
LINE
  8
DEFAULT
  6
CONTINUOUS
 62
         7
  5
6B
 10
24.3051146823
 20
10.1208480089
 30
0.0
 11
24.3079431095
 21
10.1192150157
 31
0.0
  0
LINE
  8
DEFAULT
  6
CONTINUOUS
 62
         7
  5
6C
 10
23.4353733415
 20
9.4880631587
 30
0.0
 11
24.241475072
 21
9.9534662098
 31
0.0
  0
LINE
  8
DEFAULT
  6
CONTINUOUS
 62
         7
  5
6D
 10
24.8891848836
 20
10.4547951105
 30
0.0
 11
24.8863564565
 21
10.4564281037
 31
0.0
  0
LINE
  8
DEFAULT
  6
CONTINUOUS
 62
         7
  5
6E
 10
24.8891848836
 20
10.3780444319
 30
0.0
 11
24.8891848836
 21
10.4547951105
 31
0.0
  0
LINE
  8
DEFAULT
  6
CONTINUOUS
 62
         7
  5
6F
 10
24.3079431095
 20
10.0424643371
 30
0.0
 11
24.3079431095
 21
10.1192150157
 31
0.0
  0
LINE
  8
DEFAULT
  6
CONTINUOUS
 62
         7
  5
70
 10
24.241475072
 20
10.1575903551
 30
0.0
 11
23.401432216
 21
10.6425893241
 31
0.0
  0
LINE
  8
DEFAULT
  6
CONTINUOUS
 62
         7
  5
71
 10
24.3079431095
 20
10.1192150157
 30
0.0
 11
24.241475072
 21
10.0808396764
 31
0.0
  0
LINE
  8
DEFAULT
  6
CONTINUOUS
 62
         7
  5
72
 10
23.401432216
 20
10.6425893241
 30
0.0
 11
24.115610065
 21
11.0549200975
 31
0.0
  0
LINE
  8
DEFAULT
  6
CONTINUOUS
 62
         7
  5
73
 10
24.115610065
 20
11.0549200975
 30
0.0
 11
24.955652921
 21
10.5699211284
 31
0.0
  0
LINE
  8
DEFAULT
  6
CONTINUOUS
 62
         7
  5
74
 10
24.115610065
 20
11.0508376146
 30
0.0
 11
24.115610065
 21
11.0549200975
 31
0.0
  0
LINE
  8
DEFAULT
  6
CONTINUOUS
 62
         7
  5
75
 10
24.9521173871
 20
10.4952116913
 30
0.0
 11
24.955652921
 21
10.4931704498
 31
0.0
  0
LINE
  8
DEFAULT
  6
CONTINUOUS
 62
         7
  5
76
 10
24.955652921
 20
10.4931704498
 30
0.0
 11
24.955652921
 21
10.5699211284
 31
0.0
  0
LINE
  8
DEFAULT
  6
CONTINUOUS
 62
         7
  5
77
 10
24.955652921
 20
10.4931704498
 30
0.0
 11
24.8891848836
 21
10.4547951105
 31
0.0
  0
LINE
  8
DEFAULT
  6
CONTINUOUS
 62
         7
  5
78
 10
24.241475072
 20
10.0808396764
 30
0.0
 11
24.241475072
 21
10.1575903551
 31
0.0
  0
POLYLINE
  8
DEFAULT
  6
CONTINUOUS
 62
         7
  5
79
 66
         1
 10
0.0
 20
0.0
 30
0.0
 70
         1
  0
VERTEX
  8
DEFAULT
  6
CONTINUOUS
 62
         7
  5
7A
 10
25.1559844862
 20
11.04716338
 30
0.0
  0
VERTEX
  8
DEFAULT
  6
CONTINUOUS
 62
         7
  5
7B
 10
25.1745614093
 20
11.0038172261
 30
0.0
  0
VERTEX
  8
DEFAULT
  6
CONTINUOUS
 62
         7
  5
7C
 10
25.2364844862
 20
10.96666338
 30
0.0
  0
VERTEX
  8
DEFAULT
  6
CONTINUOUS
 62
         7
  5
7D
 10
25.3231767939
 20
10.9542787646
 30
0.0
  0
VERTEX
  8
DEFAULT
  6
CONTINUOUS
 62
         7
  5
7E
 10
25.3974844862
 20
10.96666338
 30
0.0
  0
VERTEX
  8
DEFAULT
  6
CONTINUOUS
 62
         7
  5
7F
 10
25.4532152555
 20
10.9976249184
 30
0.0
  0
VERTEX
  8
DEFAULT
  6
CONTINUOUS
 62
         7
  5
80
 10
25.4779844862
 20
11.04716338
 30
0.0
  0
VERTEX
  8
DEFAULT
  6
CONTINUOUS
 62
         7
  5
81
 10
25.4532152555
 20
11.0967018415
 30
0.0
  0
VERTEX
  8
DEFAULT
  6
CONTINUOUS
 62
         7
  5
82
 10
25.3974844862
 20
11.12766338
 30
0.0
  0
VERTEX
  8
DEFAULT
  6
CONTINUOUS
 62
         7
  5
83
 10
25.3231767939
 20
11.1400479954
 30
0.0
  0
VERTEX
  8
DEFAULT
  6
CONTINUOUS
 62
         7
  5
84
 10
25.2364844862
 20
11.12766338
 30
0.0
  0
VERTEX
  8
DEFAULT
  6
CONTINUOUS
 62
         7
  5
85
 10
25.1745614093
 20
11.0905095338
 30
0.0
  0
VERTEX
  8
DEFAULT
  6
CONTINUOUS
 62
         7
  5
86
 10
25.1559844862
 20
11.04716338
 30
0.0
  0
SEQEND
  8
DEFAULT
  6
CONTINUOUS
 62
         7
  5
87
  0
POLYLINE
  8
DEFAULT
  6
CONTINUOUS
 62
         7
  5
88
 66
         1
 10
0.0
 20
0.0
 30
0.0
 70
         1
  0
VERTEX
  8
DEFAULT
  6
CONTINUOUS
 62
         7
  5
89
 10
22.5736305213
 20
12.5380861367
 30
0.0
  0
VERTEX
  8
DEFAULT
  6
CONTINUOUS
 62
         7
  5
8A
 10
22.5922074444
 20
12.4947399829
 30
0.0
  0
VERTEX
  8
DEFAULT
  6
CONTINUOUS
 62
         7
  5
8B
 10
22.6541305213
 20
12.4575861367
 30
0.0
  0
VERTEX
  8
DEFAULT
  6
CONTINUOUS
 62
         7
  5
8C
 10
22.740822829
 20
12.4452015214
 30
0.0
  0
VERTEX
  8
DEFAULT
  6
CONTINUOUS
 62
         7
  5
8D
 10
22.8151305213
 20
12.4575861367
 30
0.0
  0
VERTEX
  8
DEFAULT
  6
CONTINUOUS
 62
         7
  5
8E
 10
22.8708612906
 20
12.4885476752
 30
0.0
  0
VERTEX
  8
DEFAULT
  6
CONTINUOUS
 62
         7
  5
8F
 10
22.8956305213
 20
12.5380861367
 30
0.0
  0
VERTEX
  8
DEFAULT
  6
CONTINUOUS
 62
         7
  5
90
 10
22.8708612906
 20
12.5876245983
 30
0.0
  0
VERTEX
  8
DEFAULT
  6
CONTINUOUS
 62
         7
  5
91
 10
22.8151305213
 20
12.6185861367
 30
0.0
  0
VERTEX
  8
DEFAULT
  6
CONTINUOUS
 62
         7
  5
92
 10
22.740822829
 20
12.6309707521
 30
0.0
  0
VERTEX
  8
DEFAULT
  6
CONTINUOUS
 62
         7
  5
93
 10
22.6541305213
 20
12.6185861367
 30
0.0
  0
VERTEX
  8
DEFAULT
  6
CONTINUOUS
 62
         7
  5
94
 10
22.5922074444
 20
12.5814322906
 30
0.0
  0
VERTEX
  8
DEFAULT
  6
CONTINUOUS
 62
         7
  5
95
 10
22.5736305213
 20
12.5380861367
 30
0.0
  0
SEQEND
  8
DEFAULT
  6
CONTINUOUS
 62
         7
  5
96
  0
POLYLINE
  8
DEFAULT
  6
CONTINUOUS
 62
         7
  5
97
 66
         1
 10
0.0
 20
0.0
 30
0.0
 70
         1
  0
VERTEX
  8
DEFAULT
  6
CONTINUOUS
 62
         7
  5
98
 10
20.6715132799
 20
11.4398982354
 30
0.0
  0
VERTEX
  8
DEFAULT
  6
CONTINUOUS
 62
         7
  5
99
 10
20.690090203
 20
11.3965520816
 30
0.0
  0
VERTEX
  8
DEFAULT
  6
CONTINUOUS
 62
         7
  5
9A
 10
20.7520132799
 20
11.3593982354
 30
0.0
  0
VERTEX
  8
DEFAULT
  6
CONTINUOUS
 62
         7
  5
9B
 10
20.8387055876
 20
11.34701362
 30
0.0
  0
VERTEX
  8
DEFAULT
  6
CONTINUOUS
 62
         7
  5
9C
 10
20.9130132799
 20
11.3593982354
 30
0.0
  0
VERTEX
  8
DEFAULT
  6
CONTINUOUS
 62
         7
  5
9D
 10
20.9687440492
 20
11.3903597739
 30
0.0
  0
VERTEX
  8
DEFAULT
  6
CONTINUOUS
 62
         7
  5
9E
 10
20.9935132799
 20
11.4398982354
 30
0.0
  0
VERTEX
  8
DEFAULT
  6
CONTINUOUS
 62
         7
  5
9F
 10
20.9687440492
 20
11.4894366969
 30
0.0
  0
VERTEX
  8
DEFAULT
  6
CONTINUOUS
 62
         7
  5
A0
 10
20.9130132799
 20
11.5203982354
 30
0.0
  0
VERTEX
  8
DEFAULT
  6
CONTINUOUS
 62
         7
  5
A1
 10
20.8387055876
 20
11.5327828508
 30
0.0
  0
VERTEX
  8
DEFAULT
  6
CONTINUOUS
 62
         7
  5
A2
 10
20.7520132799
 20
11.5203982354
 30
0.0
  0
VERTEX
  8
DEFAULT
  6
CONTINUOUS
 62
         7
  5
A3
 10
20.690090203
 20
11.4832443892
 30
0.0
  0
VERTEX
  8
DEFAULT
  6
CONTINUOUS
 62
         7
  5
A4
 10
20.6715132799
 20
11.4398982354
 30
0.0
  0
SEQEND
  8
DEFAULT
  6
CONTINUOUS
 62
         7
  5
A5
  0
LINE
  8
DEFAULT
  6
CONTINUOUS
 62
         7
  5
A6
 10
24.955652921
 20
10.3657969832
 30
0.0
 11
25.7617546516
 21
10.8312000343
 31
0.0
  0
LINE
  8
DEFAULT
  6
CONTINUOUS
 62
         7
  5
A7
 10
20.3877431146
 20
11.2476132906
 30
0.0
 11
23.4353733415
 21
9.4880631587
 31
0.0
  0
POLYLINE
  8
DEFAULT
  6
CONTINUOUS
 62
         7
  5
A8
 66
         1
 10
0.0
 20
0.0
 30
0.0
 70
         1
  0
VERTEX
  8
DEFAULT
  6
CONTINUOUS
 62
         7
  5
A9
 10
23.2538672448
 20
9.9489754786
 30
0.0
  0
VERTEX
  8
DEFAULT
  6
CONTINUOUS
 62
         7
  5
AA
 10
23.2724441679
 20
9.9056293248
 30
0.0
  0
VERTEX
  8
DEFAULT
  6
CONTINUOUS
 62
         7
  5
AB
 10
23.3343672448
 20
9.8684754786
 30
0.0
  0
VERTEX
  8
DEFAULT
  6
CONTINUOUS
 62
         7
  5
AC
 10
23.4210595525
 20
9.8560908632
 30
0.0
  0
VERTEX
  8
DEFAULT
  6
CONTINUOUS
 62
         7
  5
AD
 10
23.4953672448
 20
9.8684754786
 30
0.0
  0
VERTEX
  8
DEFAULT
  6
CONTINUOUS
 62
         7
  5
AE
 10
23.5510980141
 20
9.8994370171
 30
0.0
  0
VERTEX
  8
DEFAULT
  6
CONTINUOUS
 62
         7
  5
AF
 10
23.5758672448
 20
9.9489754786
 30
0.0
  0
VERTEX
  8
DEFAULT
  6
CONTINUOUS
 62
         7
  5
B0
 10
23.5510980141
 20
9.9985139402
 30
0.0
  0
VERTEX
  8
DEFAULT
  6
CONTINUOUS
 62
         7
  5
B1
 10
23.4953672448
 20
10.0294754786
 30
0.0
  0
VERTEX
  8
DEFAULT
  6
CONTINUOUS
 62
         7
  5
B2
 10
23.4210595525
 20
10.041860094
 30
0.0
  0
VERTEX
  8
DEFAULT
  6
CONTINUOUS
 62
         7
  5
B3
 10
23.3343672448
 20
10.0294754786
 30
0.0
  0
VERTEX
  8
DEFAULT
  6
CONTINUOUS
 62
         7
  5
B4
 10
23.2724441679
 20
9.9923216325
 30
0.0
  0
VERTEX
  8
DEFAULT
  6
CONTINUOUS
 62
         7
  5
B5
 10
23.2538672448
 20
9.9489754786
 30
0.0
  0
SEQEND
  8
DEFAULT
  6
CONTINUOUS
 62
         7
  5
B6
  0
LINE
  8
DEFAULT
  6
CONTINUOUS
 62
         7
  5
B7
 10
21.1938448451
 20
11.917140487
 30
0.0
 11
20.3877431146
 21
11.4517374358
 31
0.0
  0
LINE
  8
DEFAULT
  6
CONTINUOUS
 62
         7
  5
B8
 10
20.3877431146
 20
11.4517374358
 30
0.0
 11
23.4353733415
 21
9.6921873039
 31
0.0
  0
LINE
  8
DEFAULT
  6
CONTINUOUS
 62
         7
  5
B9
 10
24.955652921
 20
10.5699211284
 30
0.0
 11
25.7617546516
 21
11.0353241795
 31
0.0
  0
LINE
  8
DEFAULT
  6
CONTINUOUS
 62
         7
  5
BA
 10
22.7141244247
 20
12.7948743114
 30
0.0
 11
21.9080226941
 21
12.3294712603
 31
0.0
  0
LINE
  8
DEFAULT
  6
CONTINUOUS
 62
         7
  5
BB
 10
25.7617546516
 20
11.0353241795
 30
0.0
 11
25.7617546516
 21
10.8312000343
 31
0.0
  0
LINE
  8
DEFAULT
  6
CONTINUOUS
 62
         7
  5
BC
 10
23.4353733415
 20
9.6921873039
 30
0.0
 11
23.4353733415
 21
9.4880631587
 31
0.0
  0
LINE
  8
DEFAULT
  6
CONTINUOUS
 62
         7
  5
BD
 10
20.3877431146
 20
11.4517374358
 30
0.0
 11
20.3877431146
 21
11.2476132906
 31
0.0
  0
LINE
  8
DEFAULT
  6
CONTINUOUS
 62
         7
  5
BE
 10
23.4353733415
 20
9.6921873039
 30
0.0
 11
24.241475072
 21
10.1575903551
 31
0.0
  0
LINE
  8
DEFAULT
  6
CONTINUOUS
 62
         7
  5
BF
 10
25.7617546516
 20
11.0353241795
 30
0.0
 11
22.7141244247
 21
12.7948743114
 31
0.0
  0
LINE
  8
DEFAULT
  6
CONTINUOUS
 62
         7
  5
C0
 10
24.8891848836
 20
10.3780444319
 30
0.0
 11
24.955652921
 21
10.4164197712
 31
0.0
  0
LINE
  8
DEFAULT
  6
CONTINUOUS
 62
         7
  5
C1
 10
24.955652921
 20
10.3657969832
 30
0.0
 11
24.9521173871
 21
10.3678382246
 31
0.0
  0
LINE
  8
DEFAULT
  6
CONTINUOUS
 62
         7
  5
C2
 10
21.9080226941
 20
12.3253887774
 30
0.0
 11
21.9080226941
 21
12.3294712603
 31
0.0
  0
LINE
  8
DEFAULT
  6
CONTINUOUS
 62
         7
  5
C3
 10
22.7480655502
 20
11.8444722912
 30
0.0
 11
22.0338877012
 21
11.4321415179
 31
0.0
  0
LINE
  8
DEFAULT
  6
CONTINUOUS
 62
         7
  5
C4
 10
22.0338877012
 20
11.4321415179
 30
0.0
 11
21.1938448451
 21
11.917140487
 31
0.0
  0
LINE
  8
DEFAULT
  6
CONTINUOUS
 62
         7
  5
C5
 10
21.9080226941
 20
12.3294712603
 30
0.0
 11
22.7480655502
 21
11.8444722912
 31
0.0
  0
LINE
  8
DEFAULT
  6
CONTINUOUS
 62
         7
  5
C6
 10
20.7657859935
 20
11.4669923001
 30
0.0
 11
20.9345959055
 21
11.3695298519
 31
0.0
  0
POLYLINE
  8
DEFAULT
  6
CONTINUOUS
 62
         7
  5
C7
 66
         1
 10
0.0
 20
0.0
 30
0.0
  0
VERTEX
  8
DEFAULT
  6
CONTINUOUS
 62
         7
  5
C8
 10
20.7066690721
 20
11.4929585047
 30
0.0
  0
VERTEX
  8
DEFAULT
  6
CONTINUOUS
 62
         7
  5
C9
 10
20.6836559082
 20
11.4656578866
 30
0.0
  0
VERTEX
  8
DEFAULT
  6
CONTINUOUS
 62
         7
  5
CA
 10
20.6780214667
 20
11.4334741144
 30
0.0
  0
VERTEX
  8
DEFAULT
  6
CONTINUOUS
 62
         7
  5
CB
 10
20.6925730928
 20
11.402236409
 30
0.0
  0
VERTEX
  8
DEFAULT
  6
CONTINUOUS
 62
         7
  5
CC
 10
20.7229117289
 20
11.377436247
 30
0.0
  0
VERTEX
  8
DEFAULT
  6
CONTINUOUS
 62
         7
  5
CD
 10
20.8199721623
 20
11.351518842
 30
0.0
  0
VERTEX
  8
DEFAULT
  6
CONTINUOUS
 62
         7
  5
CE
 10
20.9230021487
 20
11.3680585447
 30
0.0
  0
SEQEND
  8
DEFAULT
  6
CONTINUOUS
 62
         7
  5
CF
  0
POLYLINE
  8
DEFAULT
  6
CONTINUOUS
 62
         7
  5
D0
 66
         1
 10
0.0
 20
0.0
 30
0.0
  0
VERTEX
  8
DEFAULT
  6
CONTINUOUS
 62
         7
  5
D1
 10
20.9583574877
 20
11.3884709593
 30
0.0
  0
VERTEX
  8
DEFAULT
  6
CONTINUOUS
 62
         7
  5
D2
 10
20.9813706516
 20
11.4157715773
 30
0.0
  0
VERTEX
  8
DEFAULT
  6
CONTINUOUS
 62
         7
  5
D3
 10
20.9870050932
 20
11.4479553496
 30
0.0
  0
VERTEX
  8
DEFAULT
  6
CONTINUOUS
 62
         7
  5
D4
 10
20.9724534671
 20
11.4791930549
 30
0.0
  0
VERTEX
  8
DEFAULT
  6
CONTINUOUS
 62
         7
  5
D5
 10
20.942114831
 20
11.503993217
 30
0.0
  0
VERTEX
  8
DEFAULT
  6
CONTINUOUS
 62
         7
  5
D6
 10
20.8450543976
 20
11.529910622
 30
0.0
  0
VERTEX
  8
DEFAULT
  6
CONTINUOUS
 62
         7
  5
D7
 10
20.7420244112
 20
11.5133709192
 30
0.0
  0
SEQEND
  8
DEFAULT
  6
CONTINUOUS
 62
         7
  5
D8
  0
POLYLINE
  8
DEFAULT
  6
CONTINUOUS
 62
         7
  5
D9
 66
         1
 10
0.0
 20
0.0
 30
0.0
  0
VERTEX
  8
DEFAULT
  6
CONTINUOUS
 62
         7
  5
DA
 10
20.7657859935
 20
11.4669923001
 30
0.0
  0
VERTEX
  8
DEFAULT
  6
CONTINUOUS
 62
         7
  5
DB
 10
20.7616009043
 20
11.4653402019
 30
0.0
  0
VERTEX
  8
DEFAULT
  6
CONTINUOUS
 62
         7
  5
DC
 10
20.7575383615
 20
11.4635891068
 30
0.0
  0
SEQEND
  8
DEFAULT
  6
CONTINUOUS
 62
         7
  5
DD
  0
LINE
  8
DEFAULT
  6
CONTINUOUS
 62
         7
  5
DE
 10
20.7067061504
 20
11.3884412009
 30
0.0
 11
20.7344705689
 21
11.3661675841
 31
0.0
  0
LINE
  8
DEFAULT
  6
CONTINUOUS
 62
         7
  5
DF
 10
20.9305559909
 20
11.3661675841
 30
0.0
 11
20.9315003762
 21
11.366925204
 31
0.0
  0
LINE
  8
DEFAULT
  6
CONTINUOUS
 62
         7
  5
E0
 10
20.7420244112
 20
11.5133709192
 30
0.0
 11
20.9583574877
 21
11.3884709593
 31
0.0
  0
ARC
  8
DEFAULT
  6
CONTINUOUS
 62
         7
  5
E1
 10
40.602197288
 20
21.6592386838
 30
0.0
 40
22.3016837793
 50
207.0608999597
 51
207.1947803922
  0
LINE
  8
DEFAULT
  6
CONTINUOUS
 62
         7
  5
E2
 10
20.7066690721
 20
11.4929585047
 30
0.0
 11
20.9230021487
 21
11.3680585447
 31
0.0
  0
ARC
  8
DEFAULT
  6
CONTINUOUS
 62
         7
  5
E3
 10
18.1902019437
 20
14.836741718
 30
0.0
 40
4.4219064148
 50
308.3625877031
 51
308.7563224847
  0
POLYLINE
  8
DEFAULT
  6
CONTINUOUS
 62
         7
  5
E4
 66
         1
 10
0.0
 20
0.0
 30
0.0
  0
VERTEX
  8
DEFAULT
  6
CONTINUOUS
 62
         7
  5
E5
 10
20.9305251186
 20
11.3661539035
 30
0.0
  0
VERTEX
  8
DEFAULT
  6
CONTINUOUS
 62
         7
  5
E6
 10
20.9326032216
 20
11.367824711
 30
0.0
  0
VERTEX
  8
DEFAULT
  6
CONTINUOUS
 62
         7
  5
E7
 10
20.9345959055
 20
11.3695298519
 30
0.0
  0
SEQEND
  8
DEFAULT
  6
CONTINUOUS
 62
         7
  5
E8
  0
ARC
  8
DEFAULT
  6
CONTINUOUS
 62
         7
  5
E9
 10
18.1548466043
 20
14.8163293038
 30
0.0
 40
4.4219064154
 50
308.567907029
 51
308.7563224847
  0
LINE
  8
DEFAULT
  6
CONTINUOUS
 62
         7
  5
EA
 10
22.8251193901
 20
12.4662464461
 30
0.0
 11
22.6087863135
 21
12.591146406
 31
0.0
  0
ARC
  8
DEFAULT
  6
CONTINUOUS
 62
         7
  5
EB
 10
20.0569638458
 20
15.914517205
 30
0.0
 40
4.4219064151
 50
308.567907029
 51
308.7563224847
  0
LINE
  8
DEFAULT
  6
CONTINUOUS
 62
         7
  5
EC
 10
22.8604747291
 20
12.4866588606
 30
0.0
 11
22.6441416526
 21
12.6115588206
 31
0.0
  0
POLYLINE
  8
DEFAULT
  6
CONTINUOUS
 62
         7
  5
ED
 66
         1
 10
0.0
 20
0.0
 30
0.0
  0
VERTEX
  8
DEFAULT
  6
CONTINUOUS
 62
         7
  5
EE
 10
22.6679032349
 20
12.5651802014
 30
0.0
  0
VERTEX
  8
DEFAULT
  6
CONTINUOUS
 62
         7
  5
EF
 10
22.6637181457
 20
12.5635281032
 30
0.0
  0
VERTEX
  8
DEFAULT
  6
CONTINUOUS
 62
         7
  5
F0
 10
22.6596556029
 20
12.5617770082
 30
0.0
  0
SEQEND
  8
DEFAULT
  6
CONTINUOUS
 62
         7
  5
F1
  0
ARC
  8
DEFAULT
  6
CONTINUOUS
 62
         7
  5
F2
 10
42.5043145291
 20
22.757426585
 30
0.0
 40
22.301683779
 50
207.0608999597
 51
207.1947803922
  0
LINE
  8
DEFAULT
  6
CONTINUOUS
 62
         7
  5
F3
 10
22.8367131469
 20
12.4677177533
 30
0.0
 11
22.6679032349
 21
12.5651802014
 31
0.0
  0
POLYLINE
  8
DEFAULT
  6
CONTINUOUS
 62
         7
  5
F4
 66
         1
 10
0.0
 20
0.0
 30
0.0
  0
VERTEX
  8
DEFAULT
  6
CONTINUOUS
 62
         7
  5
F5
 10
22.8604747291
 20
12.4866588606
 30
0.0
  0
VERTEX
  8
DEFAULT
  6
CONTINUOUS
 62
         7
  5
F6
 10
22.883487893
 20
12.5139594787
 30
0.0
  0
VERTEX
  8
DEFAULT
  6
CONTINUOUS
 62
         7
  5
F7
 10
22.8891223346
 20
12.546143251
 30
0.0
  0
VERTEX
  8
DEFAULT
  6
CONTINUOUS
 62
         7
  5
F8
 10
22.8745707085
 20
12.5773809563
 30
0.0
  0
VERTEX
  8
DEFAULT
  6
CONTINUOUS
 62
         7
  5
F9
 10
22.8442320724
 20
12.6021811183
 30
0.0
  0
VERTEX
  8
DEFAULT
  6
CONTINUOUS
 62
         7
  5
FA
 10
22.7471716389
 20
12.6280985233
 30
0.0
  0
VERTEX
  8
DEFAULT
  6
CONTINUOUS
 62
         7
  5
FB
 10
22.6441416526
 20
12.6115588206
 30
0.0
  0
SEQEND
  8
DEFAULT
  6
CONTINUOUS
 62
         7
  5
FC
  0
ARC
  8
DEFAULT
  6
CONTINUOUS
 62
         7
  5
FD
 10
20.0923191848
 20
15.9349296196
 30
0.0
 40
4.4219064152
 50
308.3625877031
 51
308.7563224847
  0
POLYLINE
  8
DEFAULT
  6
CONTINUOUS
 62
         7
  5
FE
 66
         1
 10
0.0
 20
0.0
 30
0.0
  0
VERTEX
  8
DEFAULT
  6
CONTINUOUS
 62
         7
  5
FF
 10
22.6087863135
 20
12.591146406
 30
0.0
  0
VERTEX
  8
DEFAULT
  6
CONTINUOUS
 62
         7
  5
100
 10
22.5857731496
 20
12.563845788
 30
0.0
  0
VERTEX
  8
DEFAULT
  6
CONTINUOUS
 62
         7
  5
101
 10
22.5801387081
 20
12.5316620157
 30
0.0
  0
VERTEX
  8
DEFAULT
  6
CONTINUOUS
 62
         7
  5
102
 10
22.5946903342
 20
12.5004243104
 30
0.0
  0
VERTEX
  8
DEFAULT
  6
CONTINUOUS
 62
         7
  5
103
 10
22.6250289702
 20
12.4756241483
 30
0.0
  0
VERTEX
  8
DEFAULT
  6
CONTINUOUS
 62
         7
  5
104
 10
22.7220894037
 20
12.4497067433
 30
0.0
  0
VERTEX
  8
DEFAULT
  6
CONTINUOUS
 62
         7
  5
105
 10
22.8251193901
 20
12.4662464461
 30
0.0
  0
SEQEND
  8
DEFAULT
  6
CONTINUOUS
 62
         7
  5
106
  0
POLYLINE
  8
DEFAULT
  6
CONTINUOUS
 62
         7
  5
107
 66
         1
 10
0.0
 20
0.0
 30
0.0
  0
VERTEX
  8
DEFAULT
  6
CONTINUOUS
 62
         7
  5
108
 10
22.83264236
 20
12.4643418048
 30
0.0
  0
VERTEX
  8
DEFAULT
  6
CONTINUOUS
 62
         7
  5
109
 10
22.834720463
 20
12.4660126124
 30
0.0
  0
VERTEX
  8
DEFAULT
  6
CONTINUOUS
 62
         7
  5
10A
 10
22.8367131469
 20
12.4677177533
 30
0.0
  0
SEQEND
  8
DEFAULT
  6
CONTINUOUS
 62
         7
  5
10B
  0
LINE
  8
DEFAULT
  6
CONTINUOUS
 62
         7
  5
10C
 10
22.6088233918
 20
12.4866291022
 30
0.0
 11
22.6365878103
 21
12.4643554855
 31
0.0
  0
LINE
  8
DEFAULT
  6
CONTINUOUS
 62
         7
  5
10D
 10
22.8326732323
 20
12.4643554855
 30
0.0
 11
22.8336176176
 21
12.4651131054
 31
0.0
  0
LINE
  8
DEFAULT
  6
CONTINUOUS
 62
         7
  5
10E
 10
23.289023037
 20
10.0020357479
 30
0.0
 11
23.5053561136
 21
9.877135788
 31
0.0
  0
POLYLINE
  8
DEFAULT
  6
CONTINUOUS
 62
         7
  5
10F
 66
         1
 10
0.0
 20
0.0
 30
0.0
  0
VERTEX
  8
DEFAULT
  6
CONTINUOUS
 62
         7
  5
110
 10
23.5128790835
 20
9.8752311467
 30
0.0
  0
VERTEX
  8
DEFAULT
  6
CONTINUOUS
 62
         7
  5
111
 10
23.5149571865
 20
9.8769019542
 30
0.0
  0
VERTEX
  8
DEFAULT
  6
CONTINUOUS
 62
         7
  5
112
 10
23.5169498704
 20
9.8786070952
 30
0.0
  0
SEQEND
  8
DEFAULT
  6
CONTINUOUS
 62
         7
  5
113
  0
ARC
  8
DEFAULT
  6
CONTINUOUS
 62
         7
  5
114
 10
20.7372005694
 20
13.3254065468
 30
0.0
 40
4.421906415
 50
308.567907029
 51
308.7563224847
  0
LINE
  8
DEFAULT
  6
CONTINUOUS
 62
         7
  5
115
 10
23.3481399584
 20
9.9760695433
 30
0.0
 11
23.5169498704
 21
9.8786070952
 31
0.0
  0
POLYLINE
  8
DEFAULT
  6
CONTINUOUS
 62
         7
  5
116
 66
         1
 10
0.0
 20
0.0
 30
0.0
  0
VERTEX
  8
DEFAULT
  6
CONTINUOUS
 62
         7
  5
117
 10
23.289023037
 20
10.0020357479
 30
0.0
  0
VERTEX
  8
DEFAULT
  6
CONTINUOUS
 62
         7
  5
118
 10
23.2660098731
 20
9.9747351299
 30
0.0
  0
VERTEX
  8
DEFAULT
  6
CONTINUOUS
 62
         7
  5
119
 10
23.2603754316
 20
9.9425513576
 30
0.0
  0
VERTEX
  8
DEFAULT
  6
CONTINUOUS
 62
         7
  5
11A
 10
23.2749270577
 20
9.9113136522
 30
0.0
  0
VERTEX
  8
DEFAULT
  6
CONTINUOUS
 62
         7
  5
11B
 10
23.3052656938
 20
9.8865134902
 30
0.0
  0
VERTEX
  8
DEFAULT
  6
CONTINUOUS
 62
         7
  5
11C
 10
23.4023261272
 20
9.8605960852
 30
0.0
  0
VERTEX
  8
DEFAULT
  6
CONTINUOUS
 62
         7
  5
11D
 10
23.5053561136
 20
9.877135788
 30
0.0
  0
SEQEND
  8
DEFAULT
  6
CONTINUOUS
 62
         7
  5
11E
  0
POLYLINE
  8
DEFAULT
  6
CONTINUOUS
 62
         7
  5
11F
 66
         1
 10
0.0
 20
0.0
 30
0.0
  0
VERTEX
  8
DEFAULT
  6
CONTINUOUS
 62
         7
  5
120
 10
23.3481399584
 20
9.9760695433
 30
0.0
  0
VERTEX
  8
DEFAULT
  6
CONTINUOUS
 62
         7
  5
121
 10
23.3439548692
 20
9.9744174451
 30
0.0
  0
VERTEX
  8
DEFAULT
  6
CONTINUOUS
 62
         7
  5
122
 10
23.3398923264
 20
9.97266635
 30
0.0
  0
SEQEND
  8
DEFAULT
  6
CONTINUOUS
 62
         7
  5
123
  0
POLYLINE
  8
DEFAULT
  6
CONTINUOUS
 62
         7
  5
124
 66
         1
 10
0.0
 20
0.0
 30
0.0
  0
VERTEX
  8
DEFAULT
  6
CONTINUOUS
 62
         7
  5
125
 10
23.5407114526
 20
9.8975482025
 30
0.0
  0
VERTEX
  8
DEFAULT
  6
CONTINUOUS
 62
         7
  5
126
 10
23.5637246165
 20
9.9248488205
 30
0.0
  0
VERTEX
  8
DEFAULT
  6
CONTINUOUS
 62
         7
  5
127
 10
23.5693590581
 20
9.9570325928
 30
0.0
  0
VERTEX
  8
DEFAULT
  6
CONTINUOUS
 62
         7
  5
128
 10
23.554807432
 20
9.9882702982
 30
0.0
  0
VERTEX
  8
DEFAULT
  6
CONTINUOUS
 62
         7
  5
129
 10
23.5244687959
 20
10.0130704602
 30
0.0
  0
VERTEX
  8
DEFAULT
  6
CONTINUOUS
 62
         7
  5
12A
 10
23.4274083624
 20
10.0389878652
 30
0.0
  0
VERTEX
  8
DEFAULT
  6
CONTINUOUS
 62
         7
  5
12B
 10
23.3243783761
 20
10.0224481625
 30
0.0
  0
SEQEND
  8
DEFAULT
  6
CONTINUOUS
 62
         7
  5
12C
  0
LINE
  8
DEFAULT
  6
CONTINUOUS
 62
         7
  5
12D
 10
23.2890601153
 20
9.8975184441
 30
0.0
 11
23.3168245338
 21
9.8752448273
 31
0.0
  0
LINE
  8
DEFAULT
  6
CONTINUOUS
 62
         7
  5
12E
 10
23.5129099558
 20
9.8752448273
 30
0.0
 11
23.5138543411
 21
9.8760024472
 31
0.0
  0
LINE
  8
DEFAULT
  6
CONTINUOUS
 62
         7
  5
12F
 10
23.3243783761
 20
10.0224481625
 30
0.0
 11
23.5407114526
 21
9.8975482025
 31
0.0
  0
ARC
  8
DEFAULT
  6
CONTINUOUS
 62
         7
  5
130
 10
43.1845512529
 20
20.168315927
 30
0.0
 40
22.3016837794
 50
207.0608999597
 51
207.1947803922
  0
ARC
  8
DEFAULT
  6
CONTINUOUS
 62
         7
  5
131
 10
20.7725559083
 20
13.3458189615
 30
0.0
 40
4.4219064152
 50
308.3625877031
 51
308.7563224847
  0
LINE
  8
DEFAULT
  6
CONTINUOUS
 62
         7
  5
132
 10
25.407473355
 20
10.9753236893
 30
0.0
 11
25.1911402784
 21
11.1002236493
 31
0.0
  0
ARC
  8
DEFAULT
  6
CONTINUOUS
 62
         7
  5
133
 10
22.6393178106
 20
14.4235944484
 30
0.0
 40
4.4219064154
 50
308.567907029
 51
308.7563224847
  0
LINE
  8
DEFAULT
  6
CONTINUOUS
 62
         7
  5
134
 10
25.442828694
 20
10.9957361038
 30
0.0
 11
25.2264956175
 21
11.1206360638
 31
0.0
  0
LINE
  8
DEFAULT
  6
CONTINUOUS
 62
         7
  5
135
 10
25.4190671118
 20
10.9767949965
 30
0.0
 11
25.2502571998
 21
11.0742574446
 31
0.0
  0
POLYLINE
  8
DEFAULT
  6
CONTINUOUS
 62
         7
  5
136
 66
         1
 10
0.0
 20
0.0
 30
0.0
  0
VERTEX
  8
DEFAULT
  6
CONTINUOUS
 62
         7
  5
137
 10
25.2502571998
 20
11.0742574446
 30
0.0
  0
VERTEX
  8
DEFAULT
  6
CONTINUOUS
 62
         7
  5
138
 10
25.2460721106
 20
11.0726053465
 30
0.0
  0
VERTEX
  8
DEFAULT
  6
CONTINUOUS
 62
         7
  5
139
 10
25.2420095678
 20
11.0708542514
 30
0.0
  0
SEQEND
  8
DEFAULT
  6
CONTINUOUS
 62
         7
  5
13A
  0
ARC
  8
DEFAULT
  6
CONTINUOUS
 62
         7
  5
13B
 10
45.0866684945
 20
21.2665038285
 30
0.0
 40
22.3016837795
 50
207.0608999597
 51
207.1947803922
  0
POLYLINE
  8
DEFAULT
  6
CONTINUOUS
 62
         7
  5
13C
 66
         1
 10
0.0
 20
0.0
 30
0.0
  0
VERTEX
  8
DEFAULT
  6
CONTINUOUS
 62
         7
  5
13D
 10
25.442828694
 20
10.9957361038
 30
0.0
  0
VERTEX
  8
DEFAULT
  6
CONTINUOUS
 62
         7
  5
13E
 10
25.4658418579
 20
11.0230367219
 30
0.0
  0
VERTEX
  8
DEFAULT
  6
CONTINUOUS
 62
         7
  5
13F
 10
25.4714762995
 20
11.0552204942
 30
0.0
  0
VERTEX
  8
DEFAULT
  6
CONTINUOUS
 62
         7
  5
140
 10
25.4569246734
 20
11.0864581995
 30
0.0
  0
VERTEX
  8
DEFAULT
  6
CONTINUOUS
 62
         7
  5
141
 10
25.4265860373
 20
11.1112583616
 30
0.0
  0
VERTEX
  8
DEFAULT
  6
CONTINUOUS
 62
         7
  5
142
 10
25.3295256038
 20
11.1371757665
 30
0.0
  0
VERTEX
  8
DEFAULT
  6
CONTINUOUS
 62
         7
  5
143
 10
25.2264956175
 20
11.1206360638
 30
0.0
  0
SEQEND
  8
DEFAULT
  6
CONTINUOUS
 62
         7
  5
144
  0
ARC
  8
DEFAULT
  6
CONTINUOUS
 62
         7
  5
145
 10
22.67467315
 20
14.4440068624
 30
0.0
 40
4.4219064147
 50
308.3625877031
 51
308.7563224847
  0
POLYLINE
  8
DEFAULT
  6
CONTINUOUS
 62
         7
  5
146
 66
         1
 10
0.0
 20
0.0
 30
0.0
  0
VERTEX
  8
DEFAULT
  6
CONTINUOUS
 62
         7
  5
147
 10
25.4149963249
 20
10.973419048
 30
0.0
  0
VERTEX
  8
DEFAULT
  6
CONTINUOUS
 62
         7
  5
148
 10
25.4170744279
 20
10.9750898556
 30
0.0
  0
VERTEX
  8
DEFAULT
  6
CONTINUOUS
 62
         7
  5
149
 10
25.4190671118
 20
10.9767949965
 30
0.0
  0
SEQEND
  8
DEFAULT
  6
CONTINUOUS
 62
         7
  5
14A
  0
POLYLINE
  8
DEFAULT
  6
CONTINUOUS
 62
         7
  5
14B
 66
         1
 10
0.0
 20
0.0
 30
0.0
  0
VERTEX
  8
DEFAULT
  6
CONTINUOUS
 62
         7
  5
14C
 10
25.1911402784
 20
11.1002236493
 30
0.0
  0
VERTEX
  8
DEFAULT
  6
CONTINUOUS
 62
         7
  5
14D
 10
25.1681271145
 20
11.0729230312
 30
0.0
  0
VERTEX
  8
DEFAULT
  6
CONTINUOUS
 62
         7
  5
14E
 10
25.162492673
 20
11.0407392589
 30
0.0
  0
VERTEX
  8
DEFAULT
  6
CONTINUOUS
 62
         7
  5
14F
 10
25.1770442991
 20
11.0095015536
 30
0.0
  0
VERTEX
  8
DEFAULT
  6
CONTINUOUS
 62
         7
  5
150
 10
25.2073829351
 20
10.9847013915
 30
0.0
  0
VERTEX
  8
DEFAULT
  6
CONTINUOUS
 62
         7
  5
151
 10
25.3044433686
 20
10.9587839866
 30
0.0
  0
VERTEX
  8
DEFAULT
  6
CONTINUOUS
 62
         7
  5
152
 10
25.407473355
 20
10.9753236893
 30
0.0
  0
SEQEND
  8
DEFAULT
  6
CONTINUOUS
 62
         7
  5
153
  0
LINE
  8
DEFAULT
  6
CONTINUOUS
 62
         7
  5
154
 10
25.1911773567
 20
10.9957063454
 30
0.0
 11
25.2189417752
 21
10.9734327287
 31
0.0
  0
LINE
  8
DEFAULT
  6
CONTINUOUS
 62
         7
  5
155
 10
25.4150271972
 20
10.9734327287
 30
0.0
 11
25.4159715825
 21
10.9741903486
 31
0.0
  0
LINE
  8
DEFAULT
  6
CONTINUOUS
 62
         7
  5
156
 10
23.2025969641
 20
9.6224566628
 30
0.0
 11
23.4354199486
 21
9.4880010876
 31
0.0
  0
LINE
  8
DEFAULT
  6
CONTINUOUS
 62
         7
  5
157
 10
23.4354199486
 20
9.4880010876
 30
0.0
 11
25.7621054732
 21
10.8309623019
 31
0.0
  0
LINE
  8
DEFAULT
  6
CONTINUOUS
 62
         7
  5
158
 10
20.3881883041
 20
11.0942799538
 30
0.0
 11
23.4354199486
 21
9.3344997304
 31
0.0
  0
LINE
  8
DEFAULT
  6
CONTINUOUS
 62
         7
  5
159
 10
25.7621054732
 20
10.8309623019
 30
0.0
 11
25.76172423
 21
10.8311824704
 31
0.0
  0
LINE
  8
DEFAULT
  6
CONTINUOUS
 62
         7
  5
15A
 10
23.4354199486
 20
9.3344997304
 30
0.0
 11
25.7621054732
 21
10.6774609447
 31
0.0
  0
LINE
  8
DEFAULT
  6
CONTINUOUS
 62
         7
  5
15B
 10
20.3881883041
 20
11.0942799538
 30
0.0
 11
20.3881883041
 21
11.2473562603
 31
0.0
  0
LINE
  8
DEFAULT
  6
CONTINUOUS
 62
         7
  5
15C
 10
23.4354199486
 20
9.3344997304
 30
0.0
 11
23.4354199486
 21
9.4880010876
 31
0.0
  0
LINE
  8
DEFAULT
  6
CONTINUOUS
 62
         7
  5
15D
 10
25.7621054732
 20
10.6774609447
 30
0.0
 11
25.7621054732
 21
10.8309623019
 31
0.0
  0
LINE
  8
DEFAULT
  6
CONTINUOUS
 62
         7
  5
15E
 10
24.1120745311
 20
11.052878856
 30
0.0
 11
23.4049677499
 21
10.6446305656
 31
0.0
  0
LINE
  8
DEFAULT
  6
CONTINUOUS
 62
         7
  5
15F
 10
23.4049677499
 20
10.6446305656
 30
0.0
 11
24.2450106059
 21
10.1596315965
 31
0.0
  0
LINE
  8
DEFAULT
  6
CONTINUOUS
 62
         7
  5
160
 10
24.9521173871
 20
10.567879887
 30
0.0
 11
24.1120745311
 21
11.052878856
 31
0.0
  0
LINE
  8
DEFAULT
  6
CONTINUOUS
 62
         7
  5
161
 10
24.2450106059
 20
10.1596315965
 30
0.0
 11
24.9521173871
 21
10.567879887
 31
0.0
  0
LINE
  8
DEFAULT
  6
CONTINUOUS
 62
         7
  5
162
 10
24.3333989536
 20
10.0571612756
 30
0.0
 11
24.3333989536
 21
10.1371779405
 31
0.0
  0
LINE
  8
DEFAULT
  6
CONTINUOUS
 62
         7
  5
163
 10
24.241475072
 20
10.0881881457
 30
0.0
 11
24.2450106059
 21
10.0861469042
 31
0.0
  0
LINE
  8
DEFAULT
  6
CONTINUOUS
 62
         7
  5
164
 10
24.8637290395
 20
10.4433641584
 30
0.0
 11
24.9521173871
 21
10.4943951947
 31
0.0
  0
LINE
  8
DEFAULT
  6
CONTINUOUS
 62
         7
  5
165
 10
24.9521173871
 20
10.4943951947
 30
0.0
 11
24.9521173871
 21
10.567879887
 31
0.0
  0
LINE
  8
DEFAULT
  6
CONTINUOUS
 62
         7
  5
166
 10
24.2450106059
 20
10.0861469042
 30
0.0
 11
24.3333989536
 21
10.1371779405
 31
0.0
  0
LINE
  8
DEFAULT
  6
CONTINUOUS
 62
         7
  5
167
 10
24.8637290395
 20
10.3633474934
 30
0.0
 11
24.8637290395
 21
10.4433641584
 31
0.0
  0
LINE
  8
DEFAULT
  6
CONTINUOUS
 62
         7
  5
168
 10
24.8637290395
 20
10.3633474934
 30
0.0
 11
24.9521173871
 21
10.4143785298
 31
0.0
  0
LINE
  8
DEFAULT
  6
CONTINUOUS
 62
         7
  5
169
 10
24.2450106059
 20
10.0061302393
 30
0.0
 11
24.3333989536
 21
10.0571612756
 31
0.0
  0
LINE
  8
DEFAULT
  6
CONTINUOUS
 62
         7
  5
16A
 10
24.9521173871
 20
10.3408938375
 30
0.0
 11
24.9521173871
 21
10.4143785298
 31
0.0
  0
LINE
  8
DEFAULT
  6
CONTINUOUS
 62
         7
  5
16B
 10
23.4049677499
 20
10.6405480827
 30
0.0
 11
23.4049677499
 21
10.6446305656
 31
0.0
  0
LINE
  8
DEFAULT
  6
CONTINUOUS
 62
         7
  5
16C
 10
24.3333989536
 20
10.0571612756
 30
0.0
 11
24.3079431095
 21
10.0718582141
 31
0.0
  0
LINE
  8
DEFAULT
  6
CONTINUOUS
 62
         7
  5
16D
 10
24.2450106059
 20
10.0861469042
 30
0.0
 11
24.2450106059
 21
10.1596315965
 31
0.0
  0
LINE
  8
DEFAULT
  6
CONTINUOUS
 62
         7
  5
16E
 10
22.7445300163
 20
11.8424310498
 30
0.0
 11
21.9044871602
 21
12.3274300189
 31
0.0
  0
LINE
  8
DEFAULT
  6
CONTINUOUS
 62
         7
  5
16F
 10
21.197380379
 20
11.9191817284
 30
0.0
 11
22.0374232351
 21
11.4341827593
 31
0.0
  0
LINE
  8
DEFAULT
  6
CONTINUOUS
 62
         7
  5
170
 10
22.0374232351
 20
11.4341827593
 30
0.0
 11
22.7445300163
 21
11.8424310498
 31
0.0
  0
LINE
  8
DEFAULT
  6
CONTINUOUS
 62
         7
  5
171
 10
21.9044871602
 20
12.3274300189
 30
0.0
 11
21.197380379
 21
11.9191817284
 31
0.0
  0
LINE
  8
DEFAULT
  6
CONTINUOUS
 62
         7
  5
172
 10
21.197380379
 20
11.9150992455
 30
0.0
 11
21.197380379
 21
11.9191817284
 31
0.0
  0
ENDBLK
  8
DEFAULT
  6
CONTINUOUS
 62
         7
  5
173
  0
BLOCK
  8
0
 62
         1
 48
0.0
  5
286
  2
*X5
 70
         1
 10
0.0
 20
0.0
 30
0.0
  3
*X5
  0
INSERT
  8
0
 62
         0
 48
0.0
  5
287
  2
*X6
 10
0.0
 20
0.0
 30
0.0
  0
ENDBLK
  8
0
 62
         0
 48
0.0
  5
288
  0
BLOCK
  8
0
 62
         1
 48
0.0
  5
177
  2
*X6
 70
         1
 10
0.0
 20
0.0
 30
0.0
  3
*X6
  0
LINE
  8
DEFAULT
  6
CONTINUOUS
 62
         7
  5
178
 10
12.8205139815
 20
6.1591594284
 30
0.0
 11
16.8013184716
 21
6.1591594284
 31
0.0
  0
LINE
  8
DEFAULT
  6
CONTINUOUS
 62
         7
  5
179
 10
12.8205139815
 20
6.4091594284
 30
0.0
 11
17.1305139815
 21
6.4091594284
 31
0.0
  0
LINE
  8
DEFAULT
  6
CONTINUOUS
 62
         7
  5
17A
 10
12.8205139815
 20
6.4091594284
 30
0.0
 11
12.8205139815
 21
6.1591594284
 31
0.0
  0
LINE
  8
DEFAULT
  6
CONTINUOUS
 62
         7
  5
17B
 10
17.1305139815
 20
6.4091594284
 30
0.0
 11
17.1305139815
 21
6.1591594284
 31
0.0
  0
LINE
  8
DEFAULT
  6
CONTINUOUS
 62
         7
  5
17C
 10
13.0895139815
 20
5.9711594284
 30
0.0
 11
13.0895139815
 21
5.9179566097
 31
0.0
  0
ARC
  8
DEFAULT
  6
CONTINUOUS
 62
         7
  5
17D
 10
12.1229731033
 20
4.3352184852
 30
0.0
 40
1.8249615361
 50
58.0196828775
 51
58.787086375
  0
LINE
  8
DEFAULT
  6
CONTINUOUS
 62
         7
  5
17E
 10
13.2095139815
 20
5.9624190606
 30
0.0
 11
13.2095139815
 21
5.9711594284
 31
0.0
  0
POLYLINE
  8
DEFAULT
  6
CONTINUOUS
 62
         7
  5
17F
 66
         1
 10
0.0
 20
0.0
 30
0.0
 70
         4
  0
VERTEX
  8
DEFAULT
  6
CONTINUOUS
 62
         7
  5
180
 10
13.2042324564
 20
5.9276542753
 30
0.0
 70
         8
  0
VERTEX
  8
DEFAULT
  6
CONTINUOUS
 62
         7
  5
181
 10
13.20682758
 20
5.9293004283
 30
0.0
 70
         8
  0
VERTEX
  8
DEFAULT
  6
CONTINUOUS
 62
         7
  5
182
 10
13.2092698256
 20
5.9308431504
 30
0.0
 70
         8
  0
VERTEX
  8
DEFAULT
  6
CONTINUOUS
 62
         7
  5
183
 10
13.2114896118
 20
5.9322367836
 30
0.0
 70
         8
  0
VERTEX
  8
DEFAULT
  6
CONTINUOUS
 62
         7
  5
184
 10
13.2137477047
 20
5.9336476219
 30
0.0
 70
         8
  0
VERTEX
  8
DEFAULT
  6
CONTINUOUS
 62
         7
  5
185
 10
13.2155145487
 20
5.9347476932
 30
0.0
 70
         8
  0
VERTEX
  8
DEFAULT
  6
CONTINUOUS
 62
         7
  5
186
 10
13.217276992
 20
5.9358418263
 30
0.0
 70
         8
  0
VERTEX
  8
DEFAULT
  6
CONTINUOUS
 62
         7
  5
187
 10
13.2183748601
 20
5.9365218094
 30
0.0
 70
         8
  0
VERTEX
  8
DEFAULT
  6
CONTINUOUS
 62
         7
  5
188
 10
13.2194730535
 20
5.9372008459
 30
0.0
 70
         8
  0
VERTEX
  8
DEFAULT
  6
CONTINUOUS
 62
         7
  5
189
 10
13.2208603747
 20
5.938057092
 30
0.0
 70
         8
  0
VERTEX
  8
DEFAULT
  6
CONTINUOUS
 62
         7
  5
18A
 10
13.2222531749
 20
5.9389150389
 30
0.0
 70
         8
  0
VERTEX
  8
DEFAULT
  6
CONTINUOUS
 62
         7
  5
18B
 10
13.2240180885
 20
5.9399999359
 30
0.0
 70
         8
  0
VERTEX
  8
DEFAULT
  6
CONTINUOUS
 62
         7
  5
18C
 10
13.2257581155
 20
5.9410670763
 30
0.0
 70
         8
  0
VERTEX
  8
DEFAULT
  6
CONTINUOUS
 62
         7
  5
18D
 10
13.227810626
 20
5.9423226794
 30
0.0
 70
         8
  0
VERTEX
  8
DEFAULT
  6
CONTINUOUS
 62
         7
  5
18E
 10
13.2299956738
 20
5.9436569581
 30
0.0
 70
         8
  0
SEQEND
  8
DEFAULT
  6
CONTINUOUS
 62
         7
  5
18F
  0
ARC
  8
DEFAULT
  6
CONTINUOUS
 62
         7
  5
190
 10
12.2522423007
 20
7.2495666345
 30
0.0
 40
1.5729606577
 50
301.2831528138
 51
302.4032459305
  0
LINE
  8
DEFAULT
  6
CONTINUOUS
 62
         7
  5
191
 10
13.2095139815
 20
5.8676594284
 30
0.0
 11
13.2095139815
 21
5.9309960639
 31
0.0
  0
POLYLINE
  8
DEFAULT
  6
CONTINUOUS
 62
         7
  5
192
 66
         1
 10
0.0
 20
0.0
 30
0.0
 70
         4
  0
VERTEX
  8
DEFAULT
  6
CONTINUOUS
 62
         7
  5
193
 10
13.2303492621
 20
5.952923519
 30
0.0
 70
         8
  0
VERTEX
  8
DEFAULT
  6
CONTINUOUS
 62
         7
  5
194
 10
13.2227454899
 20
5.9575605954
 30
0.0
 70
         8
  0
VERTEX
  8
DEFAULT
  6
CONTINUOUS
 62
         7
  5
195
 10
13.2157121143
 20
5.9618847539
 30
0.0
 70
         8
  0
VERTEX
  8
DEFAULT
  6
CONTINUOUS
 62
         7
  5
196
 10
13.2126452104
 20
5.963788675
 30
0.0
 70
         8
  0
VERTEX
  8
DEFAULT
  6
CONTINUOUS
 62
         7
  5
197
 10
13.2095068241
 20
5.9657467984
 30
0.0
 70
         8
  0
SEQEND
  8
DEFAULT
  6
CONTINUOUS
 62
         7
  5
198
  0
LINE
  8
DEFAULT
  6
CONTINUOUS
 62
         7
  5
199
 10
13.2095139815
 20
5.8101594284
 30
0.0
 11
13.2095139815
 21
5.838791915
 31
0.0
  0
POLYLINE
  8
DEFAULT
  6
CONTINUOUS
 62
         7
  5
19A
 66
         1
 10
0.0
 20
0.0
 30
0.0
 70
         4
  0
VERTEX
  8
DEFAULT
  6
CONTINUOUS
 62
         7
  5
19B
 10
13.2308594283
 20
5.8575143064
 30
0.0
 70
         8
  0
VERTEX
  8
DEFAULT
  6
CONTINUOUS
 62
         7
  5
19C
 10
13.2260408976
 20
5.8604298968
 30
0.0
 70
         8
  0
VERTEX
  8
DEFAULT
  6
CONTINUOUS
 62
         7
  5
19D
 10
13.221496587
 20
5.8631911558
 30
0.0
 70
         8
  0
VERTEX
  8
DEFAULT
  6
CONTINUOUS
 62
         7
  5
19E
 10
13.2188157931
 20
5.8648282552
 30
0.0
 70
         8
  0
VERTEX
  8
DEFAULT
  6
CONTINUOUS
 62
         7
  5
19F
 10
13.2161331676
 20
5.8664742242
 30
0.0
 70
         8
  0
VERTEX
  8
DEFAULT
  6
CONTINUOUS
 62
         7
  5
1A0
 10
13.2128171544
 20
5.8685221147
 30
0.0
 70
         8
  0
VERTEX
  8
DEFAULT
  6
CONTINUOUS
 62
         7
  5
1A1
 10
13.2095074776
 20
5.8705788579
 30
0.0
 70
         8
  0
SEQEND
  8
DEFAULT
  6
CONTINUOUS
 62
         7
  5
1A2
  0
POLYLINE
  8
DEFAULT
  6
CONTINUOUS
 62
         7
  5
1A3
 66
         1
 10
0.0
 20
0.0
 30
0.0
 70
         4
  0
VERTEX
  8
DEFAULT
  6
CONTINUOUS
 62
         7
  5
1A4
 10
13.2042819308
 20
5.9275978543
 30
0.0
 70
         8
  0
VERTEX
  8
DEFAULT
  6
CONTINUOUS
 62
         7
  5
1A5
 10
13.1942130172
 20
5.922916922
 30
0.0
 70
         8
  0
VERTEX
  8
DEFAULT
  6
CONTINUOUS
 62
         7
  5
1A6
 10
13.1800079806
 20
5.9182370008
 30
0.0
 70
         8
  0
VERTEX
  8
DEFAULT
  6
CONTINUOUS
 62
         7
  5
1A7
 10
13.1549168428
 20
5.911548221
 30
0.0
 70
         8
  0
VERTEX
  8
DEFAULT
  6
CONTINUOUS
 62
         7
  5
1A8
 10
13.1287986133
 20
5.9048682613
 30
0.0
 70
         8
  0
VERTEX
  8
DEFAULT
  6
CONTINUOUS
 62
         7
  5
1A9
 10
13.1066843288
 20
5.8981742258
 30
0.0
 70
         8
  0
VERTEX
  8
DEFAULT
  6
CONTINUOUS
 62
         7
  5
1AA
 10
13.0927190057
 20
5.8914689099
 30
0.0
 70
         8
  0
VERTEX
  8
DEFAULT
  6
CONTINUOUS
 62
         7
  5
1AB
 10
13.0903245506
 20
5.8889547695
 30
0.0
 70
         8
  0
VERTEX
  8
DEFAULT
  6
CONTINUOUS
 62
         7
  5
1AC
 10
13.0895679387
 20
5.8864384315
 30
0.0
 70
         8
  0
SEQEND
  8
DEFAULT
  6
CONTINUOUS
 62
         7
  5
1AD
  0
POLYLINE
  8
DEFAULT
  6
CONTINUOUS
 62
         7
  5
1AE
 66
         1
 10
0.0
 20
0.0
 30
0.0
 70
         4
  0
VERTEX
  8
DEFAULT
  6
CONTINUOUS
 62
         7
  5
1AF
 10
13.0946691777
 20
5.9213733302
 30
0.0
 70
         8
  0
VERTEX
  8
DEFAULT
  6
CONTINUOUS
 62
         7
  5
1B0
 10
13.110111496
 20
5.9279141156
 30
0.0
 70
         8
  0
VERTEX
  8
DEFAULT
  6
CONTINUOUS
 62
         7
  5
1B1
 10
13.1326914676
 20
5.9344535385
 30
0.0
 70
         8
  0
VERTEX
  8
DEFAULT
  6
CONTINUOUS
 62
         7
  5
1B2
 10
13.158955748
 20
5.9411506998
 30
0.0
 70
         8
  0
VERTEX
  8
DEFAULT
  6
CONTINUOUS
 62
         7
  5
1B3
 10
13.1834283076
 20
5.9478464693
 30
0.0
 70
         8
  0
VERTEX
  8
DEFAULT
  6
CONTINUOUS
 62
         7
  5
1B4
 10
13.2013048264
 20
5.9545340685
 30
0.0
 70
         8
  0
VERTEX
  8
DEFAULT
  6
CONTINUOUS
 62
         7
  5
1B5
 10
13.2093699669
 20
5.9612185617
 30
0.0
 70
         8
  0
VERTEX
  8
DEFAULT
  6
CONTINUOUS
 62
         7
  5
1B6
 10
13.2095265618
 20
5.9618556446
 30
0.0
 70
         8
  0
VERTEX
  8
DEFAULT
  6
CONTINUOUS
 62
         7
  5
1B7
 10
13.2095708958
 20
5.9624929004
 30
0.0
 70
         8
  0
SEQEND
  8
DEFAULT
  6
CONTINUOUS
 62
         7
  5
1B8
  0
LINE
  8
DEFAULT
  6
CONTINUOUS
 62
         7
  5
1B9
 10
13.2095139815
 20
5.8676594284
 30
0.0
 11
13.2095139815
 21
5.838791915
 31
0.0
  0
LINE
  8
DEFAULT
  6
CONTINUOUS
 62
         7
  5
1BA
 10
13.0895139815
 20
5.8865258787
 30
0.0
 11
13.0895139815
 21
5.8101594284
 31
0.0
  0
LINE
  8
DEFAULT
  6
CONTINUOUS
 62
         7
  5
1BB
 10
13.2095139815
 20
5.838791915
 30
0.0
 11
13.2345139815
 21
5.8532256717
 31
0.0
  0
POLYLINE
  8
DEFAULT
  6
CONTINUOUS
 62
         7
  5
1BC
 66
         1
 10
0.0
 20
0.0
 30
0.0
 70
         4
  0
VERTEX
  8
DEFAULT
  6
CONTINUOUS
 62
         7
  5
1BD
 10
13.2345139815
 20
5.8532256717
 30
0.0
 70
         8
  0
VERTEX
  8
DEFAULT
  6
CONTINUOUS
 62
         7
  5
1BE
 10
13.233573319
 20
5.8553734052
 30
0.0
 70
         8
  0
VERTEX
  8
DEFAULT
  6
CONTINUOUS
 62
         7
  5
1BF
 10
13.2308480824
 20
5.8575211387
 30
0.0
 70
         8
  0
SEQEND
  8
DEFAULT
  6
CONTINUOUS
 62
         7
  5
1C0
  0
POLYLINE
  8
DEFAULT
  6
CONTINUOUS
 62
         7
  5
1C1
 66
         1
 10
0.0
 20
0.0
 30
0.0
 70
         4
  0
VERTEX
  8
DEFAULT
  6
CONTINUOUS
 62
         7
  5
1C2
 10
13.0687191736
 20
5.8960031939
 30
0.0
 70
         8
  0
VERTEX
  8
DEFAULT
  6
CONTINUOUS
 62
         7
  5
1C3
 10
13.0687991654
 20
5.9051501471
 30
0.0
 70
         8
  0
VERTEX
  8
DEFAULT
  6
CONTINUOUS
 62
         7
  5
1C4
 10
13.0965173483
 20
5.9142971003
 30
0.0
 70
         8
  0
VERTEX
  8
DEFAULT
  6
CONTINUOUS
 62
         7
  5
1C5
 10
13.1495139815
 20
5.9244756717
 30
0.0
 70
         8
  0
VERTEX
  8
DEFAULT
  6
CONTINUOUS
 62
         7
  5
1C6
 10
13.2025106146
 20
5.9346542431
 30
0.0
 70
         8
  0
VERTEX
  8
DEFAULT
  6
CONTINUOUS
 62
         7
  5
1C7
 10
13.2302140068
 20
5.9437919171
 30
0.0
 70
         8
  0
VERTEX
  8
DEFAULT
  6
CONTINUOUS
 62
         7
  5
1C8
 10
13.2303393057
 20
5.9529295911
 30
0.0
 70
         8
  0
SEQEND
  8
DEFAULT
  6
CONTINUOUS
 62
         7
  5
1C9
  0
LINE
  8
DEFAULT
  6
CONTINUOUS
 62
         7
  5
1CA
 10
13.2345139815
 20
5.8532256717
 30
0.0
 11
13.2095139815
 21
5.8676594284
 31
0.0
  0
LINE
  8
DEFAULT
  6
CONTINUOUS
 62
         7
  5
1CB
 10
13.2095139815
 20
5.8101594284
 30
0.0
 11
13.0895139815
 21
5.8101594284
 31
0.0
  0
ARC
  8
DEFAULT
  6
CONTINUOUS
 62
         7
  5
1CC
 10
3.3527131078
 20
14.7348351471
 30
0.0
 40
12.9729787601
 50
320.0760232872
 51
320.0817867095
  0
LINE
  8
DEFAULT
  6
CONTINUOUS
 62
         7
  5
1CD
 10
12.9965433961
 20
6.4101594284
 30
0.0
 11
13.3024845669
 21
6.4101594284
 31
0.0
  0
ARC
  8
DEFAULT
  6
CONTINUOUS
 62
         7
  5
1CE
 10
22.9463148551
 20
14.7348351471
 30
0.0
 40
12.97297876
 50
219.9182132905
 51
219.9239767128
  0
POLYLINE
  8
DEFAULT
  6
CONTINUOUS
 62
         7
  5
1CF
 66
         1
 10
0.0
 20
0.0
 30
0.0
 70
         4
  0
VERTEX
  8
DEFAULT
  6
CONTINUOUS
 62
         7
  5
1D0
 10
13.2299963614
 20
5.905293966
 30
0.0
 70
         8
  0
VERTEX
  8
DEFAULT
  6
CONTINUOUS
 62
         7
  5
1D1
 10
13.227265617
 20
5.9069620662
 30
0.0
 70
         8
  0
VERTEX
  8
DEFAULT
  6
CONTINUOUS
 62
         7
  5
1D2
 10
13.2247009014
 20
5.9085323831
 30
0.0
 70
         8
  0
VERTEX
  8
DEFAULT
  6
CONTINUOUS
 62
         7
  5
1D3
 10
13.2225188187
 20
5.9098727871
 30
0.0
 70
         8
  0
VERTEX
  8
DEFAULT
  6
CONTINUOUS
 62
         7
  5
1D4
 10
13.2203061379
 20
5.9112361014
 30
0.0
 70
         8
  0
VERTEX
  8
DEFAULT
  6
CONTINUOUS
 62
         7
  5
1D5
 10
13.2185496735
 20
5.9123213609
 30
0.0
 70
         8
  0
VERTEX
  8
DEFAULT
  6
CONTINUOUS
 62
         7
  5
1D6
 10
13.2168003229
 20
5.913405121
 30
0.0
 70
         8
  0
VERTEX
  8
DEFAULT
  6
CONTINUOUS
 62
         7
  5
1D7
 10
13.2157057503
 20
5.9140847802
 30
0.0
 70
         8
  0
VERTEX
  8
DEFAULT
  6
CONTINUOUS
 62
         7
  5
1D8
 10
13.2146117625
 20
5.9147653287
 30
0.0
 70
         8
  0
VERTEX
  8
DEFAULT
  6
CONTINUOUS
 62
         7
  5
1D9
 10
13.2132144381
 20
5.915636494
 30
0.0
 70
         8
  0
VERTEX
  8
DEFAULT
  6
CONTINUOUS
 62
         7
  5
1DA
 10
13.2118133778
 20
5.9165122062
 30
0.0
 70
         8
  0
VERTEX
  8
DEFAULT
  6
CONTINUOUS
 62
         7
  5
1DB
 10
13.2106608789
 20
5.9172342588
 30
0.0
 70
         8
  0
VERTEX
  8
DEFAULT
  6
CONTINUOUS
 62
         7
  5
1DC
 10
13.2095127685
 20
5.9179552561
 30
0.0
 70
         8
  0
SEQEND
  8
DEFAULT
  6
CONTINUOUS
 62
         7
  5
1DD
  0
LINE
  8
DEFAULT
  6
CONTINUOUS
 62
         7
  5
1DE
 10
13.0895139815
 20
5.838791915
 30
0.0
 11
13.0645139815
 21
5.8532256717
 31
0.0
  0
POLYLINE
  8
DEFAULT
  6
CONTINUOUS
 62
         7
  5
1DF
 66
         1
 10
0.0
 20
0.0
 30
0.0
 70
         4
  0
VERTEX
  8
DEFAULT
  6
CONTINUOUS
 62
         7
  5
1E0
 10
13.0645139815
 20
5.8532256717
 30
0.0
 70
         8
  0
VERTEX
  8
DEFAULT
  6
CONTINUOUS
 62
         7
  5
1E1
 10
13.0712445246
 20
5.8591033911
 30
0.0
 70
         8
  0
VERTEX
  8
DEFAULT
  6
CONTINUOUS
 62
         7
  5
1E2
 10
13.0894530699
 20
5.8649811104
 30
0.0
 70
         8
  0
SEQEND
  8
DEFAULT
  6
CONTINUOUS
 62
         7
  5
1E3
  0
POLYLINE
  8
DEFAULT
  6
CONTINUOUS
 62
         7
  5
1E4
 66
         1
 10
0.0
 20
0.0
 30
0.0
 70
         4
  0
VERTEX
  8
DEFAULT
  6
CONTINUOUS
 62
         7
  5
1E5
 10
13.2096122548
 20
5.8888979812
 30
0.0
 70
         8
  0
VERTEX
  8
DEFAULT
  6
CONTINUOUS
 62
         7
  5
1E6
 10
13.218844184
 20
5.8914189693
 30
0.0
 70
         8
  0
VERTEX
  8
DEFAULT
  6
CONTINUOUS
 62
         7
  5
1E7
 10
13.2260963353
 20
5.8939399574
 30
0.0
 70
         8
  0
VERTEX
  8
DEFAULT
  6
CONTINUOUS
 62
         7
  5
1E8
 10
13.2338367166
 20
5.8996204754
 30
0.0
 70
         8
  0
VERTEX
  8
DEFAULT
  6
CONTINUOUS
 62
         7
  5
1E9
 10
13.2299848293
 20
5.9053009934
 30
0.0
 70
         8
  0
SEQEND
  8
DEFAULT
  6
CONTINUOUS
 62
         7
  5
1EA
  0
POLYLINE
  8
DEFAULT
  6
CONTINUOUS
 62
         7
  5
1EB
 66
         1
 10
0.0
 20
0.0
 30
0.0
 70
         4
  0
VERTEX
  8
DEFAULT
  6
CONTINUOUS
 62
         7
  5
1EC
 10
13.0690459707
 20
5.9436486228
 30
0.0
 70
         8
  0
VERTEX
  8
DEFAULT
  6
CONTINUOUS
 62
         7
  5
1ED
 10
13.0651909752
 20
5.9493300044
 30
0.0
 70
         8
  0
VERTEX
  8
DEFAULT
  6
CONTINUOUS
 62
         7
  5
1EE
 10
13.0729316277
 20
5.955011386
 30
0.0
 70
         8
  0
VERTEX
  8
DEFAULT
  6
CONTINUOUS
 62
         7
  5
1EF
 10
13.0802216847
 20
5.9575438831
 30
0.0
 70
         8
  0
VERTEX
  8
DEFAULT
  6
CONTINUOUS
 62
         7
  5
1F0
 10
13.0895080747
 20
5.9600763802
 30
0.0
 70
         8
  0
SEQEND
  8
DEFAULT
  6
CONTINUOUS
 62
         7
  5
1F1
  0
ARC
  8
DEFAULT
  6
CONTINUOUS
 62
         7
  5
1F2
 10
12.2480382733
 20
4.5926455446
 30
0.0
 40
1.5809028488
 50
57.8407453829
 51
58.713433718
  0
POLYLINE
  8
DEFAULT
  6
CONTINUOUS
 62
         7
  5
1F3
 66
         1
 10
0.0
 20
0.0
 30
0.0
 70
         4
  0
VERTEX
  8
DEFAULT
  6
CONTINUOUS
 62
         7
  5
1F4
 10
13.2095041425
 20
5.8832018334
 30
0.0
 70
         8
  0
VERTEX
  8
DEFAULT
  6
CONTINUOUS
 62
         7
  5
1F5
 10
13.2130535714
 20
5.8854157129
 30
0.0
 70
         8
  0
VERTEX
  8
DEFAULT
  6
CONTINUOUS
 62
         7
  5
1F6
 10
13.216515344
 20
5.8875629735
 30
0.0
 70
         8
  0
VERTEX
  8
DEFAULT
  6
CONTINUOUS
 62
         7
  5
1F7
 10
13.2231503423
 20
5.8916389488
 30
0.0
 70
         8
  0
VERTEX
  8
DEFAULT
  6
CONTINUOUS
 62
         7
  5
1F8
 10
13.2303236889
 20
5.8960122451
 30
0.0
 70
         8
  0
SEQEND
  8
DEFAULT
  6
CONTINUOUS
 62
         7
  5
1F9
  0
ARC
  8
DEFAULT
  6
CONTINUOUS
 62
         7
  5
1FA
 10
12.2442216425
 20
7.2293785703
 30
0.0
 40
1.6002773833
 50
300.9891874626
 51
301.884937464
  0
ARC
  8
DEFAULT
  6
CONTINUOUS
 62
         7
  5
1FB
 10
12.1470853765
 20
7.4746750138
 30
0.0
 40
1.7790620752
 50
301.1996655806
 51
301.9876917128
  0
LINE
  8
DEFAULT
  6
CONTINUOUS
 62
         7
  5
1FC
 10
16.8615139815
 20
5.9624190606
 30
0.0
 11
16.8615139815
 21
5.9711594284
 31
0.0
  0
POLYLINE
  8
DEFAULT
  6
CONTINUOUS
 62
         7
  5
1FD
 66
         1
 10
0.0
 20
0.0
 30
0.0
 70
         4
  0
VERTEX
  8
DEFAULT
  6
CONTINUOUS
 62
         7
  5
1FE
 10
16.8562324564
 20
5.9276542753
 30
0.0
 70
         8
  0
VERTEX
  8
DEFAULT
  6
CONTINUOUS
 62
         7
  5
1FF
 10
16.85882758
 20
5.9293004283
 30
0.0
 70
         8
  0
VERTEX
  8
DEFAULT
  6
CONTINUOUS
 62
         7
  5
200
 10
16.8612698256
 20
5.9308431504
 30
0.0
 70
         8
  0
VERTEX
  8
DEFAULT
  6
CONTINUOUS
 62
         7
  5
201
 10
16.8634896118
 20
5.9322367836
 30
0.0
 70
         8
  0
VERTEX
  8
DEFAULT
  6
CONTINUOUS
 62
         7
  5
202
 10
16.8657477047
 20
5.9336476219
 30
0.0
 70
         8
  0
VERTEX
  8
DEFAULT
  6
CONTINUOUS
 62
         7
  5
203
 10
16.8675145487
 20
5.9347476932
 30
0.0
 70
         8
  0
VERTEX
  8
DEFAULT
  6
CONTINUOUS
 62
         7
  5
204
 10
16.869276992
 20
5.9358418263
 30
0.0
 70
         8
  0
VERTEX
  8
DEFAULT
  6
CONTINUOUS
 62
         7
  5
205
 10
16.8703748601
 20
5.9365218094
 30
0.0
 70
         8
  0
VERTEX
  8
DEFAULT
  6
CONTINUOUS
 62
         7
  5
206
 10
16.8714730535
 20
5.9372008459
 30
0.0
 70
         8
  0
VERTEX
  8
DEFAULT
  6
CONTINUOUS
 62
         7
  5
207
 10
16.8728603747
 20
5.938057092
 30
0.0
 70
         8
  0
VERTEX
  8
DEFAULT
  6
CONTINUOUS
 62
         7
  5
208
 10
16.8742531749
 20
5.9389150389
 30
0.0
 70
         8
  0
VERTEX
  8
DEFAULT
  6
CONTINUOUS
 62
         7
  5
209
 10
16.8760180885
 20
5.9399999359
 30
0.0
 70
         8
  0
VERTEX
  8
DEFAULT
  6
CONTINUOUS
 62
         7
  5
20A
 10
16.8777581155
 20
5.9410670763
 30
0.0
 70
         8
  0
VERTEX
  8
DEFAULT
  6
CONTINUOUS
 62
         7
  5
20B
 10
16.879810626
 20
5.9423226794
 30
0.0
 70
         8
  0
VERTEX
  8
DEFAULT
  6
CONTINUOUS
 62
         7
  5
20C
 10
16.8819956738
 20
5.9436569581
 30
0.0
 70
         8
  0
SEQEND
  8
DEFAULT
  6
CONTINUOUS
 62
         7
  5
20D
  0
ARC
  8
DEFAULT
  6
CONTINUOUS
 62
         7
  5
20E
 10
15.9042423007
 20
7.2495666345
 30
0.0
 40
1.5729606577
 50
301.2831528138
 51
302.4032459305
  0
LINE
  8
DEFAULT
  6
CONTINUOUS
 62
         7
  5
20F
 10
16.8615139815
 20
5.8676594284
 30
0.0
 11
16.8615139815
 21
5.9309960639
 31
0.0
  0
POLYLINE
  8
DEFAULT
  6
CONTINUOUS
 62
         7
  5
210
 66
         1
 10
0.0
 20
0.0
 30
0.0
 70
         4
  0
VERTEX
  8
DEFAULT
  6
CONTINUOUS
 62
         7
  5
211
 10
16.8823492621
 20
5.952923519
 30
0.0
 70
         8
  0
VERTEX
  8
DEFAULT
  6
CONTINUOUS
 62
         7
  5
212
 10
16.8747454899
 20
5.9575605954
 30
0.0
 70
         8
  0
VERTEX
  8
DEFAULT
  6
CONTINUOUS
 62
         7
  5
213
 10
16.8677121143
 20
5.9618847539
 30
0.0
 70
         8
  0
VERTEX
  8
DEFAULT
  6
CONTINUOUS
 62
         7
  5
214
 10
16.8646452104
 20
5.963788675
 30
0.0
 70
         8
  0
VERTEX
  8
DEFAULT
  6
CONTINUOUS
 62
         7
  5
215
 10
16.8615068241
 20
5.9657467984
 30
0.0
 70
         8
  0
SEQEND
  8
DEFAULT
  6
CONTINUOUS
 62
         7
  5
216
  0
LINE
  8
DEFAULT
  6
CONTINUOUS
 62
         7
  5
217
 10
16.8615139815
 20
5.8101594284
 30
0.0
 11
16.8615139815
 21
5.838791915
 31
0.0
  0
POLYLINE
  8
DEFAULT
  6
CONTINUOUS
 62
         7
  5
218
 66
         1
 10
0.0
 20
0.0
 30
0.0
 70
         4
  0
VERTEX
  8
DEFAULT
  6
CONTINUOUS
 62
         7
  5
219
 10
16.8828594283
 20
5.8575143064
 30
0.0
 70
         8
  0
VERTEX
  8
DEFAULT
  6
CONTINUOUS
 62
         7
  5
21A
 10
16.8780408976
 20
5.8604298968
 30
0.0
 70
         8
  0
VERTEX
  8
DEFAULT
  6
CONTINUOUS
 62
         7
  5
21B
 10
16.873496587
 20
5.8631911558
 30
0.0
 70
         8
  0
VERTEX
  8
DEFAULT
  6
CONTINUOUS
 62
         7
  5
21C
 10
16.8708157931
 20
5.8648282552
 30
0.0
 70
         8
  0
VERTEX
  8
DEFAULT
  6
CONTINUOUS
 62
         7
  5
21D
 10
16.8681331676
 20
5.8664742242
 30
0.0
 70
         8
  0
VERTEX
  8
DEFAULT
  6
CONTINUOUS
 62
         7
  5
21E
 10
16.8648171544
 20
5.8685221147
 30
0.0
 70
         8
  0
VERTEX
  8
DEFAULT
  6
CONTINUOUS
 62
         7
  5
21F
 10
16.8615074776
 20
5.8705788579
 30
0.0
 70
         8
  0
SEQEND
  8
DEFAULT
  6
CONTINUOUS
 62
         7
  5
220
  0
POLYLINE
  8
DEFAULT
  6
CONTINUOUS
 62
         7
  5
221
 66
         1
 10
0.0
 20
0.0
 30
0.0
 70
         4
  0
VERTEX
  8
DEFAULT
  6
CONTINUOUS
 62
         7
  5
222
 10
16.7466691777
 20
5.9213733302
 30
0.0
 70
         8
  0
VERTEX
  8
DEFAULT
  6
CONTINUOUS
 62
         7
  5
223
 10
16.762111496
 20
5.9279141156
 30
0.0
 70
         8
  0
VERTEX
  8
DEFAULT
  6
CONTINUOUS
 62
         7
  5
224
 10
16.7846914676
 20
5.9344535385
 30
0.0
 70
         8
  0
VERTEX
  8
DEFAULT
  6
CONTINUOUS
 62
         7
  5
225
 10
16.810955748
 20
5.9411506998
 30
0.0
 70
         8
  0
VERTEX
  8
DEFAULT
  6
CONTINUOUS
 62
         7
  5
226
 10
16.8354283076
 20
5.9478464693
 30
0.0
 70
         8
  0
VERTEX
  8
DEFAULT
  6
CONTINUOUS
 62
         7
  5
227
 10
16.8533048264
 20
5.9545340685
 30
0.0
 70
         8
  0
VERTEX
  8
DEFAULT
  6
CONTINUOUS
 62
         7
  5
228
 10
16.8613699669
 20
5.9612185617
 30
0.0
 70
         8
  0
VERTEX
  8
DEFAULT
  6
CONTINUOUS
 62
         7
  5
229
 10
16.8615265618
 20
5.9618556446
 30
0.0
 70
         8
  0
VERTEX
  8
DEFAULT
  6
CONTINUOUS
 62
         7
  5
22A
 10
16.8615708958
 20
5.9624929004
 30
0.0
 70
         8
  0
SEQEND
  8
DEFAULT
  6
CONTINUOUS
 62
         7
  5
22B
  0
LINE
  8
DEFAULT
  6
CONTINUOUS
 62
         7
  5
22C
 10
16.8615139815
 20
5.8676594284
 30
0.0
 11
16.8615139815
 21
5.838791915
 31
0.0
  0
POLYLINE
  8
DEFAULT
  6
CONTINUOUS
 62
         7
  5
22D
 66
         1
 10
0.0
 20
0.0
 30
0.0
 70
         4
  0
VERTEX
  8
DEFAULT
  6
CONTINUOUS
 62
         7
  5
22E
 10
16.8562819308
 20
5.9275978543
 30
0.0
 70
         8
  0
VERTEX
  8
DEFAULT
  6
CONTINUOUS
 62
         7
  5
22F
 10
16.8462130172
 20
5.922916922
 30
0.0
 70
         8
  0
VERTEX
  8
DEFAULT
  6
CONTINUOUS
 62
         7
  5
230
 10
16.8320079806
 20
5.9182370008
 30
0.0
 70
         8
  0
VERTEX
  8
DEFAULT
  6
CONTINUOUS
 62
         7
  5
231
 10
16.8069168428
 20
5.911548221
 30
0.0
 70
         8
  0
VERTEX
  8
DEFAULT
  6
CONTINUOUS
 62
         7
  5
232
 10
16.7807986133
 20
5.9048682613
 30
0.0
 70
         8
  0
VERTEX
  8
DEFAULT
  6
CONTINUOUS
 62
         7
  5
233
 10
16.7586843288
 20
5.8981742258
 30
0.0
 70
         8
  0
VERTEX
  8
DEFAULT
  6
CONTINUOUS
 62
         7
  5
234
 10
16.7447190057
 20
5.8914689099
 30
0.0
 70
         8
  0
VERTEX
  8
DEFAULT
  6
CONTINUOUS
 62
         7
  5
235
 10
16.7423245506
 20
5.8889547695
 30
0.0
 70
         8
  0
VERTEX
  8
DEFAULT
  6
CONTINUOUS
 62
         7
  5
236
 10
16.7415679387
 20
5.8864384315
 30
0.0
 70
         8
  0
SEQEND
  8
DEFAULT
  6
CONTINUOUS
 62
         7
  5
237
  0
LINE
  8
DEFAULT
  6
CONTINUOUS
 62
         7
  5
238
 10
16.7415139815
 20
5.8865258787
 30
0.0
 11
16.7415139815
 21
5.8101594284
 31
0.0
  0
LINE
  8
DEFAULT
  6
CONTINUOUS
 62
         7
  5
239
 10
16.8615139815
 20
5.838791915
 30
0.0
 11
16.8865139815
 21
5.8532256717
 31
0.0
  0
LINE
  8
DEFAULT
  6
CONTINUOUS
 62
         7
  5
23A
 10
16.8865139815
 20
5.8532256717
 30
0.0
 11
16.8615139815
 21
5.8676594284
 31
0.0
  0
POLYLINE
  8
DEFAULT
  6
CONTINUOUS
 62
         7
  5
23B
 66
         1
 10
0.0
 20
0.0
 30
0.0
 70
         4
  0
VERTEX
  8
DEFAULT
  6
CONTINUOUS
 62
         7
  5
23C
 10
16.8865139815
 20
5.8532256717
 30
0.0
 70
         8
  0
VERTEX
  8
DEFAULT
  6
CONTINUOUS
 62
         7
  5
23D
 10
16.885573319
 20
5.8553734052
 30
0.0
 70
         8
  0
VERTEX
  8
DEFAULT
  6
CONTINUOUS
 62
         7
  5
23E
 10
16.8828480824
 20
5.8575211387
 30
0.0
 70
         8
  0
SEQEND
  8
DEFAULT
  6
CONTINUOUS
 62
         7
  5
23F
  0
POLYLINE
  8
DEFAULT
  6
CONTINUOUS
 62
         7
  5
240
 66
         1
 10
0.0
 20
0.0
 30
0.0
 70
         4
  0
VERTEX
  8
DEFAULT
  6
CONTINUOUS
 62
         7
  5
241
 10
16.7207191736
 20
5.8960031939
 30
0.0
 70
         8
  0
VERTEX
  8
DEFAULT
  6
CONTINUOUS
 62
         7
  5
242
 10
16.7207991654
 20
5.9051501471
 30
0.0
 70
         8
  0
VERTEX
  8
DEFAULT
  6
CONTINUOUS
 62
         7
  5
243
 10
16.7485173483
 20
5.9142971003
 30
0.0
 70
         8
  0
VERTEX
  8
DEFAULT
  6
CONTINUOUS
 62
         7
  5
244
 10
16.8015139815
 20
5.9244756717
 30
0.0
 70
         8
  0
VERTEX
  8
DEFAULT
  6
CONTINUOUS
 62
         7
  5
245
 10
16.8545106146
 20
5.9346542431
 30
0.0
 70
         8
  0
VERTEX
  8
DEFAULT
  6
CONTINUOUS
 62
         7
  5
246
 10
16.8822140068
 20
5.9437919171
 30
0.0
 70
         8
  0
VERTEX
  8
DEFAULT
  6
CONTINUOUS
 62
         7
  5
247
 10
16.8823393057
 20
5.9529295911
 30
0.0
 70
         8
  0
SEQEND
  8
DEFAULT
  6
CONTINUOUS
 62
         7
  5
248
  0
ARC
  8
DEFAULT
  6
CONTINUOUS
 62
         7
  5
249
 10
7.0047131077
 20
14.7348351472
 30
0.0
 40
12.9729787601
 50
320.0760232872
 51
320.0817867095
  0
LINE
  8
DEFAULT
  6
CONTINUOUS
 62
         7
  5
24A
 10
16.8615139815
 20
5.8101594284
 30
0.0
 11
16.7415139815
 21
5.8101594284
 31
0.0
  0
LINE
  8
DEFAULT
  6
CONTINUOUS
 62
         7
  5
24B
 10
16.6485433961
 20
6.4101594284
 30
0.0
 11
16.9544845669
 21
6.4101594284
 31
0.0
  0
ARC
  8
DEFAULT
  6
CONTINUOUS
 62
         7
  5
24C
 10
26.5983148553
 20
14.7348351472
 30
0.0
 40
12.9729787602
 50
219.9182132905
 51
219.9239767128
  0
LINE
  8
DEFAULT
  6
CONTINUOUS
 62
         7
  5
24D
 10
16.7415139815
 20
5.9711594284
 30
0.0
 11
16.7415139815
 21
5.9179566097
 31
0.0
  0
ARC
  8
DEFAULT
  6
CONTINUOUS
 62
         7
  5
24E
 10
15.7749731033
 20
4.3352184852
 30
0.0
 40
1.8249615361
 50
58.0196828775
 51
58.787086375
  0
POLYLINE
  8
DEFAULT
  6
CONTINUOUS
 62
         7
  5
24F
 66
         1
 10
0.0
 20
0.0
 30
0.0
 70
         4
  0
VERTEX
  8
DEFAULT
  6
CONTINUOUS
 62
         7
  5
250
 10
16.8819963614
 20
5.905293966
 30
0.0
 70
         8
  0
VERTEX
  8
DEFAULT
  6
CONTINUOUS
 62
         7
  5
251
 10
16.879265617
 20
5.9069620662
 30
0.0
 70
         8
  0
VERTEX
  8
DEFAULT
  6
CONTINUOUS
 62
         7
  5
252
 10
16.8767009014
 20
5.9085323831
 30
0.0
 70
         8
  0
VERTEX
  8
DEFAULT
  6
CONTINUOUS
 62
         7
  5
253
 10
16.8745188187
 20
5.9098727871
 30
0.0
 70
         8
  0
VERTEX
  8
DEFAULT
  6
CONTINUOUS
 62
         7
  5
254
 10
16.8723061379
 20
5.9112361014
 30
0.0
 70
         8
  0
VERTEX
  8
DEFAULT
  6
CONTINUOUS
 62
         7
  5
255
 10
16.8705496735
 20
5.9123213609
 30
0.0
 70
         8
  0
VERTEX
  8
DEFAULT
  6
CONTINUOUS
 62
         7
  5
256
 10
16.8688003229
 20
5.913405121
 30
0.0
 70
         8
  0
VERTEX
  8
DEFAULT
  6
CONTINUOUS
 62
         7
  5
257
 10
16.8677057503
 20
5.9140847802
 30
0.0
 70
         8
  0
VERTEX
  8
DEFAULT
  6
CONTINUOUS
 62
         7
  5
258
 10
16.8666117625
 20
5.9147653287
 30
0.0
 70
         8
  0
VERTEX
  8
DEFAULT
  6
CONTINUOUS
 62
         7
  5
259
 10
16.8652144381
 20
5.915636494
 30
0.0
 70
         8
  0
VERTEX
  8
DEFAULT
  6
CONTINUOUS
 62
         7
  5
25A
 10
16.8638133778
 20
5.9165122062
 30
0.0
 70
         8
  0
VERTEX
  8
DEFAULT
  6
CONTINUOUS
 62
         7
  5
25B
 10
16.8626608789
 20
5.9172342588
 30
0.0
 70
         8
  0
VERTEX
  8
DEFAULT
  6
CONTINUOUS
 62
         7
  5
25C
 10
16.8615127685
 20
5.9179552561
 30
0.0
 70
         8
  0
SEQEND
  8
DEFAULT
  6
CONTINUOUS
 62
         7
  5
25D
  0
LINE
  8
DEFAULT
  6
CONTINUOUS
 62
         7
  5
25E
 10
16.7415139815
 20
5.838791915
 30
0.0
 11
16.7165139815
 21
5.8532256717
 31
0.0
  0
POLYLINE
  8
DEFAULT
  6
CONTINUOUS
 62
         7
  5
25F
 66
         1
 10
0.0
 20
0.0
 30
0.0
 70
         4
  0
VERTEX
  8
DEFAULT
  6
CONTINUOUS
 62
         7
  5
260
 10
16.7165139815
 20
5.8532256717
 30
0.0
 70
         8
  0
VERTEX
  8
DEFAULT
  6
CONTINUOUS
 62
         7
  5
261
 10
16.7232445246
 20
5.8591033911
 30
0.0
 70
         8
  0
VERTEX
  8
DEFAULT
  6
CONTINUOUS
 62
         7
  5
262
 10
16.7414530699
 20
5.8649811104
 30
0.0
 70
         8
  0
SEQEND
  8
DEFAULT
  6
CONTINUOUS
 62
         7
  5
263
  0
POLYLINE
  8
DEFAULT
  6
CONTINUOUS
 62
         7
  5
264
 66
         1
 10
0.0
 20
0.0
 30
0.0
 70
         4
  0
VERTEX
  8
DEFAULT
  6
CONTINUOUS
 62
         7
  5
265
 10
16.8616122548
 20
5.8888979812
 30
0.0
 70
         8
  0
VERTEX
  8
DEFAULT
  6
CONTINUOUS
 62
         7
  5
266
 10
16.870844184
 20
5.8914189693
 30
0.0
 70
         8
  0
VERTEX
  8
DEFAULT
  6
CONTINUOUS
 62
         7
  5
267
 10
16.8780963353
 20
5.8939399574
 30
0.0
 70
         8
  0
VERTEX
  8
DEFAULT
  6
CONTINUOUS
 62
         7
  5
268
 10
16.8858367166
 20
5.8996204754
 30
0.0
 70
         8
  0
VERTEX
  8
DEFAULT
  6
CONTINUOUS
 62
         7
  5
269
 10
16.8819848293
 20
5.9053009934
 30
0.0
 70
         8
  0
SEQEND
  8
DEFAULT
  6
CONTINUOUS
 62
         7
  5
26A
  0
POLYLINE
  8
DEFAULT
  6
CONTINUOUS
 62
         7
  5
26B
 66
         1
 10
0.0
 20
0.0
 30
0.0
 70
         4
  0
VERTEX
  8
DEFAULT
  6
CONTINUOUS
 62
         7
  5
26C
 10
16.7210459707
 20
5.9436486228
 30
0.0
 70
         8
  0
VERTEX
  8
DEFAULT
  6
CONTINUOUS
 62
         7
  5
26D
 10
16.7171909752
 20
5.9493300044
 30
0.0
 70
         8
  0
VERTEX
  8
DEFAULT
  6
CONTINUOUS
 62
         7
  5
26E
 10
16.7249316277
 20
5.955011386
 30
0.0
 70
         8
  0
VERTEX
  8
DEFAULT
  6
CONTINUOUS
 62
         7
  5
26F
 10
16.7322216847
 20
5.9575438831
 30
0.0
 70
         8
  0
VERTEX
  8
DEFAULT
  6
CONTINUOUS
 62
         7
  5
270
 10
16.7415080747
 20
5.9600763802
 30
0.0
 70
         8
  0
SEQEND
  8
DEFAULT
  6
CONTINUOUS
 62
         7
  5
271
  0
ARC
  8
DEFAULT
  6
CONTINUOUS
 62
         7
  5
272
 10
15.9000382733
 20
4.5926455445
 30
0.0
 40
1.5809028489
 50
57.8407453829
 51
58.713433718
  0
POLYLINE
  8
DEFAULT
  6
CONTINUOUS
 62
         7
  5
273
 66
         1
 10
0.0
 20
0.0
 30
0.0
 70
         4
  0
VERTEX
  8
DEFAULT
  6
CONTINUOUS
 62
         7
  5
274
 10
16.8615041425
 20
5.8832018334
 30
0.0
 70
         8
  0
VERTEX
  8
DEFAULT
  6
CONTINUOUS
 62
         7
  5
275
 10
16.8650535714
 20
5.8854157129
 30
0.0
 70
         8
  0
VERTEX
  8
DEFAULT
  6
CONTINUOUS
 62
         7
  5
276
 10
16.868515344
 20
5.8875629735
 30
0.0
 70
         8
  0
VERTEX
  8
DEFAULT
  6
CONTINUOUS
 62
         7
  5
277
 10
16.8751503423
 20
5.8916389488
 30
0.0
 70
         8
  0
VERTEX
  8
DEFAULT
  6
CONTINUOUS
 62
         7
  5
278
 10
16.8823236889
 20
5.8960122451
 30
0.0
 70
         8
  0
SEQEND
  8
DEFAULT
  6
CONTINUOUS
 62
         7
  5
279
  0
ARC
  8
DEFAULT
  6
CONTINUOUS
 62
         7
  5
27A
 10
15.8962216425
 20
7.2293785703
 30
0.0
 40
1.6002773833
 50
300.9891874626
 51
301.884937464
  0
ARC
  8
DEFAULT
  6
CONTINUOUS
 62
         7
  5
27B
 10
15.7990853766
 20
7.4746750138
 30
0.0
 40
1.7790620752
 50
301.1996655806
 51
301.9876917128
  0
LINE
  8
DEFAULT
  6
CONTINUOUS
 62
         7
  5
27C
 10
16.8013184716
 20
6.1591594284
 30
0.0
 11
17.130622959
 21
6.1591594284
 31
0.0
  0
LINE
  8
DEFAULT
  6
CONTINUOUS
 62
         7
  5
27D
 10
17.130622959
 20
6.1591594284
 30
0.0
 11
17.1310532114
 21
6.1591594284
 31
0.0
  0
LINE
  8
DEFAULT
  6
CONTINUOUS
 62
         7
  5
27E
 10
12.8206229958
 20
5.9711594284
 30
0.0
 11
17.130622959
 21
5.9711594284
 31
0.0
  0
LINE
  8
DEFAULT
  6
CONTINUOUS
 62
         7
  5
27F
 10
17.130622959
 20
5.9711594284
 30
0.0
 11
17.130622959
 21
6.1591594284
 31
0.0
  0
LINE
  8
DEFAULT
  6
CONTINUOUS
 62
         7
  5
280
 10
17.130622959
 20
5.9711594284
 30
0.0
 11
17.1310532114
 21
5.9711594284
 31
0.0
  0
LINE
  8
DEFAULT
  6
CONTINUOUS
 62
         7
  5
281
 10
17.1310532114
 20
5.9711594284
 30
0.0
 11
17.1310532114
 21
6.1591594284
 31
0.0
  0
LINE
  8
DEFAULT
  6
CONTINUOUS
 62
         7
  5
282
 10
12.8206229958
 20
5.9711594284
 30
0.0
 11
12.8206229958
 21
6.1591594284
 31
0.0
  0
LINE
  8
DEFAULT
  6
CONTINUOUS
 62
         7
  5
283
 10
12.8205139815
 20
6.1311594284
 30
0.0
 11
12.8205139815
 21
6.1591594284
 31
0.0
  0
LINE
  8
DEFAULT
  6
CONTINUOUS
 62
         7
  5
284
 10
12.8205139815
 20
6.1311594284
 30
0.0
 11
12.8206229958
 21
6.1311594284
 31
0.0
  0
ENDBLK
  8
DEFAULT
  6
CONTINUOUS
 62
         7
  5
285
  0
BLOCK
  8
0
 62
         1
 48
0.0
  5
3B5
  2
*X7
 70
         1
 10
0.0
 20
0.0
 30
0.0
  3
*X7
  0
INSERT
  8
0
 62
         0
 48
0.0
  5
3B6
  2
*X8
 10
0.0
 20
0.0
 30
0.0
  0
ENDBLK
  8
0
 62
         0
 48
0.0
  5
3B7
  0
BLOCK
  8
0
 62
         1
 48
0.0
  5
289
  2
*X8
 70
         1
 10
0.0
 20
0.0
 30
0.0
  3
*X8
  0
LINE
  8
DEFAULT
  6
CONTINUOUS
 62
         7
  5
28A
 10
23.4317105227
 20
6.2211594284
 30
0.0
 11
23.4317105227
 21
6.1591594284
 31
0.0
  0
LINE
  8
DEFAULT
  6
CONTINUOUS
 62
         7
  5
28B
 10
22.4217105227
 20
6.2211594284
 30
0.0
 11
22.4217105227
 21
6.1591594284
 31
0.0
  0
LINE
  8
DEFAULT
  6
CONTINUOUS
 62
         7
  5
28C
 10
22.4217105227
 20
6.2211594284
 30
0.0
 11
22.5157105227
 21
6.2211594284
 31
0.0
  0
LINE
  8
DEFAULT
  6
CONTINUOUS
 62
         7
  5
28D
 10
23.3377105227
 20
6.2211594284
 30
0.0
 11
23.3377105227
 21
6.3151594284
 31
0.0
  0
LINE
  8
DEFAULT
  6
CONTINUOUS
 62
         7
  5
28E
 10
22.4217105227
 20
6.4091594284
 30
0.0
 11
22.4267105227
 21
6.4091594284
 31
0.0
  0
LINE
  8
DEFAULT
  6
CONTINUOUS
 62
         7
  5
28F
 10
23.4267105227
 20
6.4091594284
 30
0.0
 11
23.4317105227
 21
6.4091594284
 31
0.0
  0
LINE
  8
DEFAULT
  6
CONTINUOUS
 62
         7
  5
290
 10
22.5157105227
 20
6.2211594284
 30
0.0
 11
22.5157105227
 21
6.3151594284
 31
0.0
  0
LINE
  8
DEFAULT
  6
CONTINUOUS
 62
         7
  5
291
 10
23.4317105227
 20
6.3151594284
 30
0.0
 11
23.3377105227
 21
6.3151594284
 31
0.0
  0
LINE
  8
DEFAULT
  6
CONTINUOUS
 62
         7
  5
292
 10
23.4317105227
 20
6.3151594284
 30
0.0
 11
23.4317105227
 21
6.4091594284
 31
0.0
  0
LINE
  8
DEFAULT
  6
CONTINUOUS
 62
         7
  5
293
 10
22.5157105227
 20
6.3151594284
 30
0.0
 11
22.4217105227
 21
6.3151594284
 31
0.0
  0
LINE
  8
DEFAULT
  6
CONTINUOUS
 62
         7
  5
294
 10
22.4217105227
 20
6.3151594284
 30
0.0
 11
22.4217105227
 21
6.4091594284
 31
0.0
  0
LINE
  8
DEFAULT
  6
CONTINUOUS
 62
         7
  5
295
 10
24.5716675
 20
6.1591594284
 30
0.0
 11
24.5717105227
 21
6.1591594284
 31
0.0
  0
LINE
  8
DEFAULT
  6
CONTINUOUS
 62
         7
  5
296
 10
23.4317105227
 20
6.4091594284
 30
0.0
 11
24.5717105227
 21
6.4091594284
 31
0.0
  0
LINE
  8
DEFAULT
  6
CONTINUOUS
 62
         7
  5
297
 10
21.2817105227
 20
6.4091594284
 30
0.0
 11
22.4217105227
 21
6.4091594284
 31
0.0
  0
LINE
  8
DEFAULT
  6
CONTINUOUS
 62
         7
  5
298
 10
24.5717105227
 20
6.4091594284
 30
0.0
 11
24.5717105227
 21
6.1591594284
 31
0.0
  0
LINE
  8
DEFAULT
  6
CONTINUOUS
 62
         7
  5
299
 10
21.2817105227
 20
6.4091594284
 30
0.0
 11
21.2817105227
 21
6.1591594284
 31
0.0
  0
LINE
  8
DEFAULT
  6
CONTINUOUS
 62
         7
  5
29A
 10
23.3377105227
 20
6.2871594284
 30
0.0
 11
23.3017105227
 21
6.2871594284
 31
0.0
  0
LINE
  8
DEFAULT
  6
CONTINUOUS
 62
         7
  5
29B
 10
22.5517105227
 20
6.2871594284
 30
0.0
 11
22.5157105227
 21
6.2871594284
 31
0.0
  0
LINE
  8
DEFAULT
  6
CONTINUOUS
 62
         7
  5
29C
 10
23.3377105227
 20
6.2211594284
 30
0.0
 11
23.4317105227
 21
6.2211594284
 31
0.0
  0
POLYLINE
  8
DEFAULT
  6
CONTINUOUS
 62
         7
  5
29D
 66
         1
 10
0.0
 20
0.0
 30
0.0
 70
         4
  0
VERTEX
  8
DEFAULT
  6
CONTINUOUS
 62
         7
  5
29E
 10
21.5817105227
 20
5.8532256717
 30
0.0
 70
         8
  0
VERTEX
  8
DEFAULT
  6
CONTINUOUS
 62
         7
  5
29F
 10
21.6319360644
 20
5.862879625
 30
0.0
 70
         8
  0
VERTEX
  8
DEFAULT
  6
CONTINUOUS
 62
         7
  5
2A0
 10
21.6630492672
 20
5.8725335782
 30
0.0
 70
         8
  0
SEQEND
  8
DEFAULT
  6
CONTINUOUS
 62
         7
  5
2A1
  0
LINE
  8
DEFAULT
  6
CONTINUOUS
 62
         7
  5
2A2
 10
21.6417105227
 20
5.8913378269
 30
0.0
 11
21.6417105227
 21
5.9547553581
 31
0.0
  0
POLYLINE
  8
DEFAULT
  6
CONTINUOUS
 62
         7
  5
2A3
 66
         1
 10
0.0
 20
0.0
 30
0.0
 70
         4
  0
VERTEX
  8
DEFAULT
  6
CONTINUOUS
 62
         7
  5
2A4
 10
21.6363686831
 20
5.9513923362
 30
0.0
 70
         8
  0
VERTEX
  8
DEFAULT
  6
CONTINUOUS
 62
         7
  5
2A5
 10
21.637804184
 20
5.9522999372
 30
0.0
 70
         8
  0
VERTEX
  8
DEFAULT
  6
CONTINUOUS
 62
         7
  5
2A6
 10
21.6391540824
 20
5.9531513567
 30
0.0
 70
         8
  0
VERTEX
  8
DEFAULT
  6
CONTINUOUS
 62
         7
  5
2A7
 10
21.6403385229
 20
5.9538958245
 30
0.0
 70
         8
  0
VERTEX
  8
DEFAULT
  6
CONTINUOUS
 62
         7
  5
2A8
 10
21.6415424628
 20
5.9546503778
 30
0.0
 70
         8
  0
VERTEX
  8
DEFAULT
  6
CONTINUOUS
 62
         7
  5
2A9
 10
21.6425358757
 20
5.9552715526
 30
0.0
 70
         8
  0
VERTEX
  8
DEFAULT
  6
CONTINUOUS
 62
         7
  5
2AA
 10
21.6435259772
 20
5.9558893995
 30
0.0
 70
         8
  0
VERTEX
  8
DEFAULT
  6
CONTINUOUS
 62
         7
  5
2AB
 10
21.6444709363
 20
5.9564779331
 30
0.0
 70
         8
  0
VERTEX
  8
DEFAULT
  6
CONTINUOUS
 62
         7
  5
2AC
 10
21.6454174138
 20
5.9570663404
 30
0.0
 70
         8
  0
VERTEX
  8
DEFAULT
  6
CONTINUOUS
 62
         7
  5
2AD
 10
21.6468176473
 20
5.957934963
 30
0.0
 70
         8
  0
VERTEX
  8
DEFAULT
  6
CONTINUOUS
 62
         7
  5
2AE
 10
21.6482172488
 20
5.9588010593
 30
0.0
 70
         8
  0
VERTEX
  8
DEFAULT
  6
CONTINUOUS
 62
         7
  5
2AF
 10
21.6501094793
 20
5.9599687891
 30
0.0
 70
         8
  0
VERTEX
  8
DEFAULT
  6
CONTINUOUS
 62
         7
  5
2B0
 10
21.6520105245
 20
5.9611384497
 30
0.0
 70
         8
  0
VERTEX
  8
DEFAULT
  6
CONTINUOUS
 62
         7
  5
2B1
 10
21.6544281189
 20
5.9626212657
 30
0.0
 70
         8
  0
VERTEX
  8
DEFAULT
  6
CONTINUOUS
 62
         7
  5
2B2
 10
21.6568120207
 20
5.9640785116
 30
0.0
 70
         8
  0
VERTEX
  8
DEFAULT
  6
CONTINUOUS
 62
         7
  5
2B3
 10
21.6596330149
 20
5.9657967601
 30
0.0
 70
         8
  0
VERTEX
  8
DEFAULT
  6
CONTINUOUS
 62
         7
  5
2B4
 10
21.6626361234
 20
5.9676212451
 30
0.0
 70
         8
  0
SEQEND
  8
DEFAULT
  6
CONTINUOUS
 62
         7
  5
2B5
  0
LINE
  8
DEFAULT
  6
CONTINUOUS
 62
         7
  5
2B6
 10
21.4267105227
 20
6.4101594284
 30
0.0
 11
21.4275366097
 21
6.4091594284
 31
0.0
  0
POLYLINE
  8
DEFAULT
  6
CONTINUOUS
 62
         7
  5
2B7
 66
         1
 10
0.0
 20
0.0
 30
0.0
 70
         4
  0
VERTEX
  8
DEFAULT
  6
CONTINUOUS
 62
         7
  5
2B8
 10
21.5272746865
 20
5.9453655779
 30
0.0
 70
         8
  0
VERTEX
  8
DEFAULT
  6
CONTINUOUS
 62
         7
  5
2B9
 10
21.5258510044
 20
5.9444614533
 30
0.0
 70
         8
  0
VERTEX
  8
DEFAULT
  6
CONTINUOUS
 62
         7
  5
2BA
 10
21.524512091
 20
5.943613085
 30
0.0
 70
         8
  0
VERTEX
  8
DEFAULT
  6
CONTINUOUS
 62
         7
  5
2BB
 10
21.5233407954
 20
5.9428733333
 30
0.0
 70
         8
  0
VERTEX
  8
DEFAULT
  6
CONTINUOUS
 62
         7
  5
2BC
 10
21.5221501786
 20
5.9421233978
 30
0.0
 70
         8
  0
VERTEX
  8
DEFAULT
  6
CONTINUOUS
 62
         7
  5
2BD
 10
21.5211714961
 20
5.9415082841
 30
0.0
 70
         8
  0
VERTEX
  8
DEFAULT
  6
CONTINUOUS
 62
         7
  5
2BE
 10
21.5201962796
 20
5.9408965162
 30
0.0
 70
         8
  0
VERTEX
  8
DEFAULT
  6
CONTINUOUS
 62
         7
  5
2BF
 10
21.5192621072
 20
5.9403115659
 30
0.0
 70
         8
  0
VERTEX
  8
DEFAULT
  6
CONTINUOUS
 62
         7
  5
2C0
 10
21.5183265903
 20
5.9397267799
 30
0.0
 70
         8
  0
VERTEX
  8
DEFAULT
  6
CONTINUOUS
 62
         7
  5
2C1
 10
21.5169404331
 20
5.9388620678
 30
0.0
 70
         8
  0
VERTEX
  8
DEFAULT
  6
CONTINUOUS
 62
         7
  5
2C2
 10
21.5155546697
 20
5.9379996156
 30
0.0
 70
         8
  0
VERTEX
  8
DEFAULT
  6
CONTINUOUS
 62
         7
  5
2C3
 10
21.5136833168
 20
5.9368379825
 30
0.0
 70
         8
  0
VERTEX
  8
DEFAULT
  6
CONTINUOUS
 62
         7
  5
2C4
 10
21.5118026915
 20
5.9356739122
 30
0.0
 70
         8
  0
VERTEX
  8
DEFAULT
  6
CONTINUOUS
 62
         7
  5
2C5
 10
21.5094135122
 20
5.9341994708
 30
0.0
 70
         8
  0
VERTEX
  8
DEFAULT
  6
CONTINUOUS
 62
         7
  5
2C6
 10
21.5070567105
 20
5.9327496698
 30
0.0
 70
         8
  0
VERTEX
  8
DEFAULT
  6
CONTINUOUS
 62
         7
  5
2C7
 10
21.5042703369
 20
5.9310415003
 30
0.0
 70
         8
  0
VERTEX
  8
DEFAULT
  6
CONTINUOUS
 62
         7
  5
2C8
 10
21.5013030681
 20
5.9292268883
 30
0.0
 70
         8
  0
SEQEND
  8
DEFAULT
  6
CONTINUOUS
 62
         7
  5
2C9
  0
LINE
  8
DEFAULT
  6
CONTINUOUS
 62
         7
  5
2CA
 10
21.6417105227
 20
5.8101594284
 30
0.0
 11
21.6417105227
 21
5.8594743609
 31
0.0
  0
POLYLINE
  8
DEFAULT
  6
CONTINUOUS
 62
         7
  5
2CB
 66
         1
 10
0.0
 20
0.0
 30
0.0
 70
         4
  0
VERTEX
  8
DEFAULT
  6
CONTINUOUS
 62
         7
  5
2CC
 10
21.6368793078
 20
5.8564792714
 30
0.0
 70
         8
  0
VERTEX
  8
DEFAULT
  6
CONTINUOUS
 62
         7
  5
2CD
 10
21.6432259791
 20
5.8604271215
 30
0.0
 70
         8
  0
VERTEX
  8
DEFAULT
  6
CONTINUOUS
 62
         7
  5
2CE
 10
21.6491309875
 20
5.864074644
 30
0.0
 70
         8
  0
VERTEX
  8
DEFAULT
  6
CONTINUOUS
 62
         7
  5
2CF
 10
21.6558234319
 20
5.8681587597
 30
0.0
 70
         8
  0
VERTEX
  8
DEFAULT
  6
CONTINUOUS
 62
         7
  5
2D0
 10
21.663056301
 20
5.8725378116
 30
0.0
 70
         8
  0
SEQEND
  8
DEFAULT
  6
CONTINUOUS
 62
         7
  5
2D1
  0
LINE
  8
DEFAULT
  6
CONTINUOUS
 62
         7
  5
2D2
 10
21.7358844357
 20
6.4091594284
 30
0.0
 11
21.7367105227
 21
6.4101594284
 31
0.0
  0
POLYLINE
  8
DEFAULT
  6
CONTINUOUS
 62
         7
  5
2D3
 66
         1
 10
0.0
 20
0.0
 30
0.0
 70
         4
  0
VERTEX
  8
DEFAULT
  6
CONTINUOUS
 62
         7
  5
2D4
 10
21.6626426533
 20
5.8813261408
 30
0.0
 70
         8
  0
VERTEX
  8
DEFAULT
  6
CONTINUOUS
 62
         7
  5
2D5
 10
21.6566528613
 20
5.8849702026
 30
0.0
 70
         8
  0
VERTEX
  8
DEFAULT
  6
CONTINUOUS
 62
         7
  5
2D6
 10
21.6511052154
 20
5.8883691336
 30
0.0
 70
         8
  0
VERTEX
  8
DEFAULT
  6
CONTINUOUS
 62
         7
  5
2D7
 10
21.6464744141
 20
5.8912371266
 30
0.0
 70
         8
  0
VERTEX
  8
DEFAULT
  6
CONTINUOUS
 62
         7
  5
2D8
 10
21.6416991923
 20
5.8942177989
 30
0.0
 70
         8
  0
SEQEND
  8
DEFAULT
  6
CONTINUOUS
 62
         7
  5
2D9
  0
POLYLINE
  8
DEFAULT
  6
CONTINUOUS
 62
         7
  5
2DA
 66
         1
 10
0.0
 20
0.0
 30
0.0
 70
         4
  0
VERTEX
  8
DEFAULT
  6
CONTINUOUS
 62
         7
  5
2DB
 10
21.5817105227
 20
5.8676594284
 30
0.0
 70
         8
  0
VERTEX
  8
DEFAULT
  6
CONTINUOUS
 62
         7
  5
2DC
 10
21.6078583505
 20
5.874359149
 30
0.0
 70
         8
  0
VERTEX
  8
DEFAULT
  6
CONTINUOUS
 62
         7
  5
2DD
 10
21.6280397545
 20
5.8808185376
 30
0.0
 70
         8
  0
VERTEX
  8
DEFAULT
  6
CONTINUOUS
 62
         7
  5
2DE
 10
21.6379503307
 20
5.8859861186
 30
0.0
 70
         8
  0
VERTEX
  8
DEFAULT
  6
CONTINUOUS
 62
         7
  5
2DF
 10
21.6416898522
 20
5.8912475221
 30
0.0
 70
         8
  0
SEQEND
  8
DEFAULT
  6
CONTINUOUS
 62
         7
  5
2E0
  0
POLYLINE
  8
DEFAULT
  6
CONTINUOUS
 62
         7
  5
2E1
 66
         1
 10
0.0
 20
0.0
 30
0.0
 70
         4
  0
VERTEX
  8
DEFAULT
  6
CONTINUOUS
 62
         7
  5
2E2
 10
21.527078961
 20
5.9452175914
 30
0.0
 70
         8
  0
VERTEX
  8
DEFAULT
  6
CONTINUOUS
 62
         7
  5
2E3
 10
21.5294113714
 20
5.9465324436
 30
0.0
 70
         8
  0
VERTEX
  8
DEFAULT
  6
CONTINUOUS
 62
         7
  5
2E4
 10
21.5321494446
 20
5.9478464693
 30
0.0
 70
         8
  0
VERTEX
  8
DEFAULT
  6
CONTINUOUS
 62
         7
  5
2E5
 10
21.5515423749
 20
5.9545340685
 30
0.0
 70
         8
  0
VERTEX
  8
DEFAULT
  6
CONTINUOUS
 62
         7
  5
2E6
 10
21.5766452151
 20
5.9612185617
 30
0.0
 70
         8
  0
VERTEX
  8
DEFAULT
  6
CONTINUOUS
 62
         7
  5
2E7
 10
21.5959322337
 20
5.9661231431
 30
0.0
 70
         8
  0
VERTEX
  8
DEFAULT
  6
CONTINUOUS
 62
         7
  5
2E8
 10
21.6138060601
 20
5.9710339243
 30
0.0
 70
         8
  0
SEQEND
  8
DEFAULT
  6
CONTINUOUS
 62
         7
  5
2E9
  0
POLYLINE
  8
DEFAULT
  6
CONTINUOUS
 62
         7
  5
2EA
 66
         1
 10
0.0
 20
0.0
 30
0.0
 70
         4
  0
VERTEX
  8
DEFAULT
  6
CONTINUOUS
 62
         7
  5
2EB
 10
21.636832344
 20
5.9515778686
 30
0.0
 70
         8
  0
VERTEX
  8
DEFAULT
  6
CONTINUOUS
 62
         7
  5
2EC
 10
21.6305293899
 20
5.9483119922
 30
0.0
 70
         8
  0
VERTEX
  8
DEFAULT
  6
CONTINUOUS
 62
         7
  5
2ED
 10
21.6219724688
 20
5.9450469615
 30
0.0
 70
         8
  0
VERTEX
  8
DEFAULT
  6
CONTINUOUS
 62
         7
  5
2EE
 10
21.5988984536
 20
5.938349342
 30
0.0
 70
         8
  0
VERTEX
  8
DEFAULT
  6
CONTINUOUS
 62
         7
  5
2EF
 10
21.5725652701
 20
5.9316455516
 30
0.0
 70
         8
  0
VERTEX
  8
DEFAULT
  6
CONTINUOUS
 62
         7
  5
2F0
 10
21.5480980076
 20
5.9249419037
 30
0.0
 70
         8
  0
VERTEX
  8
DEFAULT
  6
CONTINUOUS
 62
         7
  5
2F1
 10
21.5299890598
 20
5.9182370008
 30
0.0
 70
         8
  0
VERTEX
  8
DEFAULT
  6
CONTINUOUS
 62
         7
  5
2F2
 10
21.5238634986
 20
5.914215312
 30
0.0
 70
         8
  0
VERTEX
  8
DEFAULT
  6
CONTINUOUS
 62
         7
  5
2F3
 10
21.5217377997
 20
5.9101969437
 30
0.0
 70
         8
  0
SEQEND
  8
DEFAULT
  6
CONTINUOUS
 62
         7
  5
2F4
  0
POLYLINE
  8
DEFAULT
  6
CONTINUOUS
 62
         7
  5
2F5
 66
         1
 10
0.0
 20
0.0
 30
0.0
 70
         4
  0
VERTEX
  8
DEFAULT
  6
CONTINUOUS
 62
         7
  5
2F6
 10
21.636747164
 20
5.8566546571
 30
0.0
 70
         8
  0
VERTEX
  8
DEFAULT
  6
CONTINUOUS
 62
         7
  5
2F7
 10
21.6317636391
 20
5.8539547371
 30
0.0
 70
         8
  0
VERTEX
  8
DEFAULT
  6
CONTINUOUS
 62
         7
  5
2F8
 10
21.6253253233
 20
5.8512740253
 30
0.0
 70
         8
  0
VERTEX
  8
DEFAULT
  6
CONTINUOUS
 62
         7
  5
2F9
 10
21.6060056123
 20
5.8451758159
 30
0.0
 70
         8
  0
VERTEX
  8
DEFAULT
  6
CONTINUOUS
 62
         7
  5
2FA
 10
21.5817105227
 20
5.838791915
 30
0.0
 70
         8
  0
SEQEND
  8
DEFAULT
  6
CONTINUOUS
 62
         7
  5
2FB
  0
LINE
  8
DEFAULT
  6
CONTINUOUS
 62
         7
  5
2FC
 10
21.5217105227
 20
5.9103209832
 30
0.0
 11
21.5217105227
 21
5.8101594284
 31
0.0
  0
LINE
  8
DEFAULT
  6
CONTINUOUS
 62
         7
  5
2FD
 10
21.5817105227
 20
5.838791915
 30
0.0
 11
21.5817105227
 21
5.8532256717
 31
0.0
  0
LINE
  8
DEFAULT
  6
CONTINUOUS
 62
         7
  5
2FE
 10
21.5817105227
 20
5.8532256717
 30
0.0
 11
21.5817105227
 21
5.8676594284
 31
0.0
  0
POLYLINE
  8
DEFAULT
  6
CONTINUOUS
 62
         7
  5
2FF
 66
         1
 10
0.0
 20
0.0
 30
0.0
 70
         4
  0
VERTEX
  8
DEFAULT
  6
CONTINUOUS
 62
         7
  5
300
 10
21.5817105227
 20
5.8532256717
 30
0.0
 70
         8
  0
VERTEX
  8
DEFAULT
  6
CONTINUOUS
 62
         7
  5
301
 10
21.6342671597
 20
5.8634042431
 30
0.0
 70
         8
  0
VERTEX
  8
DEFAULT
  6
CONTINUOUS
 62
         7
  5
302
 10
21.6645793952
 20
5.8735828146
 30
0.0
 70
         8
  0
VERTEX
  8
DEFAULT
  6
CONTINUOUS
 62
         7
  5
303
 10
21.6664172225
 20
5.8774582654
 30
0.0
 70
         8
  0
VERTEX
  8
DEFAULT
  6
CONTINUOUS
 62
         7
  5
304
 10
21.6626301494
 20
5.8813337161
 30
0.0
 70
         8
  0
SEQEND
  8
DEFAULT
  6
CONTINUOUS
 62
         7
  5
305
  0
POLYLINE
  8
DEFAULT
  6
CONTINUOUS
 62
         7
  5
306
 66
         1
 10
0.0
 20
0.0
 30
0.0
 70
         4
  0
VERTEX
  8
DEFAULT
  6
CONTINUOUS
 62
         7
  5
307
 10
21.5013184115
 20
5.9197150866
 30
0.0
 70
         8
  0
VERTEX
  8
DEFAULT
  6
CONTINUOUS
 62
         7
  5
308
 10
21.498679804
 20
5.9271846649
 30
0.0
 70
         8
  0
VERTEX
  8
DEFAULT
  6
CONTINUOUS
 62
         7
  5
309
 10
21.5152548467
 20
5.9346542431
 30
0.0
 70
         8
  0
VERTEX
  8
DEFAULT
  6
CONTINUOUS
 62
         7
  5
30A
 10
21.5629532761
 20
5.9448328146
 30
0.0
 70
         8
  0
VERTEX
  8
DEFAULT
  6
CONTINUOUS
 62
         7
  5
30B
 10
21.6185906405
 20
5.955011386
 30
0.0
 70
         8
  0
VERTEX
  8
DEFAULT
  6
CONTINUOUS
 62
         7
  5
30C
 10
21.6518613296
 20
5.9630855236
 30
0.0
 70
         8
  0
VERTEX
  8
DEFAULT
  6
CONTINUOUS
 62
         7
  5
30D
 10
21.6663041108
 20
5.9711596613
 30
0.0
 70
         8
  0
SEQEND
  8
DEFAULT
  6
CONTINUOUS
 62
         7
  5
30E
  0
LINE
  8
DEFAULT
  6
CONTINUOUS
 62
         7
  5
30F
 10
21.6067105227
 20
6.4091594284
 30
0.0
 11
21.6067105227
 21
6.4101594284
 31
0.0
  0
LINE
  8
DEFAULT
  6
CONTINUOUS
 62
         7
  5
310
 10
21.5567105227
 20
6.4101594284
 30
0.0
 11
21.5567105227
 21
6.4091594284
 31
0.0
  0
LINE
  8
DEFAULT
  6
CONTINUOUS
 62
         7
  5
311
 10
21.6417105227
 20
5.8101594284
 30
0.0
 11
21.5217105227
 21
5.8101594284
 31
0.0
  0
LINE
  8
DEFAULT
  6
CONTINUOUS
 62
         7
  5
312
 10
21.5567105227
 20
6.4101594284
 30
0.0
 11
21.4267105227
 21
6.4101594284
 31
0.0
  0
LINE
  8
DEFAULT
  6
CONTINUOUS
 62
         7
  5
313
 10
21.7367105227
 20
6.4101594284
 30
0.0
 11
21.6067105227
 21
6.4101594284
 31
0.0
  0
LINE
  8
DEFAULT
  6
CONTINUOUS
 62
         7
  5
314
 10
21.5217105227
 20
5.9711594284
 30
0.0
 11
21.5217105227
 21
5.9418473315
 31
0.0
  0
POLYLINE
  8
DEFAULT
  6
CONTINUOUS
 62
         7
  5
315
 66
         1
 10
0.0
 20
0.0
 30
0.0
 70
         4
  0
VERTEX
  8
DEFAULT
  6
CONTINUOUS
 62
         7
  5
316
 10
21.5013109495
 20
5.9197196405
 30
0.0
 70
         8
  0
VERTEX
  8
DEFAULT
  6
CONTINUOUS
 62
         7
  5
317
 10
21.5072385938
 20
5.9160895462
 30
0.0
 70
         8
  0
VERTEX
  8
DEFAULT
  6
CONTINUOUS
 62
         7
  5
318
 10
21.5127253553
 20
5.9127069874
 30
0.0
 70
         8
  0
VERTEX
  8
DEFAULT
  6
CONTINUOUS
 62
         7
  5
319
 10
21.5171614587
 20
5.9099443959
 30
0.0
 70
         8
  0
VERTEX
  8
DEFAULT
  6
CONTINUOUS
 62
         7
  5
31A
 10
21.52172426
 20
5.9070820582
 30
0.0
 70
         8
  0
SEQEND
  8
DEFAULT
  6
CONTINUOUS
 62
         7
  5
31B
  0
POLYLINE
  8
DEFAULT
  6
CONTINUOUS
 62
         7
  5
31C
 66
         1
 10
0.0
 20
0.0
 30
0.0
 70
         4
  0
VERTEX
  8
DEFAULT
  6
CONTINUOUS
 62
         7
  5
31D
 10
24.2164257791
 20
5.8974133498
 30
0.0
 70
         8
  0
VERTEX
  8
DEFAULT
  6
CONTINUOUS
 62
         7
  5
31E
 10
24.2275862484
 20
5.9025380031
 30
0.0
 70
         8
  0
VERTEX
  8
DEFAULT
  6
CONTINUOUS
 62
         7
  5
31F
 10
24.243699734
 20
5.9076516615
 30
0.0
 70
         8
  0
VERTEX
  8
DEFAULT
  6
CONTINUOUS
 62
         7
  5
320
 10
24.2691633863
 20
5.9143429214
 30
0.0
 70
         8
  0
VERTEX
  8
DEFAULT
  6
CONTINUOUS
 62
         7
  5
321
 10
24.2950613945
 20
5.9210507108
 30
0.0
 70
         8
  0
VERTEX
  8
DEFAULT
  6
CONTINUOUS
 62
         7
  5
322
 10
24.3164480481
 20
5.9277531489
 30
0.0
 70
         8
  0
VERTEX
  8
DEFAULT
  6
CONTINUOUS
 62
         7
  5
323
 10
24.3293617829
 20
5.9344535385
 30
0.0
 70
         8
  0
VERTEX
  8
DEFAULT
  6
CONTINUOUS
 62
         7
  5
324
 10
24.3311330554
 20
5.9366007223
 30
0.0
 70
         8
  0
VERTEX
  8
DEFAULT
  6
CONTINUOUS
 62
         7
  5
325
 10
24.3316917541
 20
5.9387495049
 30
0.0
 70
         8
  0
SEQEND
  8
DEFAULT
  6
CONTINUOUS
 62
         7
  5
326
  0
POLYLINE
  8
DEFAULT
  6
CONTINUOUS
 62
         7
  5
327
 66
         1
 10
0.0
 20
0.0
 30
0.0
 70
         4
  0
VERTEX
  8
DEFAULT
  6
CONTINUOUS
 62
         7
  5
328
 10
24.2335693107
 20
5.9710482323
 30
0.0
 70
         8
  0
VERTEX
  8
DEFAULT
  6
CONTINUOUS
 62
         7
  5
329
 10
24.2181435951
 20
5.9647299358
 30
0.0
 70
         8
  0
VERTEX
  8
DEFAULT
  6
CONTINUOUS
 62
         7
  5
32A
 10
24.2117333236
 20
5.9584112709
 30
0.0
 70
         8
  0
VERTEX
  8
DEFAULT
  6
CONTINUOUS
 62
         7
  5
32B
 10
24.2116819791
 20
5.9580432476
 30
0.0
 70
         8
  0
VERTEX
  8
DEFAULT
  6
CONTINUOUS
 62
         7
  5
32C
 10
24.211668049
 20
5.957675267
 30
0.0
 70
         8
  0
SEQEND
  8
DEFAULT
  6
CONTINUOUS
 62
         7
  5
32D
  0
POLYLINE
  8
DEFAULT
  6
CONTINUOUS
 62
         7
  5
32E
 66
         1
 10
0.0
 20
0.0
 30
0.0
 70
         4
  0
VERTEX
  8
DEFAULT
  6
CONTINUOUS
 62
         7
  5
32F
 10
24.3263686311
 20
5.9037211875
 30
0.0
 70
         8
  0
VERTEX
  8
DEFAULT
  6
CONTINUOUS
 62
         7
  5
330
 10
24.3119657751
 20
5.897600452
 30
0.0
 70
         8
  0
VERTEX
  8
DEFAULT
  6
CONTINUOUS
 62
         7
  5
331
 10
24.2912130789
 20
5.8914689099
 30
0.0
 70
         8
  0
VERTEX
  8
DEFAULT
  6
CONTINUOUS
 62
         7
  5
332
 10
24.2650927684
 20
5.8847538393
 30
0.0
 70
         8
  0
VERTEX
  8
DEFAULT
  6
CONTINUOUS
 62
         7
  5
333
 10
24.2401749164
 20
5.8780477129
 30
0.0
 70
         8
  0
VERTEX
  8
DEFAULT
  6
CONTINUOUS
 62
         7
  5
334
 10
24.221302428
 20
5.8713809822
 30
0.0
 70
         8
  0
VERTEX
  8
DEFAULT
  6
CONTINUOUS
 62
         7
  5
335
 10
24.2120650558
 20
5.8647029168
 30
0.0
 70
         8
  0
VERTEX
  8
DEFAULT
  6
CONTINUOUS
 62
         7
  5
336
 10
24.2117124487
 20
5.8636961149
 30
0.0
 70
         8
  0
VERTEX
  8
DEFAULT
  6
CONTINUOUS
 62
         7
  5
337
 10
24.2116431819
 20
5.8626881154
 30
0.0
 70
         8
  0
SEQEND
  8
DEFAULT
  6
CONTINUOUS
 62
         7
  5
338
  0
LINE
  8
DEFAULT
  6
CONTINUOUS
 62
         7
  5
339
 10
24.2117105227
 20
5.8626407923
 30
0.0
 11
24.2117105227
 21
5.8101594284
 31
0.0
  0
LINE
  8
DEFAULT
  6
CONTINUOUS
 62
         7
  5
33A
 10
24.2467105227
 20
6.4091594284
 30
0.0
 11
24.2467105227
 21
6.4101594284
 31
0.0
  0
POLYLINE
  8
DEFAULT
  6
CONTINUOUS
 62
         7
  5
33B
 66
         1
 10
0.0
 20
0.0
 30
0.0
 70
         4
  0
VERTEX
  8
DEFAULT
  6
CONTINUOUS
 62
         7
  5
33C
 10
24.1903721511
 20
5.8725333539
 30
0.0
 70
         8
  0
VERTEX
  8
DEFAULT
  6
CONTINUOUS
 62
         7
  5
33D
 10
24.1895529281
 20
5.8730580842
 30
0.0
 70
         8
  0
VERTEX
  8
DEFAULT
  6
CONTINUOUS
 62
         7
  5
33E
 10
24.1888416502
 20
5.8735828146
 30
0.0
 70
         8
  0
VERTEX
  8
DEFAULT
  6
CONTINUOUS
 62
         7
  5
33F
 10
24.1957639817
 20
5.883761386
 30
0.0
 70
         8
  0
VERTEX
  8
DEFAULT
  6
CONTINUOUS
 62
         7
  5
340
 10
24.2348304049
 20
5.8939399574
 30
0.0
 70
         8
  0
VERTEX
  8
DEFAULT
  6
CONTINUOUS
 62
         7
  5
341
 10
24.2904677693
 20
5.9041185289
 30
0.0
 70
         8
  0
VERTEX
  8
DEFAULT
  6
CONTINUOUS
 62
         7
  5
342
 10
24.3381661987
 20
5.9142971003
 30
0.0
 70
         8
  0
VERTEX
  8
DEFAULT
  6
CONTINUOUS
 62
         7
  5
343
 10
24.3547393129
 20
5.921764612
 30
0.0
 70
         8
  0
VERTEX
  8
DEFAULT
  6
CONTINUOUS
 62
         7
  5
344
 10
24.3521094067
 20
5.9292321238
 30
0.0
 70
         8
  0
SEQEND
  8
DEFAULT
  6
CONTINUOUS
 62
         7
  5
345
  0
POLYLINE
  8
DEFAULT
  6
CONTINUOUS
 62
         7
  5
346
 66
         1
 10
0.0
 20
0.0
 30
0.0
 70
         4
  0
VERTEX
  8
DEFAULT
  6
CONTINUOUS
 62
         7
  5
347
 10
24.190788295
 20
5.9676192021
 30
0.0
 70
         8
  0
VERTEX
  8
DEFAULT
  6
CONTINUOUS
 62
         7
  5
348
 10
24.188399403
 20
5.9693894317
 30
0.0
 70
         8
  0
VERTEX
  8
DEFAULT
  6
CONTINUOUS
 62
         7
  5
349
 10
24.1871169346
 20
5.9711596613
 30
0.0
 70
         8
  0
SEQEND
  8
DEFAULT
  6
CONTINUOUS
 62
         7
  5
34A
  0
LINE
  8
DEFAULT
  6
CONTINUOUS
 62
         7
  5
34B
 10
24.3317105227
 20
5.8101594284
 30
0.0
 11
24.2117105227
 21
5.8101594284
 31
0.0
  0
LINE
  8
DEFAULT
  6
CONTINUOUS
 62
         7
  5
34C
 10
24.4267105227
 20
6.4101594284
 30
0.0
 11
24.2967105227
 21
6.4101594284
 31
0.0
  0
LINE
  8
DEFAULT
  6
CONTINUOUS
 62
         7
  5
34D
 10
24.2967105227
 20
6.4101594284
 30
0.0
 11
24.2967105227
 21
6.4091594284
 31
0.0
  0
LINE
  8
DEFAULT
  6
CONTINUOUS
 62
         7
  5
34E
 10
24.2467105227
 20
6.4101594284
 30
0.0
 11
24.1167105227
 21
6.4101594284
 31
0.0
  0
LINE
  8
DEFAULT
  6
CONTINUOUS
 62
         7
  5
34F
 10
24.2117105227
 20
5.957616877
 30
0.0
 11
24.2117105227
 21
5.894195989
 31
0.0
  0
POLYLINE
  8
DEFAULT
  6
CONTINUOUS
 62
         7
  5
350
 66
         1
 10
0.0
 20
0.0
 30
0.0
 70
         4
  0
VERTEX
  8
DEFAULT
  6
CONTINUOUS
 62
         7
  5
351
 10
24.1903647444
 20
5.8725378116
 30
0.0
 70
         8
  0
VERTEX
  8
DEFAULT
  6
CONTINUOUS
 62
         7
  5
352
 10
24.1963524984
 20
5.8689157361
 30
0.0
 70
         8
  0
VERTEX
  8
DEFAULT
  6
CONTINUOUS
 62
         7
  5
353
 10
24.201896369
 20
5.8655405506
 30
0.0
 70
         8
  0
VERTEX
  8
DEFAULT
  6
CONTINUOUS
 62
         7
  5
354
 10
24.2067284916
 20
5.8625689795
 30
0.0
 70
         8
  0
VERTEX
  8
DEFAULT
  6
CONTINUOUS
 62
         7
  5
355
 10
24.2117239019
 20
5.8594744386
 30
0.0
 70
         8
  0
SEQEND
  8
DEFAULT
  6
CONTINUOUS
 62
         7
  5
356
  0
LINE
  8
DEFAULT
  6
CONTINUOUS
 62
         7
  5
357
 10
24.3317105227
 20
5.938624289
 30
0.0
 11
24.3317105227
 21
5.9711594284
 31
0.0
  0
POLYLINE
  8
DEFAULT
  6
CONTINUOUS
 62
         7
  5
358
 66
         1
 10
0.0
 20
0.0
 30
0.0
 70
         4
  0
VERTEX
  8
DEFAULT
  6
CONTINUOUS
 62
         7
  5
359
 10
24.190784922
 20
5.9676212451
 30
0.0
 70
         8
  0
VERTEX
  8
DEFAULT
  6
CONTINUOUS
 62
         7
  5
35A
 10
24.1937879918
 20
5.9657967841
 30
0.0
 70
         8
  0
VERTEX
  8
DEFAULT
  6
CONTINUOUS
 62
         7
  5
35B
 10
24.1966090247
 20
5.9640785116
 30
0.0
 70
         8
  0
VERTEX
  8
DEFAULT
  6
CONTINUOUS
 62
         7
  5
35C
 10
24.1989930753
 20
5.9626211738
 30
0.0
 70
         8
  0
VERTEX
  8
DEFAULT
  6
CONTINUOUS
 62
         7
  5
35D
 10
24.2014105209
 20
5.9611384497
 30
0.0
 70
         8
  0
VERTEX
  8
DEFAULT
  6
CONTINUOUS
 62
         7
  5
35E
 10
24.2033111625
 20
5.9599690384
 30
0.0
 70
         8
  0
VERTEX
  8
DEFAULT
  6
CONTINUOUS
 62
         7
  5
35F
 10
24.2052037966
 20
5.9588010593
 30
0.0
 70
         8
  0
VERTEX
  8
DEFAULT
  6
CONTINUOUS
 62
         7
  5
360
 10
24.2066043783
 20
5.9579343576
 30
0.0
 70
         8
  0
VERTEX
  8
DEFAULT
  6
CONTINUOUS
 62
         7
  5
361
 10
24.2080036316
 20
5.9570663404
 30
0.0
 70
         8
  0
VERTEX
  8
DEFAULT
  6
CONTINUOUS
 62
         7
  5
362
 10
24.2092552954
 20
5.9562879636
 30
0.0
 70
         8
  0
VERTEX
  8
DEFAULT
  6
CONTINUOUS
 62
         7
  5
363
 10
24.2105108619
 20
5.9555052811
 30
0.0
 70
         8
  0
VERTEX
  8
DEFAULT
  6
CONTINUOUS
 62
         7
  5
364
 10
24.2111110052
 20
5.955130497
 30
0.0
 70
         8
  0
VERTEX
  8
DEFAULT
  6
CONTINUOUS
 62
         7
  5
365
 10
24.2117112136
 20
5.9547552105
 30
0.0
 70
         8
  0
SEQEND
  8
DEFAULT
  6
CONTINUOUS
 62
         7
  5
366
  0
LINE
  8
DEFAULT
  6
CONTINUOUS
 62
         7
  5
367
 10
24.1167105227
 20
6.4101594284
 30
0.0
 11
24.1175366097
 21
6.4091594284
 31
0.0
  0
POLYLINE
  8
DEFAULT
  6
CONTINUOUS
 62
         7
  5
368
 66
         1
 10
0.0
 20
0.0
 30
0.0
 70
         4
  0
VERTEX
  8
DEFAULT
  6
CONTINUOUS
 62
         7
  5
369
 10
24.2170509261
 20
5.8975580972
 30
0.0
 70
         8
  0
VERTEX
  8
DEFAULT
  6
CONTINUOUS
 62
         7
  5
36A
 10
24.2140459566
 20
5.8956621783
 30
0.0
 70
         8
  0
VERTEX
  8
DEFAULT
  6
CONTINUOUS
 62
         7
  5
36B
 10
24.2112192525
 20
5.8938867046
 30
0.0
 70
         8
  0
VERTEX
  8
DEFAULT
  6
CONTINUOUS
 62
         7
  5
36C
 10
24.2080987995
 20
5.8919407873
 30
0.0
 70
         8
  0
VERTEX
  8
DEFAULT
  6
CONTINUOUS
 62
         7
  5
36D
 10
24.2048974412
 20
5.889957581
 30
0.0
 70
         8
  0
VERTEX
  8
DEFAULT
  6
CONTINUOUS
 62
         7
  5
36E
 10
24.2014550389
 20
5.8878373225
 30
0.0
 70
         8
  0
VERTEX
  8
DEFAULT
  6
CONTINUOUS
 62
         7
  5
36F
 10
24.1980818404
 20
5.8857707264
 30
0.0
 70
         8
  0
VERTEX
  8
DEFAULT
  6
CONTINUOUS
 62
         7
  5
370
 10
24.1945448482
 20
5.8836145092
 30
0.0
 70
         8
  0
VERTEX
  8
DEFAULT
  6
CONTINUOUS
 62
         7
  5
371
 10
24.1907783921
 20
5.8813261408
 30
0.0
 70
         8
  0
SEQEND
  8
DEFAULT
  6
CONTINUOUS
 62
         7
  5
372
  0
LINE
  8
DEFAULT
  6
CONTINUOUS
 62
         7
  5
373
 10
24.3317105227
 20
5.8101594284
 30
0.0
 11
24.3317105227
 21
5.9070842944
 31
0.0
  0
POLYLINE
  8
DEFAULT
  6
CONTINUOUS
 62
         7
  5
374
 66
         1
 10
0.0
 20
0.0
 30
0.0
 70
         4
  0
VERTEX
  8
DEFAULT
  6
CONTINUOUS
 62
         7
  5
375
 10
24.3261372014
 20
5.9035799331
 30
0.0
 70
         8
  0
VERTEX
  8
DEFAULT
  6
CONTINUOUS
 62
         7
  5
376
 10
24.3319983796
 20
5.9072775375
 30
0.0
 70
         8
  0
VERTEX
  8
DEFAULT
  6
CONTINUOUS
 62
         7
  5
377
 10
24.3374540444
 20
5.9106956733
 30
0.0
 70
         8
  0
VERTEX
  8
DEFAULT
  6
CONTINUOUS
 62
         7
  5
378
 10
24.3444955557
 20
5.9150512466
 30
0.0
 70
         8
  0
VERTEX
  8
DEFAULT
  6
CONTINUOUS
 62
         7
  5
379
 10
24.3521100959
 20
5.9197196405
 30
0.0
 70
         8
  0
SEQEND
  8
DEFAULT
  6
CONTINUOUS
 62
         7
  5
37A
  0
LINE
  8
DEFAULT
  6
CONTINUOUS
 62
         7
  5
37B
 10
24.4258844357
 20
6.4091594284
 30
0.0
 11
24.4267105227
 21
6.4101594284
 31
0.0
  0
POLYLINE
  8
DEFAULT
  6
CONTINUOUS
 62
         7
  5
37C
 66
         1
 10
0.0
 20
0.0
 30
0.0
 70
         4
  0
VERTEX
  8
DEFAULT
  6
CONTINUOUS
 62
         7
  5
37D
 10
24.3521179773
 20
5.9292268883
 30
0.0
 70
         8
  0
VERTEX
  8
DEFAULT
  6
CONTINUOUS
 62
         7
  5
37E
 10
24.3491507456
 20
5.9310414772
 30
0.0
 70
         8
  0
VERTEX
  8
DEFAULT
  6
CONTINUOUS
 62
         7
  5
37F
 10
24.346364335
 20
5.9327496698
 30
0.0
 70
         8
  0
VERTEX
  8
DEFAULT
  6
CONTINUOUS
 62
         7
  5
380
 10
24.3440073905
 20
5.9341995595
 30
0.0
 70
         8
  0
VERTEX
  8
DEFAULT
  6
CONTINUOUS
 62
         7
  5
381
 10
24.3416183539
 20
5.9356739122
 30
0.0
 70
         8
  0
VERTEX
  8
DEFAULT
  6
CONTINUOUS
 62
         7
  5
382
 10
24.3397381165
 20
5.9368377415
 30
0.0
 70
         8
  0
VERTEX
  8
DEFAULT
  6
CONTINUOUS
 62
         7
  5
383
 10
24.3378663757
 20
5.9379996156
 30
0.0
 70
         8
  0
VERTEX
  8
DEFAULT
  6
CONTINUOUS
 62
         7
  5
384
 10
24.3364796686
 20
5.938862654
 30
0.0
 70
         8
  0
VERTEX
  8
DEFAULT
  6
CONTINUOUS
 62
         7
  5
385
 10
24.3350944552
 20
5.9397267799
 30
0.0
 70
         8
  0
VERTEX
  8
DEFAULT
  6
CONTINUOUS
 62
         7
  5
386
 10
24.3338588597
 20
5.9404993679
 30
0.0
 70
         8
  0
VERTEX
  8
DEFAULT
  6
CONTINUOUS
 62
         7
  5
387
 10
24.3326191677
 20
5.9412762761
 30
0.0
 70
         8
  0
VERTEX
  8
DEFAULT
  6
CONTINUOUS
 62
         7
  5
388
 10
24.3321648237
 20
5.9415614561
 30
0.0
 70
         8
  0
VERTEX
  8
DEFAULT
  6
CONTINUOUS
 62
         7
  5
389
 10
24.3317100226
 20
5.9418471723
 30
0.0
 70
         8
  0
SEQEND
  8
DEFAULT
  6
CONTINUOUS
 62
         7
  5
38A
  0
LINE
  8
DEFAULT
  6
CONTINUOUS
 62
         7
  5
38B
 10
24.5717113101
 20
6.1591594284
 30
0.0
 11
24.5722310733
 21
6.1591594284
 31
0.0
  0
LINE
  8
DEFAULT
  6
CONTINUOUS
 62
         7
  5
38C
 10
21.2816674576
 20
6.1591594284
 30
0.0
 11
24.5716674295
 21
6.1591594284
 31
0.0
  0
LINE
  8
DEFAULT
  6
CONTINUOUS
 62
         7
  5
38D
 10
24.5716674295
 20
5.9711594284
 30
0.0
 11
24.5722310733
 21
5.9711594284
 31
0.0
  0
LINE
  8
DEFAULT
  6
CONTINUOUS
 62
         7
  5
38E
 10
24.5722310733
 20
5.9711594284
 30
0.0
 11
24.5722310733
 21
6.1591594284
 31
0.0
  0
LINE
  8
DEFAULT
  6
CONTINUOUS
 62
         7
  5
38F
 10
21.2816674576
 20
5.9711594284
 30
0.0
 11
21.2816674576
 21
6.1591594284
 31
0.0
  0
LINE
  8
DEFAULT
  6
CONTINUOUS
 62
         7
  5
390
 10
21.2816674576
 20
5.9711594284
 30
0.0
 11
24.5716674295
 21
5.9711594284
 31
0.0
  0
LINE
  8
DEFAULT
  6
CONTINUOUS
 62
         7
  5
391
 10
24.5716674295
 20
5.9711594284
 30
0.0
 11
24.5716674295
 21
6.1591594284
 31
0.0
  0
LINE
  8
DEFAULT
  6
CONTINUOUS
 62
         7
  5
392
 10
22.4267105227
 20
6.3191594284
 30
0.0
 11
22.4267105227
 21
6.4091594284
 31
0.0
  0
LINE
  8
DEFAULT
  6
CONTINUOUS
 62
         7
  5
393
 10
23.3103558603
 20
6.3091594284
 30
0.0
 11
23.318538338
 21
6.3091594284
 31
0.0
  0
LINE
  8
DEFAULT
  6
CONTINUOUS
 62
         7
  5
394
 10
23.3042665746
 20
6.3091594284
 30
0.0
 11
23.3103558603
 21
6.3091594284
 31
0.0
  0
LINE
  8
DEFAULT
  6
CONTINUOUS
 62
         7
  5
395
 10
23.3017105227
 20
6.3091594284
 30
0.0
 11
23.3042665746
 21
6.3091594284
 31
0.0
  0
LINE
  8
DEFAULT
  6
CONTINUOUS
 62
         7
  5
396
 10
23.318538338
 20
6.3091594284
 30
0.0
 11
23.318538338
 21
6.3191594284
 31
0.0
  0
LINE
  8
DEFAULT
  6
CONTINUOUS
 62
         7
  5
397
 10
23.3103558603
 20
6.3091594284
 30
0.0
 11
23.3103558603
 21
6.3191594284
 31
0.0
  0
LINE
  8
DEFAULT
  6
CONTINUOUS
 62
         7
  5
398
 10
23.3042665746
 20
6.3091594284
 30
0.0
 11
23.3042665746
 21
6.3191594284
 31
0.0
  0
LINE
  8
DEFAULT
  6
CONTINUOUS
 62
         7
  5
399
 10
22.5517105227
 20
6.2211594284
 30
0.0
 11
22.5517105227
 21
6.3191594284
 31
0.0
  0
LINE
  8
DEFAULT
  6
CONTINUOUS
 62
         7
  5
39A
 10
22.4267105227
 20
6.4091594284
 30
0.0
 11
23.4267105227
 21
6.4091594284
 31
0.0
  0
LINE
  8
DEFAULT
  6
CONTINUOUS
 62
         7
  5
39B
 10
23.3017105227
 20
6.3191594284
 30
0.0
 11
23.4267105227
 21
6.3191594284
 31
0.0
  0
LINE
  8
DEFAULT
  6
CONTINUOUS
 62
         7
  5
39C
 10
23.4267105227
 20
6.3191594284
 30
0.0
 11
23.4267105227
 21
6.4091594284
 31
0.0
  0
LINE
  8
DEFAULT
  6
CONTINUOUS
 62
         7
  5
39D
 10
22.4267105227
 20
6.3191594284
 30
0.0
 11
22.5517105227
 21
6.3191594284
 31
0.0
  0
LINE
  8
DEFAULT
  6
CONTINUOUS
 62
         7
  5
39E
 10
23.3017105227
 20
6.2211594284
 30
0.0
 11
23.3017105227
 21
6.3191594284
 31
0.0
  0
LINE
  8
DEFAULT
  6
CONTINUOUS
 62
         7
  5
39F
 10
22.4267105227
 20
6.2211594284
 30
0.0
 11
22.5517105227
 21
6.2211594284
 31
0.0
  0
LINE
  8
DEFAULT
  6
CONTINUOUS
 62
         7
  5
3A0
 10
23.3017105227
 20
6.2211594284
 30
0.0
 11
23.4267105227
 21
6.2211594284
 31
0.0
  0
LINE
  8
DEFAULT
  6
CONTINUOUS
 62
         7
  5
3A1
 10
22.4267105227
 20
6.1591594284
 30
0.0
 11
22.4267105227
 21
6.2211594284
 31
0.0
  0
LINE
  8
DEFAULT
  6
CONTINUOUS
 62
         7
  5
3A2
 10
23.4267105227
 20
6.1591594284
 30
0.0
 11
23.4267105227
 21
6.2211594284
 31
0.0
  0
LINE
  8
DEFAULT
  6
CONTINUOUS
 62
         7
  5
3A3
 10
22.4970621256
 20
6.3151594284
 30
0.0
 11
22.4970621256
 21
6.3191594284
 31
0.0
  0
LINE
  8
DEFAULT
  6
CONTINUOUS
 62
         7
  5
3A4
 10
22.4792406971
 20
6.3151594284
 30
0.0
 11
22.4792406971
 21
6.3191594284
 31
0.0
  0
LINE
  8
DEFAULT
  6
CONTINUOUS
 62
         7
  5
3A5
 10
22.4876335542
 20
6.3151594284
 30
0.0
 11
22.4876335542
 21
6.3191594284
 31
0.0
  0
LINE
  8
DEFAULT
  6
CONTINUOUS
 62
         7
  5
3A6
 10
22.4997049828
 20
6.3151594284
 30
0.0
 11
22.4997049828
 21
6.3191594284
 31
0.0
  0
LINE
  8
DEFAULT
  6
CONTINUOUS
 62
         7
  5
3A7
 10
22.5378835542
 20
6.3091594284
 30
0.0
 11
22.5378835542
 21
6.3191594284
 31
0.0
  0
LINE
  8
DEFAULT
  6
CONTINUOUS
 62
         7
  5
3A8
 10
22.5409549828
 20
6.3091594284
 30
0.0
 11
22.5409549828
 21
6.3191594284
 31
0.0
  0
LINE
  8
DEFAULT
  6
CONTINUOUS
 62
         7
  5
3A9
 10
22.5330621256
 20
6.3091594284
 30
0.0
 11
22.5330621256
 21
6.3191594284
 31
0.0
  0
LINE
  8
DEFAULT
  6
CONTINUOUS
 62
         7
  5
3AA
 10
22.5241692685
 20
6.3091594284
 30
0.0
 11
22.5241692685
 21
6.3191594284
 31
0.0
  0
LINE
  8
DEFAULT
  6
CONTINUOUS
 62
         7
  5
3AB
 10
22.5507049828
 20
6.3091594284
 30
0.0
 11
22.5507049828
 21
6.3191594284
 31
0.0
  0
LINE
  8
DEFAULT
  6
CONTINUOUS
 62
         7
  5
3AC
 10
22.5024906971
 20
6.3151594284
 30
0.0
 11
22.5024906971
 21
6.3191594284
 31
0.0
  0
LINE
  8
DEFAULT
  6
CONTINUOUS
 62
         7
  5
3AD
 10
22.5142764113
 20
6.3151594284
 30
0.0
 11
22.5142764113
 21
6.3191594284
 31
0.0
  0
LINE
  8
DEFAULT
  6
CONTINUOUS
 62
         7
  5
3AE
 10
22.5378835542
 20
6.3091594284
 30
0.0
 11
22.5409549828
 21
6.3091594284
 31
0.0
  0
LINE
  8
DEFAULT
  6
CONTINUOUS
 62
         7
  5
3AF
 10
22.5330621256
 20
6.3091594284
 30
0.0
 11
22.5378835542
 21
6.3091594284
 31
0.0
  0
LINE
  8
DEFAULT
  6
CONTINUOUS
 62
         7
  5
3B0
 10
22.5409549828
 20
6.3091594284
 30
0.0
 11
22.5507049828
 21
6.3091594284
 31
0.0
  0
LINE
  8
DEFAULT
  6
CONTINUOUS
 62
         7
  5
3B1
 10
22.5507049828
 20
6.3091594284
 30
0.0
 11
22.5517105227
 21
6.3091594284
 31
0.0
  0
LINE
  8
DEFAULT
  6
CONTINUOUS
 62
         7
  5
3B2
 10
22.5241692685
 20
6.3091594284
 30
0.0
 11
22.5330621256
 21
6.3091594284
 31
0.0
  0
LINE
  8
DEFAULT
  6
CONTINUOUS
 62
         7
  5
3B3
 10
22.5157105227
 20
6.3091594284
 30
0.0
 11
22.5241692685
 21
6.3091594284
 31
0.0
  0
ENDBLK
  8
DEFAULT
  6
CONTINUOUS
 62
         7
  5
3B4
  0
BLOCK
  8
0
 62
         1
 48
0.0
  5
3F3
  2
*X9
 70
         1
 10
0.0
 20
0.0
 30
0.0
  3
*X9
  0
INSERT
  8
0
 62
         0
 48
0.0
  5
3F4
  2
*X10
 10
0.0
 20
0.0
 30
0.0
  0
ENDBLK
  8
0
 62
         0
 48
0.0
  5
3F5
  0
BLOCK
  8
0
 62
         1
 48
0.0
  5
3B8
  2
*X10
 70
         1
 10
0.0
 20
0.0
 30
0.0
  3
*X10
  0
LINE
  8
DEFAULT
  6
CONTINUOUS
 62
         7
  5
3B9
 10
17.1305139815
 20
10.5929196421
 30
0.0
 11
15.9425139815
 21
10.5929196421
 31
0.0
  0
LINE
  8
DEFAULT
  6
CONTINUOUS
 62
         7
  5
3BA
 10
15.9425139815
 20
10.5929196421
 30
0.0
 11
15.9425139815
 21
11.6029196421
 31
0.0
  0
LINE
  8
DEFAULT
  6
CONTINUOUS
 62
         7
  5
3BB
 10
15.9425139815
 20
11.6029196421
 30
0.0
 11
17.1305139815
 21
11.6029196421
 31
0.0
  0
LINE
  8
DEFAULT
  6
CONTINUOUS
 62
         7
  5
3BC
 10
17.1305139815
 20
10.5979196421
 30
0.0
 11
17.1305139815
 21
10.5929196421
 31
0.0
  0
LINE
  8
DEFAULT
  6
CONTINUOUS
 62
         7
  5
3BD
 10
17.1305139815
 20
11.6029196421
 30
0.0
 11
17.1305139815
 21
11.5979196421
 31
0.0
  0
CIRCLE
  8
DEFAULT
  6
CONTINUOUS
 62
         7
  5
3BE
 10
16.8015139815
 20
12.4429196421
 30
0.0
 40
0.161
  0
CIRCLE
  8
DEFAULT
  6
CONTINUOUS
 62
         7
  5
3BF
 10
13.1495139815
 20
12.4429196421
 30
0.0
 40
0.161
  0
CIRCLE
  8
DEFAULT
  6
CONTINUOUS
 62
         7
  5
3C0
 10
13.1495139815
 20
9.7529196421
 30
0.0
 40
0.161
  0
CIRCLE
  8
DEFAULT
  6
CONTINUOUS
 62
         7
  5
3C1
 10
16.8015139815
 20
9.7529196421
 30
0.0
 40
0.161
  0
LINE
  8
DEFAULT
  6
CONTINUOUS
 62
         7
  5
3C2
 10
12.8205139815
 20
10.5929196421
 30
0.0
 11
12.8205139815
 21
9.4529196421
 31
0.0
  0
LINE
  8
DEFAULT
  6
CONTINUOUS
 62
         7
  5
3C3
 10
12.8205139815
 20
12.7429196421
 30
0.0
 11
12.8205139815
 21
11.6029196421
 31
0.0
  0
LINE
  8
DEFAULT
  6
CONTINUOUS
 62
         7
  5
3C4
 10
17.1305139815
 20
9.4529196421
 30
0.0
 11
17.1305139815
 21
10.5929196421
 31
0.0
  0
LINE
  8
DEFAULT
  6
CONTINUOUS
 62
         7
  5
3C5
 10
12.8205139815
 20
9.4529196421
 30
0.0
 11
17.1305139815
 21
9.4529196421
 31
0.0
  0
LINE
  8
DEFAULT
  6
CONTINUOUS
 62
         7
  5
3C6
 10
17.1305139815
 20
11.6029196421
 30
0.0
 11
17.1305139815
 21
12.7429196421
 31
0.0
  0
LINE
  8
DEFAULT
  6
CONTINUOUS
 62
         7
  5
3C7
 10
17.1305139815
 20
12.7429196421
 30
0.0
 11
12.8205139815
 21
12.7429196421
 31
0.0
  0
LINE
  8
DEFAULT
  6
CONTINUOUS
 62
         7
  5
3C8
 10
12.8205139815
 20
11.5979196421
 30
0.0
 11
12.8205139815
 21
11.6029196421
 31
0.0
  0
LINE
  8
DEFAULT
  6
CONTINUOUS
 62
         7
  5
3C9
 10
14.0085139815
 20
11.6029196421
 30
0.0
 11
14.0085139815
 21
10.5929196421
 31
0.0
  0
LINE
  8
DEFAULT
  6
CONTINUOUS
 62
         7
  5
3CA
 10
12.8205139815
 20
10.5929196421
 30
0.0
 11
12.8205139815
 21
10.5979196421
 31
0.0
  0
LINE
  8
DEFAULT
  6
CONTINUOUS
 62
         7
  5
3CB
 10
14.0085139815
 20
10.5929196421
 30
0.0
 11
12.8205139815
 21
10.5929196421
 31
0.0
  0
LINE
  8
DEFAULT
  6
CONTINUOUS
 62
         7
  5
3CC
 10
12.8205139815
 20
11.6029196421
 30
0.0
 11
14.0085139815
 21
11.6029196421
 31
0.0
  0
LINE
  8
DEFAULT
  6
CONTINUOUS
 62
         7
  5
3CD
 10
12.9965433961
 20
9.7779196421
 30
0.0
 11
13.3024845669
 21
9.7779196421
 31
0.0
  0
LINE
  8
DEFAULT
  6
CONTINUOUS
 62
         7
  5
3CE
 10
12.9965433961
 20
9.7279196421
 30
0.0
 11
13.3024845669
 21
9.7279196421
 31
0.0
  0
ARC
  8
DEFAULT
  6
CONTINUOUS
 62
         7
  5
3CF
 10
13.1495139815
 20
9.7529196421
 30
0.0
 40
0.1219565217
 50
348.1710226891
 51
11.8289773109
  0
ARC
  8
DEFAULT
  6
CONTINUOUS
 62
         7
  5
3D0
 10
13.1495139815
 20
9.7529196421
 30
0.0
 40
0.1219565217
 50
168.1710226891
 51
191.8289773109
  0
ARC
  8
DEFAULT
  6
CONTINUOUS
 62
         7
  5
3D1
 10
13.1495139815
 20
9.7529196421
 30
0.0
 40
0.155
 50
189.2817990867
 51
350.7182009133
  0
ARC
  8
DEFAULT
  6
CONTINUOUS
 62
         7
  5
3D2
 10
13.1495139815
 20
9.7529196421
 30
0.0
 40
0.155
 50
9.2817990867
 51
170.7182009133
  0
LINE
  8
DEFAULT
  6
CONTINUOUS
 62
         7
  5
3D3
 10
13.3024845669
 20
12.4179196421
 30
0.0
 11
12.9965433961
 21
12.4179196421
 31
0.0
  0
ARC
  8
DEFAULT
  6
CONTINUOUS
 62
         7
  5
3D4
 10
13.1495139815
 20
12.4429196421
 30
0.0
 40
0.1219565217
 50
168.1710226891
 51
191.8289773109
  0
LINE
  8
DEFAULT
  6
CONTINUOUS
 62
         7
  5
3D5
 10
13.3024845669
 20
12.4679196421
 30
0.0
 11
12.9965433961
 21
12.4679196421
 31
0.0
  0
ARC
  8
DEFAULT
  6
CONTINUOUS
 62
         7
  5
3D6
 10
13.1495139815
 20
12.4429196421
 30
0.0
 40
0.1219565217
 50
348.1710226891
 51
11.8289773109
  0
ARC
  8
DEFAULT
  6
CONTINUOUS
 62
         7
  5
3D7
 10
13.1495139815
 20
12.4429196421
 30
0.0
 40
0.155
 50
9.2817990867
 51
170.7182009133
  0
ARC
  8
DEFAULT
  6
CONTINUOUS
 62
         7
  5
3D8
 10
13.1495139815
 20
12.4429196421
 30
0.0
 40
0.155
 50
189.2817990867
 51
350.7182009133
  0
LINE
  8
DEFAULT
  6
CONTINUOUS
 62
         7
  5
3D9
 10
16.6485433961
 20
9.7779196421
 30
0.0
 11
16.9544845669
 21
9.7779196421
 31
0.0
  0
ARC
  8
DEFAULT
  6
CONTINUOUS
 62
         7
  5
3DA
 10
16.8015139815
 20
9.7529196421
 30
0.0
 40
0.1219565217
 50
348.1710226891
 51
11.8289773109
  0
LINE
  8
DEFAULT
  6
CONTINUOUS
 62
         7
  5
3DB
 10
16.6485433961
 20
9.7279196421
 30
0.0
 11
16.9544845669
 21
9.7279196421
 31
0.0
  0
ARC
  8
DEFAULT
  6
CONTINUOUS
 62
         7
  5
3DC
 10
16.8015139815
 20
9.7529196421
 30
0.0
 40
0.1219565217
 50
168.1710226891
 51
191.8289773109
  0
ARC
  8
DEFAULT
  6
CONTINUOUS
 62
         7
  5
3DD
 10
16.8015139815
 20
9.7529196421
 30
0.0
 40
0.155
 50
189.2817990867
 51
350.7182009133
  0
ARC
  8
DEFAULT
  6
CONTINUOUS
 62
         7
  5
3DE
 10
16.8015139815
 20
9.7529196421
 30
0.0
 40
0.155
 50
9.2817990867
 51
170.7182009133
  0
LINE
  8
DEFAULT
  6
CONTINUOUS
 62
         7
  5
3DF
 10
16.9544845669
 20
12.4179196421
 30
0.0
 11
16.6485433961
 21
12.4179196421
 31
0.0
  0
ARC
  8
DEFAULT
  6
CONTINUOUS
 62
         7
  5
3E0
 10
16.8015139815
 20
12.4429196421
 30
0.0
 40
0.1219565217
 50
168.1710226891
 51
191.8289773109
  0
LINE
  8
DEFAULT
  6
CONTINUOUS
 62
         7
  5
3E1
 10
16.9544845669
 20
12.4679196421
 30
0.0
 11
16.6485433961
 21
12.4679196421
 31
0.0
  0
ARC
  8
DEFAULT
  6
CONTINUOUS
 62
         7
  5
3E2
 10
16.8015139815
 20
12.4429196421
 30
0.0
 40
0.155
 50
9.2817990867
 51
170.7182009133
  0
ARC
  8
DEFAULT
  6
CONTINUOUS
 62
         7
  5
3E3
 10
16.8015139815
 20
12.4429196421
 30
0.0
 40
0.155
 50
189.2817990867
 51
350.7182009133
  0
ARC
  8
DEFAULT
  6
CONTINUOUS
 62
         7
  5
3E4
 10
16.8015139815
 20
12.4429196421
 30
0.0
 40
0.1219565217
 50
348.1710226891
 51
11.8289773109
  0
LINE
  8
DEFAULT
  6
CONTINUOUS
 62
         7
  5
3E5
 10
12.8210532483
 20
12.7434401927
 30
0.0
 11
12.8210531802
 21
12.7429196421
 31
0.0
  0
LINE
  8
DEFAULT
  6
CONTINUOUS
 62
         7
  5
3E6
 10
16.8013184716
 20
9.4529196421
 30
0.0
 11
17.130622959
 21
9.452876577
 31
0.0
  0
LINE
  8
DEFAULT
  6
CONTINUOUS
 62
         7
  5
3E7
 10
17.130622959
 20
9.452876577
 30
0.0
 11
17.1310532114
 21
12.7428765489
 31
0.0
  0
LINE
  8
DEFAULT
  6
CONTINUOUS
 62
         7
  5
3E8
 10
17.1310532114
 20
12.7428765489
 30
0.0
 11
17.1305139815
 21
12.7428766194
 31
0.0
  0
LINE
  8
DEFAULT
  6
CONTINUOUS
 62
         7
  5
3E9
 10
16.8015335978
 20
12.7429196421
 30
0.0
 11
12.8210532483
 21
12.7434401927
 31
0.0
  0
LINE
  8
DEFAULT
  6
CONTINUOUS
 62
         7
  5
3EA
 10
15.9425139815
 20
11.5979196421
 30
0.0
 11
15.9425139815
 21
10.5979196421
 31
0.0
  0
LINE
  8
DEFAULT
  6
CONTINUOUS
 62
         7
  5
3EB
 10
17.1305139815
 20
11.5979196421
 30
0.0
 11
15.9425139815
 21
11.5979196421
 31
0.0
  0
LINE
  8
DEFAULT
  6
CONTINUOUS
 62
         7
  5
3EC
 10
15.9425139815
 20
10.5979196421
 30
0.0
 11
17.1305139815
 21
10.5979196421
 31
0.0
  0
LINE
  8
DEFAULT
  6
CONTINUOUS
 62
         7
  5
3ED
 10
17.1305139815
 20
10.5979196421
 30
0.0
 11
17.1305139815
 21
11.5979196421
 31
0.0
  0
LINE
  8
DEFAULT
  6
CONTINUOUS
 62
         7
  5
3EE
 10
14.0085139815
 20
10.5979196421
 30
0.0
 11
14.0085139815
 21
11.5979196421
 31
0.0
  0
LINE
  8
DEFAULT
  6
CONTINUOUS
 62
         7
  5
3EF
 10
14.0085139815
 20
11.5979196421
 30
0.0
 11
12.8205139815
 21
11.5979196421
 31
0.0
  0
LINE
  8
DEFAULT
  6
CONTINUOUS
 62
         7
  5
3F0
 10
12.8205139815
 20
10.5979196421
 30
0.0
 11
14.0085139815
 21
10.5979196421
 31
0.0
  0
LINE
  8
DEFAULT
  6
CONTINUOUS
 62
         7
  5
3F1
 10
12.8205139815
 20
11.5979196421
 30
0.0
 11
12.8205139815
 21
10.5979196421
 31
0.0
  0
ENDBLK
  8
DEFAULT
  6
CONTINUOUS
 62
         7
  5
3F2
  0
ENDSEC
  0
SECTION
  2
ENTITIES
  0
TEXT
  8
DEFAULT
  6
CONTINUOUS
 62
         7
  5
2D
 10
16.648041946
 20
3.5920539958
 30
0.0
 40
0.25
  1
SYSTEM: FLOOR BOXES
  7
ARIAL_TTF
 11
16.648041946
 21
3.8420539958
 31
0.0
 73
         3
  0
TEXT
  8
DEFAULT
  6
CONTINUOUS
 62
         7
  5
2E
 10
16.2132593373
 20
3.200749648
 30
0.0
 40
0.25
  1
CATALOG NUMBER: 829PSTC
  7
ARIAL_TTF
 11
16.2132593373
 21
3.450749648
 31
0.0
 73
         3
  0
INSERT
  8
DEFAULT
 62
         0
 48
0.0
  5
32
  2
*X0
 10
0.0
 20
0.0
 30
0.0
  0
INSERT
  8
DEFAULT
 62
         0
 48
0.0
  5
36
  2
*X1
 10
0.0
 20
0.0
 30
0.0
  0
INSERT
  8
DEFAULT
 62
         0
 48
0.0
  5
3A
  2
*X2
 10
0.0
 20
0.0
 30
0.0
  0
INSERT
  8
0
 62
         0
 48
0.0
  5
3D
  2
*X3
 10
0.0
 20
0.0
 30
0.0
  0
INSERT
  8
0
 62
         0
 48
0.0
  5
40
  2
*X5
 10
0.0
 20
0.0
 30
0.0
  0
INSERT
  8
0
 62
         0
 48
0.0
  5
43
  2
*X7
 10
0.0
 20
0.0
 30
0.0
  0
INSERT
  8
0
 62
         0
 48
0.0
  5
46
  2
*X9
 10
0.0
 20
0.0
 30
0.0
  0
ENDSEC
  0
EOF
