  0
SECTION
  2
HEADER
  9
$ACADVER
  1
AC1012
  9
$DWGCODEPAGE
  3
ansi_1252
  9
$INSBASE
 10
0.0
 20
0.0
 30
0.0
  9
$EXTMIN
 10
0.0
 20
0.0
 30
0.0
  9
$EXTMAX
 10
34.0
 20
22.0
 30
0.0
  9
$LIMMIN
 10
0.0
 20
0.0
  9
$LIMMAX
 10
12.0
 20
9.0
  9
$ORTHOMODE
 70
         0
  9
$REGENMODE
 70
         1
  9
$FILLMODE
 70
         1
  9
$QTEXTMODE
 70
         0
  9
$MIRRTEXT
 70
         1
  9
$DRAGMODE
 70
         2
  9
$LTSCALE
 40
1.0
  9
$OSMODE
 70
         0
  9
$ATTMODE
 70
         1
  9
$TEXTSIZE
 40
0.2
  9
$TRACEWID
 40
0.05
  9
$TEXTSTYLE
  7
STANDARD
  9
$CLAYER
  8
0
  9
$CELTYPE
  6
CONTINUOUS
  9
$CECOLOR
 62
       256
  9
$CELTSCALE
 40
1.0
  9
$DELOBJ
 70
         1
  9
$DISPSILH
 70
         0
  9
$DIMSCALE
 40
1.0
  9
$DIMASZ
 40
0.18
  9
$DIMEXO
 40
0.0625
  9
$DIMDLI
 40
0.38
  9
$DIMRND
 40
0.0
  9
$DIMDLE
 40
0.0
  9
$DIMEXE
 40
0.18
  9
$DIMTP
 40
0.0
  9
$DIMTM
 40
0.0
  9
$DIMTXT
 40
0.18
  9
$DIMCEN
 40
0.09
  9
$DIMTSZ
 40
0.0
  9
$DIMTOL
 70
         0
  9
$DIMLIM
 70
         0
  9
$DIMTIH
 70
         1
  9
$DIMTOH
 70
         1
  9
$DIMSE1
 70
         0
  9
$DIMSE2
 70
         0
  9
$DIMTAD
 70
         0
  9
$DIMZIN
 70
         0
  9
$DIMBLK
  1

  9
$DIMASO
 70
         1
  9
$DIMSHO
 70
         1
  9
$DIMPOST
  1

  9
$DIMAPOST
  1

  9
$DIMALT
 70
         0
  9
$DIMALTD
 70
         2
  9
$DIMALTF
 40
25.4
  9
$DIMLFAC
 40
1.0
  9
$DIMTOFL
 70
         0
  9
$DIMTVP
 40
0.0
  9
$DIMTIX
 70
         0
  9
$DIMSOXD
 70
         0
  9
$DIMSAH
 70
         0
  9
$DIMBLK1
  1

  9
$DIMBLK2
  1

  9
$DIMSTYLE
  2
STANDARD
  9
$DIMCLRD
 70
         0
  9
$DIMCLRE
 70
         0
  9
$DIMCLRT
 70
         0
  9
$DIMTFAC
 40
1.0
  9
$DIMGAP
 40
0.09
  9
$DIMJUST
 70
         0
  9
$DIMSD1
 70
         0
  9
$DIMSD2
 70
         0
  9
$DIMTOLJ
 70
         1
  9
$DIMTZIN
 70
         0
  9
$DIMALTZ
 70
         0
  9
$DIMALTTZ
 70
         0
  9
$DIMFIT
 70
         3
  9
$DIMUPT
 70
         0
  9
$DIMUNIT
 70
         2
  9
$DIMDEC
 70
         4
  9
$DIMTDEC
 70
         4
  9
$DIMALTU
 70
         2
  9
$DIMALTTD
 70
         2
  9
$DIMTXSTY
  7
STANDARD
  9
$DIMAUNIT
 70
         0
  9
$LUNITS
 70
         2
  9
$LUPREC
 70
         4
  9
$SKETCHINC
 40
0.1
  9
$FILLETRAD
 40
0.0
  9
$AUNITS
 70
         0
  9
$AUPREC
 70
         0
  9
$MENU
  1
acad
  9
$ELEVATION
 40
0.0
  9
$PELEVATION
 40
0.0
  9
$THICKNESS
 40
0.0
  9
$LIMCHECK
 70
         0
  9
$BLIPMODE
 70
         1
  9
$CHAMFERA
 40
0.0
  9
$CHAMFERB
 40
0.0
  9
$CHAMFERC
 40
0.0
  9
$CHAMFERD
 40
0.0
  9
$SKPOLY
 70
         0
  9
$TDCREATE
 40
0.000000000
  9
$TDUPDATE
 40
0.000000000
  9
$TDINDWG
 40
0.0000000000
  9
$TDUSRTIMER
 40
0.0000000000
  9
$USRTIMER
 70
         1
  9
$ANGBASE
 50
0.0
  9
$ANGDIR
 70
         0
  9
$PDMODE
 70
         0
  9
$PDSIZE
 40
0.0
  9
$PLINEWID
 40
0.0
  9
$COORDS
 70
         0
  9
$SPLFRAME
 70
         0
  9
$SPLINETYPE
 70
         6
  9
$SPLINESEGS
 70
         8
  9
$ATTDIA
 70
         0
  9
$ATTREQ
 70
         1
  9
$HANDLING
 70
         1
  9
$HANDSEED
  5
152
  9
$SURFTAB1
 70
         6
  9
$SURFTAB2
 70
         6
  9
$SURFTYPE
 70
         6
  9
$SURFU
 70
         6
  9
$SURFV
 70
         6
  9
$UCSNAME
  2

  9
$UCSORG
 10
0.0
 20
0.0
 30
0.0
  9
$UCSXDIR
 10
1.0
 20
0.0
 30
0.0
  9
$UCSYDIR
 10
0.0
 20
1.0
 30
0.0
  9
$PUCSNAME
  2

  9
$PUCSORG
 10
0.0
 20
0.0
 30
0.0
  9
$PUCSXDIR
 10
1.0
 20
0.0
 30
0.0
  9
$PUCSYDIR
 10
0.0
 20
1.0
 30
0.0
  9
$USERI1
 70
         0
  9
$USERI2
 70
         0
  9
$USERI3
 70
         0
  9
$USERI4
 70
         0
  9
$USERI5
 70
         0
  9
$USERR1
 40
0.0
  9
$USERR2
 40
0.0
  9
$USERR3
 40
0.0
  9
$USERR4
 40
0.0
  9
$USERR5
 40
0.0
  9
$WORLDVIEW
 70
         1
  9
$SHADEDGE
 70
         3
  9
$SHADEDIF
 70
        70
  9
$TILEMODE
 70
         1
  9
$MAXACTVP
 70
        16
  9
$PINSBASE
 10
0.0
 20
0.0
 30
0.0
  9
$PLIMCHECK
 70
         0
  9
$PEXTMIN
 10
1.0000000000E+20
 20
1.0000000000E+20
 30
1.0000000000E+20
  9
$PEXTMAX
 10
-1.0000000000E+20
 20
-1.0000000000E+20
 30
-1.0000000000E+20
  9
$PLIMMIN
 10
0.0
 20
0.0
  9
$PLIMMAX
 10
12.0
 20
9.0
  9
$UNITMODE
 70
         0
  9
$VISRETAIN
 70
         0
  9
$PLINEGEN
 70
         1
  9
$PSLTSCALE
 70
         0
  9
$TREEDEPTH
 70
      3020
  9
$PICKSTYLE
 70
         1
  9
$CMLSTYLE
  2
STANDARD
  9
$CMLJUST
 70
         0
  9
$CMLSCALE
 40
1.0
  9
$SAVEIMAGES
 70
         0
  0
ENDSEC
  0
SECTION
  2
CLASSES
  0
CLASS
  1
LWPOLYLINE
  2
AcDbPolyline
  3
"AutoCAD"
 90
        0
280
         0
281
         1
  0
CLASS
  1
IMAGE
  2
AcDbRasterImage
  3
ISM
 90
      127
280
         0
281
         1
  0
CLASS
  1
OLE2FRAME
  2
AcDbOle2Frame
  3
""
 90
        0
280
         0
281
         1
  0
CLASS
  1
HATCH
  2
AcDbHatch
  3
"ACAD_SEDONA"
 90
        0
280
         0
281
         1
  0
CLASS
  1
DICTIONARYVAR
  2
AcDbDictionaryVar
  3
"AutoCAD"
 90
        0
280
         0
281
         0
  0
CLASS
  1
RASTERVARIABLES
  2
AcDbRasterVariables
  3
ISM
 90
        0
280
         0
281
         0
  0
CLASS
  1
IMAGEDEF
  2
AcDbRasterImageDef
  3
ISM
 90
        0
280
         0
281
         0
  0
CLASS
  1
IMAGEDEF_REACTOR
  2
AcDbRasterImageDefReactor
  3
ISM
 90
        1
280
         0
281
         0
  0
CLASS
  1
IDBUFFER
  2
AcDbIdBuffer
  3
"Acad"
 90
        0
280
         0
281
         0
  0
CLASS
  1
SPATIAL_FILTER
  2
AcDbSpatialFilter
  3
"Acad"
 90
        0
280
         0
281
         0
  0
CLASS
  1
XRECORD
  2
AcDbXrecord
  3
"<Built In>"
 90
        0
280
         0
281
         0
  0
CLASS
  1
SORTENTSTABLE
  2
AcDbSortentsTable
  3
"AutoCAD"
 90
        0
280
         0
281
         0
  0
CLASS
  1
LAYER_INDEX
  2
AcDbLayerIndex
  3
"Acad"
 90
        0
280
         0
281
         0
  0
CLASS
  1
SPATIAL_INDEX
  2
AcDbSpatialIndex
  3
"Acad"
 90
        0
280
         0
281
         0
  0
CLASS
  1
OBJECT_PTR
  2
CAseDLPNTableRecord
  3
"ASE-LPNTableRecord"
 90
        1
280
         0
281
         0
  0
CLASS
  1
LAYOUT
  2
AcDbLayout
  3
"AutoCAD 2000"
 90
        1
280
         0
281
         0
  0
CLASS
  1
PLOTSETTINGS
  2
AcDbPlotSettings
  3
"AutoCAD 2000"
 90
        1
280
         0
281
         0
  0
CLASS
  1
ACDBDICTIONARYWDFLT
  2
AcDbDictionaryWithDefault
  3
"AutoCAD 2000"
 90
        1
280
         0
281
         0
  0
CLASS
  1
ACDBPLACEHOLDER
  2
AcDbPlaceHolder
  3
"AutoCAD 2000"
 90
        1
280
         0
281
         0
  0
CLASS
  1
VBA_PROJECT
  2
AcDbVbaProject
  3
"acadvba"
 90
        1
280
         0
281
         0
  0
CLASS
  1
WIPEOUT
  2
AcDbWipeout
  3
WipeOut|AutoCAD Express Tool|expresstools@autodesk.com
 90
      127
280
         0
281
         1
  0
CLASS
  1
WIPEOUTVARIABLES
  2
AcDbWipeoutVariables
  3
WipeOut|AutoCAD Express Tool|expresstools@autodesk.com
 90
        0
280
         0
281
         0
  0
CLASS
  1
RTEXT
  2
RText
  3
RText|AutoCAD Express Tool|expresstools@autodesk.com
 90
        0
280
         0
281
         1
  0
CLASS
  1
ARCALIGNEDTEXT
  2
AcDbArcAlignedText
  3
ATEXT|AutoCAD Express Tool|expresstools@autodesk.com
 90
        0
280
         0
281
         1
  0
ENDSEC
  0
SECTION
  2
TABLES
  0
TABLE
  2
VPORT
  5
7
100
AcDbSymbolTable
 70
         1
  0
VPORT
  5
15
100
AcDbSymbolTableRecord
100
AcDbViewportTableRecord
  2
*ACTIVE
 70
         0
 10
0.0
 20
0.0
 11
1.0
 21
1.0
 12
17.0
 22
11.0
 13
0.0
 23
0.0
 14
1.0
 24
1.0
 15
0.0
 25
0.0
 16
0.0
 26
0.0
 36
1.0
 17
0.0
 27
0.0
 37
0.0
 40
22.0
 41
1.604229
 42
50.0
 43
0.0
 44
0.0
 50
0.0
 51
0.0
 71
         0
 72
       100
 73
         1
 74
         1
 75
         0
 76
         0
 77
         0
 78
         0
  0
ENDTAB
  0
TABLE
  2
LTYPE
  5
4
100
AcDbSymbolTable
 70
         7
  0
LTYPE
  5
11
100
AcDbSymbolTableRecord
100
AcDbLinetypeTableRecord
  2
BYBLOCK
 70
        64
  3

 72
        65
 73
         0
 40
0.0
  0
LTYPE
  5
12
100
AcDbSymbolTableRecord
100
AcDbLinetypeTableRecord
  2
BYLAYER
 70
        64
  3

 72
        65
 73
         0
 40
0.0
  0
LTYPE
  5
13
100
AcDbSymbolTableRecord
100
AcDbLinetypeTableRecord
  2
CONTINUOUS
 70
         0
  3
Solid line
 72
        65
 73
         0
 40
0.0
  0
LTYPE
  5
21
100
AcDbSymbolTableRecord
100
AcDbLinetypeTableRecord
  2
HIDDEN2
 70
        64
  3
_ _ _ _ _ _ _ _ _ _ _ _ _ _ _ _ _ _ _ _ _ _ _ _
 72
        65
 73
         2
 40
0.1875
 49
0.125
 74
         0
 49
-0.0625
 74
         0
  0
LTYPE
  5
22
100
AcDbSymbolTableRecord
100
AcDbLinetypeTableRecord
  2
CENTER2
 70
        64
  3
___ _ ___ _ ___ _ ___ _ ___ _ ___ _ ___ _ ___ _
 72
        65
 73
         4
 40
1.125
 49
0.75
 74
         0
 49
-0.125
 74
         0
 49
0.125
 74
         0
 49
-0.125
 74
         0
  0
LTYPE
  5
23
100
AcDbSymbolTableRecord
100
AcDbLinetypeTableRecord
  2
PHANTOM2
 70
        64
  3
___ _ _ ___ _ _ ___ _ _ ___ _ _ ___ _ _ ___ _ _
 72
        65
 73
         6
 40
1.25
 49
0.625
 74
         0
 49
-0.125
 74
         0
 49
0.125
 74
         0
 49
-0.125
 74
         0
 49
0.125
 74
         0
 49
-0.125
 74
         0
  0
LTYPE
  5
24
100
AcDbSymbolTableRecord
100
AcDbLinetypeTableRecord
  2
DOT2
 70
        64
  3
...............................................
 72
        65
 73
         2
 40
0.125
 49
0.0
 74
         0
 49
-0.125
 74
         0
  0
ENDTAB
  0
TABLE
  2
LAYER
  5
2
100
AcDbSymbolTable
 70
         4
  0
LAYER
  5
14
100
AcDbSymbolTableRecord
100
AcDbLayerTableRecord
  2
0
 70
         0
 62
         7
  6
CONTINUOUS
  0
LAYER
  5
26
100
AcDbSymbolTableRecord
100
AcDbLayerTableRecord
  2
DEFAULT
 70
         0
 62
         7
  6
CONTINUOUS
  0
LAYER
  5
28
100
AcDbSymbolTableRecord
100
AcDbLayerTableRecord
  2
83949G66
 70
         0
 62
         7
  6
CONTINUOUS
  0
LAYER
  5
2A
100
AcDbSymbolTableRecord
100
AcDbLayerTableRecord
  2
AC-MAB
 70
         0
 62
         7
  6
CONTINUOUS
  0
ENDTAB
  0
TABLE
  2
STYLE
  5
3
100
AcDbSymbolTable
 70
         2
  0
STYLE
  5
17
100
AcDbSymbolTableRecord
100
AcDbTextStyleTableRecord
  2
STANDARD
 70
         0
 40
0.0
 41
1.0
 50
0.0
 71
         0
 42
0.2
  3
txt
  4

  0
STYLE
  5
2B
100
AcDbSymbolTableRecord
100
AcDbTextStyleTableRecord
  2
ARIAL_TTF
 70
         0
 40
0.0
 41
1.0
 50
0.0
 71
         0
 42
0.2
  3
arial.ttf
  4

1001
ACAD
1000
Arial
1071
        2
  0
ENDTAB
  0
TABLE
  2
VIEW
  5
5
100
AcDbSymbolTable
 70
         0
  0
ENDTAB
  0
TABLE
  2
UCS
  5
6
100
AcDbSymbolTable
 70
         0
  0
ENDTAB
  0
TABLE
  2
APPID
  5
8
100
AcDbSymbolTable
 70
         1
  0
APPID
  5
16
100
AcDbSymbolTableRecord
100
AcDbRegAppTableRecord
  2
ACAD
 70
         0
  0
ENDTAB
  0
TABLE
  2
DIMSTYLE
  5
9
100
AcDbSymbolTable
 70
         1
  0
DIMSTYLE
105
18
100
AcDbSymbolTableRecord
100
AcDbDimStyleTableRecord
  2
STANDARD
 70
         0
  3

  4

  5

  6

  7

 40
1.0
 41
0.18
 42
0.0625
 43
0.38
 44
0.18
 45
0.0
 46
0.0
 47
0.0
 48
0.0
 71
         0
 72
         0
 73
         1
 74
         1
 75
         0
 76
         0
 77
         0
 78
         0
140
0.18
141
0.09
142
0.0
143
25.4
144
1.0
145
0.0
146
1.0
147
0.09
170
         0
171
         2
172
         0
173
         0
174
         0
175
         0
176
         0
177
         0
178
         0
270
         2
271
         4
272
         4
273
         2
274
         2
275
         0
280
         0
281
         0
282
         0
283
         1
284
         0
285
         0
286
         0
287
         0
288
         0
340
17
  0
ENDTAB
  0
TABLE
  2
BLOCK_RECORD
  5
1
100
AcDbSymbolTable
 70
         0
  0
BLOCK_RECORD
  5
A
100
AcDbSymbolTableRecord
100
AcDbBlockTableRecord
  2
*MODEL_SPACE
  0
BLOCK_RECORD
  5
B
100
AcDbSymbolTableRecord
100
AcDbBlockTableRecord
  2
*PAPER_SPACE
  0
ENDTAB
  0
ENDSEC
  0
SECTION
  2
BLOCKS
  0
BLOCK
  5
D
100
AcDbEntity
  8
0
100
AcDbBlockBegin
  2
*MODEL_SPACE
 70
         0
 10
0.0
 20
0.0
 30
0.0
  3
*MODEL_SPACE
  1

  0
ENDBLK
  5
E
100
AcDbEntity
  8
0
100
AcDbBlockEnd
  0
BLOCK
  5
F
100
AcDbEntity
 67
         1
  8
0
100
AcDbBlockBegin
  2
*PAPER_SPACE
 70
         0
 10
0.0
 20
0.0
 30
0.0
  3
*PAPER_SPACE
  1

  0
ENDBLK
  5
10
100
AcDbEntity
 67
         1
  8
0
100
AcDbBlockEnd
  0
ENDSEC
  0
SECTION
  2
ENTITIES
  0
LINE
  5
2C
100
AcDbEntity
  8
83949G66
  6
CONTINUOUS
 62
         7
100
AcDbLine
 10
19.1719516742
 20
13.6173401803
 30
0.0
 11
19.1719516742
 21
17.9763401803
 31
0.0
  0
LINE
  5
2D
100
AcDbEntity
  8
83949G66
  6
CONTINUOUS
 62
         7
100
AcDbLine
 10
19.1719516742
 20
17.9763401803
 30
0.0
 11
15.3319516742
 21
17.9763401803
 31
0.0
  0
CIRCLE
  5
2E
100
AcDbEntity
  8
83949G66
  6
CONTINUOUS
 62
         7
100
AcDbCircle
 10
17.2519516742
 20
14.1553757451
 30
0.0
 40
0.094
  0
CIRCLE
  5
2F
100
AcDbEntity
  8
83949G66
  6
CONTINUOUS
 62
         7
100
AcDbCircle
 10
18.1959516742
 20
17.4363757451
 30
0.0
 40
0.078
  0
CIRCLE
  5
30
100
AcDbEntity
  8
83949G66
  6
CONTINUOUS
 62
         7
100
AcDbCircle
 10
18.1959516742
 20
14.1553757451
 30
0.0
 40
0.078
  0
CIRCLE
  5
31
100
AcDbEntity
  8
83949G66
  6
CONTINUOUS
 62
         7
100
AcDbCircle
 10
16.3079516742
 20
14.1553757451
 30
0.0
 40
0.078
  0
CIRCLE
  5
32
100
AcDbEntity
  8
83949G66
  6
CONTINUOUS
 62
         7
100
AcDbCircle
 10
16.3079516742
 20
17.4363757451
 30
0.0
 40
0.078
  0
LINE
  5
33
100
AcDbEntity
  8
83949G66
  6
CONTINUOUS
 62
         7
100
AcDbLine
 10
18.7069516742
 20
16.9068401803
 30
0.0
 11
18.6847092198
 21
16.9068401803
 31
0.0
  0
LINE
  5
34
100
AcDbEntity
  8
83949G66
  6
HIDDEN2
 62
         7
100
AcDbLine
 10
18.6847092198
 20
16.9068401803
 30
0.0
 11
15.8191941285
 21
16.9068401803
 31
0.0
  0
LINE
  5
35
100
AcDbEntity
  8
83949G66
  6
CONTINUOUS
 62
         7
100
AcDbLine
 10
15.8191941285
 20
16.9068401803
 30
0.0
 11
15.7969516742
 21
16.9068401803
 31
0.0
  0
LINE
  5
36
100
AcDbEntity
  8
83949G66
  6
CONTINUOUS
 62
         7
100
AcDbLine
 10
18.7069516742
 20
14.6868401803
 30
0.0
 11
18.7069516742
 21
14.7022237883
 31
0.0
  0
LINE
  5
37
100
AcDbEntity
  8
83949G66
  6
HIDDEN2
 62
         7
100
AcDbLine
 10
18.7069516742
 20
14.7022237883
 30
0.0
 11
18.7069516742
 21
16.8914565723
 31
0.0
  0
LINE
  5
38
100
AcDbEntity
  8
83949G66
  6
CONTINUOUS
 62
         7
100
AcDbLine
 10
18.7069516742
 20
16.8914565723
 30
0.0
 11
18.7069516742
 21
16.9068401803
 31
0.0
  0
LINE
  5
39
100
AcDbEntity
  8
83949G66
  6
CONTINUOUS
 62
         7
100
AcDbLine
 10
15.7969516742
 20
16.9068401803
 30
0.0
 11
15.7969516742
 21
16.8914565723
 31
0.0
  0
LINE
  5
3A
100
AcDbEntity
  8
83949G66
  6
HIDDEN2
 62
         7
100
AcDbLine
 10
15.7969516742
 20
16.8914565723
 30
0.0
 11
15.7969516742
 21
14.7022237883
 31
0.0
  0
LINE
  5
3B
100
AcDbEntity
  8
83949G66
  6
CONTINUOUS
 62
         7
100
AcDbLine
 10
15.7969516742
 20
14.7022237883
 30
0.0
 11
15.7969516742
 21
14.6868401803
 31
0.0
  0
LINE
  5
3C
100
AcDbEntity
  8
83949G66
  6
CONTINUOUS
 62
         7
100
AcDbLine
 10
15.3319516742
 20
17.9763401803
 30
0.0
 11
15.3319516742
 21
13.6173401803
 31
0.0
  0
LINE
  5
3D
100
AcDbEntity
  8
83949G66
  6
CONTINUOUS
 62
         7
100
AcDbLine
 10
15.3319516742
 20
13.6173401803
 30
0.0
 11
19.1719516742
 21
13.6173401803
 31
0.0
  0
LINE
  5
3E
100
AcDbEntity
  8
83949G66
  6
CONTINUOUS
 62
         7
100
AcDbLine
 10
15.7969516742
 20
14.6868401803
 30
0.0
 11
15.8191941285
 21
14.6868401803
 31
0.0
  0
LINE
  5
3F
100
AcDbEntity
  8
83949G66
  6
HIDDEN2
 62
         7
100
AcDbLine
 10
15.8191941285
 20
14.6868401803
 30
0.0
 11
18.6847092198
 21
14.6868401803
 31
0.0
  0
LINE
  5
40
100
AcDbEntity
  8
83949G66
  6
CONTINUOUS
 62
         7
100
AcDbLine
 10
18.6847092198
 20
14.6868401803
 30
0.0
 11
18.7069516742
 21
14.6868401803
 31
0.0
  0
LINE
  5
41
100
AcDbEntity
  8
AC-MAB
  6
HIDDEN2
 62
         7
100
AcDbLine
 10
16.6849516742
 20
16.9598401803
 30
0.0
 11
16.6849516742
 21
16.9798401803
 31
0.0
  0
LINE
  5
42
100
AcDbEntity
  8
AC-MAB
  6
HIDDEN2
 62
         7
100
AcDbLine
 10
16.6849516742
 20
16.9398401803
 30
0.0
 11
16.6849516742
 21
16.9598401803
 31
0.0
  0
LINE
  5
43
100
AcDbEntity
  8
AC-MAB
  6
HIDDEN2
 62
         7
100
AcDbLine
 10
16.4189516742
 20
16.9798401803
 30
0.0
 11
16.4189516742
 21
16.9598401803
 31
0.0
  0
LINE
  5
44
100
AcDbEntity
  8
AC-MAB
  6
HIDDEN2
 62
         7
100
AcDbLine
 10
16.6849516742
 20
16.9328401803
 30
0.0
 11
16.6849516742
 21
16.9398401803
 31
0.0
  0
LINE
  5
45
100
AcDbEntity
  8
AC-MAB
  6
HIDDEN2
 62
         7
100
AcDbLine
 10
16.4189516742
 20
16.9598401803
 30
0.0
 11
16.4189516742
 21
16.9398401803
 31
0.0
  0
LINE
  5
46
100
AcDbEntity
  8
AC-MAB
  6
HIDDEN2
 62
         7
100
AcDbLine
 10
16.4189516742
 20
16.9398401803
 30
0.0
 11
16.4189516742
 21
16.9328401803
 31
0.0
  0
LINE
  5
47
100
AcDbEntity
  8
AC-MAB
  6
HIDDEN2
 62
         7
100
AcDbLine
 10
16.6849516742
 20
16.9798401803
 30
0.0
 11
16.4189516742
 21
16.9798401803
 31
0.0
  0
LINE
  5
48
100
AcDbEntity
  8
AC-MAB
  6
HIDDEN2
 62
         7
100
AcDbLine
 10
16.6849516742
 20
16.9598401803
 30
0.0
 11
16.4189516742
 21
16.9598401803
 31
0.0
  0
LINE
  5
49
100
AcDbEntity
  8
AC-MAB
  6
HIDDEN2
 62
         7
100
AcDbLine
 10
16.6849516742
 20
16.9398401803
 30
0.0
 11
16.4189516742
 21
16.9398401803
 31
0.0
  0
LINE
  5
4A
100
AcDbEntity
  8
AC-MAB
  6
CONTINUOUS
 62
         7
100
AcDbLine
 10
18.6619516742
 20
14.8518401803
 30
0.0
 11
18.6619516742
 21
16.7418401803
 31
0.0
  0
LINE
  5
4B
100
AcDbEntity
  8
AC-MAB
  6
CONTINUOUS
 62
         7
100
AcDbLine
 10
18.6619516742
 20
16.7418401803
 30
0.0
 11
15.8419516742
 21
16.7418401803
 31
0.0
  0
LINE
  5
4C
100
AcDbEntity
  8
AC-MAB
  6
CONTINUOUS
 62
         7
100
AcDbLine
 10
15.8419516742
 20
16.7418401803
 30
0.0
 11
15.8419516742
 21
14.8518401803
 31
0.0
  0
LINE
  5
4D
100
AcDbEntity
  8
AC-MAB
  6
CONTINUOUS
 62
         7
100
AcDbLine
 10
15.8419516742
 20
14.8518401803
 30
0.0
 11
18.6619516742
 21
14.8518401803
 31
0.0
  0
LINE
  5
4E
100
AcDbEntity
  8
AC-MAB
  6
CONTINUOUS
 62
         7
100
AcDbLine
 10
18.5894516742
 20
14.6608401803
 30
0.0
 11
15.9144516742
 21
14.6608401803
 31
0.0
  0
ARC
  5
4F
100
AcDbEntity
  8
AC-MAB
  6
CONTINUOUS
 62
         7
100
AcDbCircle
 10
18.5894516742
 20
14.8483401803
 30
0.0
 40
0.1875
100
AcDbArc
 50
270.0
 51
360.0
  0
LINE
  5
50
100
AcDbEntity
  8
AC-MAB
  6
CONTINUOUS
 62
         7
100
AcDbLine
 10
18.7769516742
 20
16.7453401803
 30
0.0
 11
18.7769516742
 21
14.8483401803
 31
0.0
  0
ARC
  5
51
100
AcDbEntity
  8
AC-MAB
  6
CONTINUOUS
 62
         7
100
AcDbCircle
 10
18.5894516742
 20
16.7453401803
 30
0.0
 40
0.1875
100
AcDbArc
 50
0.0
 51
90.0
  0
ARC
  5
52
100
AcDbEntity
  8
AC-MAB
  6
CONTINUOUS
 62
         7
100
AcDbCircle
 10
15.9144516742
 20
14.8483401803
 30
0.0
 40
0.1875
100
AcDbArc
 50
180.0
 51
270.0
  0
LINE
  5
53
100
AcDbEntity
  8
AC-MAB
  6
CONTINUOUS
 62
         7
100
AcDbLine
 10
15.7269516742
 20
14.8483401803
 30
0.0
 11
15.7269516742
 21
16.7453401803
 31
0.0
  0
LINE
  5
54
100
AcDbEntity
  8
AC-MAB
  6
CONTINUOUS
 62
         7
100
AcDbLine
 10
18.6619516742
 20
14.9068401803
 30
0.0
 11
15.8419516742
 21
14.9068401803
 31
0.0
  0
LINE
  5
55
100
AcDbEntity
  8
AC-MAB
  6
CONTINUOUS
 62
         7
100
AcDbLine
 10
15.9144516742
 20
16.9328401803
 30
0.0
 11
18.5894516742
 21
16.9328401803
 31
0.0
  0
ARC
  5
56
100
AcDbEntity
  8
AC-MAB
  6
CONTINUOUS
 62
         7
100
AcDbCircle
 10
15.9144516742
 20
16.7453401803
 30
0.0
 40
0.1875
100
AcDbArc
 50
90.0
 51
180.0
  0
LINE
  5
57
100
AcDbEntity
  8
AC-MAB
  6
CONTINUOUS
 62
         7
100
AcDbLine
 10
15.8419516742
 20
16.6868401803
 30
0.0
 11
18.6619516742
 21
16.6868401803
 31
0.0
  0
LINE
  5
58
100
AcDbEntity
  8
AC-MAB
  6
HIDDEN2
 62
         7
100
AcDbLine
 10
17.8189516742
 20
14.6338401803
 30
0.0
 11
17.8189516742
 21
14.6138401803
 31
0.0
  0
LINE
  5
59
100
AcDbEntity
  8
AC-MAB
  6
HIDDEN2
 62
         7
100
AcDbLine
 10
17.8189516742
 20
14.6538401803
 30
0.0
 11
17.8189516742
 21
14.6338401803
 31
0.0
  0
LINE
  5
5A
100
AcDbEntity
  8
AC-MAB
  6
HIDDEN2
 62
         7
100
AcDbLine
 10
17.8189516742
 20
14.6608401803
 30
0.0
 11
17.8189516742
 21
14.6538401803
 31
0.0
  0
LINE
  5
5B
100
AcDbEntity
  8
AC-MAB
  6
HIDDEN2
 62
         7
100
AcDbLine
 10
18.0849516742
 20
14.6138401803
 30
0.0
 11
18.0849516742
 21
14.6338401803
 31
0.0
  0
LINE
  5
5C
100
AcDbEntity
  8
AC-MAB
  6
HIDDEN2
 62
         7
100
AcDbLine
 10
18.0849516742
 20
14.6338401803
 30
0.0
 11
18.0849516742
 21
14.6538401803
 31
0.0
  0
LINE
  5
5D
100
AcDbEntity
  8
AC-MAB
  6
HIDDEN2
 62
         7
100
AcDbLine
 10
17.8189516742
 20
14.6138401803
 30
0.0
 11
18.0849516742
 21
14.6138401803
 31
0.0
  0
LINE
  5
5E
100
AcDbEntity
  8
AC-MAB
  6
HIDDEN2
 62
         7
100
AcDbLine
 10
18.0849516742
 20
14.6538401803
 30
0.0
 11
18.0849516742
 21
14.6608401803
 31
0.0
  0
LINE
  5
5F
100
AcDbEntity
  8
AC-MAB
  6
HIDDEN2
 62
         7
100
AcDbLine
 10
17.8189516742
 20
14.6338401803
 30
0.0
 11
18.0849516742
 21
14.6338401803
 31
0.0
  0
LINE
  5
60
100
AcDbEntity
  8
AC-MAB
  6
HIDDEN2
 62
         7
100
AcDbLine
 10
17.8189516742
 20
14.6538401803
 30
0.0
 11
18.0849516742
 21
14.6538401803
 31
0.0
  0
LINE
  5
61
100
AcDbEntity
  8
AC-MAB
  6
HIDDEN2
 62
         7
100
AcDbLine
 10
17.8189516742
 20
16.9598401803
 30
0.0
 11
17.8189516742
 21
16.9398401803
 31
0.0
  0
LINE
  5
62
100
AcDbEntity
  8
AC-MAB
  6
HIDDEN2
 62
         7
100
AcDbLine
 10
17.8189516742
 20
16.9398401803
 30
0.0
 11
17.8189516742
 21
16.9328401803
 31
0.0
  0
LINE
  5
63
100
AcDbEntity
  8
AC-MAB
  6
HIDDEN2
 62
         7
100
AcDbLine
 10
17.8189516742
 20
16.9798401803
 30
0.0
 11
17.8189516742
 21
16.9598401803
 31
0.0
  0
LINE
  5
64
100
AcDbEntity
  8
AC-MAB
  6
HIDDEN2
 62
         7
100
AcDbLine
 10
18.0849516742
 20
16.9328401803
 30
0.0
 11
18.0849516742
 21
16.9398401803
 31
0.0
  0
LINE
  5
65
100
AcDbEntity
  8
AC-MAB
  6
HIDDEN2
 62
         7
100
AcDbLine
 10
18.0849516742
 20
16.9598401803
 30
0.0
 11
18.0849516742
 21
16.9798401803
 31
0.0
  0
LINE
  5
66
100
AcDbEntity
  8
AC-MAB
  6
HIDDEN2
 62
         7
100
AcDbLine
 10
18.0849516742
 20
16.9398401803
 30
0.0
 11
18.0849516742
 21
16.9598401803
 31
0.0
  0
LINE
  5
67
100
AcDbEntity
  8
AC-MAB
  6
HIDDEN2
 62
         7
100
AcDbLine
 10
17.8189516742
 20
16.9798401803
 30
0.0
 11
18.0849516742
 21
16.9798401803
 31
0.0
  0
LINE
  5
68
100
AcDbEntity
  8
AC-MAB
  6
HIDDEN2
 62
         7
100
AcDbLine
 10
17.8189516742
 20
16.9598401803
 30
0.0
 11
18.0849516742
 21
16.9598401803
 31
0.0
  0
LINE
  5
69
100
AcDbEntity
  8
AC-MAB
  6
HIDDEN2
 62
         7
100
AcDbLine
 10
17.8189516742
 20
16.9398401803
 30
0.0
 11
18.0849516742
 21
16.9398401803
 31
0.0
  0
LINE
  5
6A
100
AcDbEntity
  8
AC-MAB
  6
HIDDEN2
 62
         7
100
AcDbLine
 10
16.6849516742
 20
14.6338401803
 30
0.0
 11
16.6849516742
 21
14.6538401803
 31
0.0
  0
LINE
  5
6B
100
AcDbEntity
  8
AC-MAB
  6
HIDDEN2
 62
         7
100
AcDbLine
 10
16.6849516742
 20
14.6538401803
 30
0.0
 11
16.6849516742
 21
14.6608401803
 31
0.0
  0
LINE
  5
6C
100
AcDbEntity
  8
AC-MAB
  6
HIDDEN2
 62
         7
100
AcDbLine
 10
16.6849516742
 20
14.6138401803
 30
0.0
 11
16.6849516742
 21
14.6338401803
 31
0.0
  0
LINE
  5
6D
100
AcDbEntity
  8
AC-MAB
  6
HIDDEN2
 62
         7
100
AcDbLine
 10
16.4189516742
 20
14.6608401803
 30
0.0
 11
16.4189516742
 21
14.6538401803
 31
0.0
  0
LINE
  5
6E
100
AcDbEntity
  8
AC-MAB
  6
HIDDEN2
 62
         7
100
AcDbLine
 10
16.4189516742
 20
14.6338401803
 30
0.0
 11
16.4189516742
 21
14.6138401803
 31
0.0
  0
LINE
  5
6F
100
AcDbEntity
  8
AC-MAB
  6
HIDDEN2
 62
         7
100
AcDbLine
 10
16.4189516742
 20
14.6538401803
 30
0.0
 11
16.4189516742
 21
14.6338401803
 31
0.0
  0
LINE
  5
70
100
AcDbEntity
  8
AC-MAB
  6
HIDDEN2
 62
         7
100
AcDbLine
 10
16.6849516742
 20
14.6138401803
 30
0.0
 11
16.4189516742
 21
14.6138401803
 31
0.0
  0
LINE
  5
71
100
AcDbEntity
  8
AC-MAB
  6
HIDDEN2
 62
         7
100
AcDbLine
 10
16.6849516742
 20
14.6338401803
 30
0.0
 11
16.4189516742
 21
14.6338401803
 31
0.0
  0
LINE
  5
72
100
AcDbEntity
  8
AC-MAB
  6
HIDDEN2
 62
         7
100
AcDbLine
 10
16.6849516742
 20
14.6538401803
 30
0.0
 11
16.4189516742
 21
14.6538401803
 31
0.0
  0
POLYLINE
  5
73
100
AcDbEntity
  8
0
  6
CONTINUOUS
 62
       136
100
AcDb2dPolyline
 66
         1
 10
0.0
 20
0.0
 30
0.0
  0
VERTEX
  5
74
100
AcDbEntity
  8
0
  6
CONTINUOUS
 62
       136
100
AcDbVertex
100
AcDb2dVertex
 10
15.4569516727
 20
18.84290813
 30
0.0
  0
VERTEX
  5
75
100
AcDbEntity
  8
0
  6
CONTINUOUS
 62
       136
100
AcDbVertex
100
AcDb2dVertex
 10
15.3319516742
 20
18.822074797
 30
0.0
  0
VERTEX
  5
76
100
AcDbEntity
  8
0
  6
CONTINUOUS
 62
       136
100
AcDbVertex
100
AcDb2dVertex
 10
15.4569516727
 20
18.8012414639
 30
0.0
  0
VERTEX
  5
77
100
AcDbEntity
  8
0
  6
CONTINUOUS
 62
       136
100
AcDbVertex
100
AcDb2dVertex
 10
15.4569516727
 20
18.84290813
 30
0.0
  0
SEQEND
  5
78
100
AcDbEntity
  8
0
  6
CONTINUOUS
 62
       136
  0
POLYLINE
  5
79
100
AcDbEntity
  8
0
  6
CONTINUOUS
 62
       136
100
AcDb2dPolyline
 66
         1
 10
0.0
 20
0.0
 30
0.0
  0
VERTEX
  5
7A
100
AcDbEntity
  8
0
  6
CONTINUOUS
 62
       136
100
AcDbVertex
100
AcDb2dVertex
 10
19.0469516757
 20
18.84290813
 30
0.0
  0
VERTEX
  5
7B
100
AcDbEntity
  8
0
  6
CONTINUOUS
 62
       136
100
AcDbVertex
100
AcDb2dVertex
 10
19.1719516742
 20
18.822074797
 30
0.0
  0
VERTEX
  5
7C
100
AcDbEntity
  8
0
  6
CONTINUOUS
 62
       136
100
AcDbVertex
100
AcDb2dVertex
 10
19.0469516757
 20
18.8012414639
 30
0.0
  0
VERTEX
  5
7D
100
AcDbEntity
  8
0
  6
CONTINUOUS
 62
       136
100
AcDbVertex
100
AcDb2dVertex
 10
19.0469516757
 20
18.84290813
 30
0.0
  0
SEQEND
  5
7E
100
AcDbEntity
  8
0
  6
CONTINUOUS
 62
       136
  0
LINE
  5
7F
100
AcDbEntity
  8
0
  6
CONTINUOUS
 62
       136
100
AcDbLine
 10
15.3319516742
 20
18.0388401795
 30
0.0
 11
15.3319516742
 21
18.8845747962
 31
0.0
  0
LINE
  5
80
100
AcDbEntity
  8
0
  6
CONTINUOUS
 62
       136
100
AcDbLine
 10
19.1719516742
 20
18.0388401795
 30
0.0
 11
19.1719516742
 21
18.8845747962
 31
0.0
  0
LINE
  5
81
100
AcDbEntity
  8
0
  6
CONTINUOUS
 62
       136
100
AcDbLine
 10
15.3319516742
 20
18.822074797
 30
0.0
 11
16.9147233899
 21
18.822074797
 31
0.0
  0
LINE
  5
82
100
AcDbEntity
  8
0
  6
CONTINUOUS
 62
       136
100
AcDbLine
 10
17.5891799585
 20
18.822074797
 30
0.0
 11
19.1719516742
 21
18.822074797
 31
0.0
  0
TEXT
  5
83
100
AcDbEntity
  8
0
  6
CONTINUOUS
 62
       136
100
AcDbText
 10
16.9584733666
 20
18.759574797
 30
0.0
 40
0.125
  1
3 13/16
  7
ARIAL_TTF
 11
16.9584733666
 21
18.884574797
 31
0.0
100
AcDbText
 73
         3
  0
POLYLINE
  5
84
100
AcDbEntity
  8
0
  6
CONTINUOUS
 62
       136
100
AcDb2dPolyline
 66
         1
 10
0.0
 20
0.0
 30
0.0
  0
VERTEX
  5
85
100
AcDbEntity
  8
0
  6
CONTINUOUS
 62
       136
100
AcDbVertex
100
AcDb2dVertex
 10
18.5369516757
 20
18.3828494903
 30
0.0
  0
VERTEX
  5
86
100
AcDbEntity
  8
0
  6
CONTINUOUS
 62
       136
100
AcDbVertex
100
AcDb2dVertex
 10
18.6619516742
 20
18.3620161572
 30
0.0
  0
VERTEX
  5
87
100
AcDbEntity
  8
0
  6
CONTINUOUS
 62
       136
100
AcDbVertex
100
AcDb2dVertex
 10
18.5369516757
 20
18.3411828241
 30
0.0
  0
VERTEX
  5
88
100
AcDbEntity
  8
0
  6
CONTINUOUS
 62
       136
100
AcDbVertex
100
AcDb2dVertex
 10
18.5369516757
 20
18.3828494903
 30
0.0
  0
SEQEND
  5
89
100
AcDbEntity
  8
0
  6
CONTINUOUS
 62
       136
  0
POLYLINE
  5
8A
100
AcDbEntity
  8
0
  6
CONTINUOUS
 62
       136
100
AcDb2dPolyline
 66
         1
 10
0.0
 20
0.0
 30
0.0
  0
VERTEX
  5
8B
100
AcDbEntity
  8
0
  6
CONTINUOUS
 62
       136
100
AcDbVertex
100
AcDb2dVertex
 10
15.9669516727
 20
18.3828494903
 30
0.0
  0
VERTEX
  5
8C
100
AcDbEntity
  8
0
  6
CONTINUOUS
 62
       136
100
AcDbVertex
100
AcDb2dVertex
 10
15.8419516742
 20
18.3620161572
 30
0.0
  0
VERTEX
  5
8D
100
AcDbEntity
  8
0
  6
CONTINUOUS
 62
       136
100
AcDbVertex
100
AcDb2dVertex
 10
15.9669516727
 20
18.3411828241
 30
0.0
  0
VERTEX
  5
8E
100
AcDbEntity
  8
0
  6
CONTINUOUS
 62
       136
100
AcDbVertex
100
AcDb2dVertex
 10
15.9669516727
 20
18.3828494903
 30
0.0
  0
SEQEND
  5
8F
100
AcDbEntity
  8
0
  6
CONTINUOUS
 62
       136
  0
LINE
  5
90
100
AcDbEntity
  8
0
  6
CONTINUOUS
 62
       136
100
AcDbLine
 10
18.6619516742
 20
16.8043401795
 30
0.0
 11
18.6619516742
 21
18.4245161565
 31
0.0
  0
LINE
  5
91
100
AcDbEntity
  8
0
  6
CONTINUOUS
 62
       136
100
AcDbLine
 10
15.8419516742
 20
16.8043401795
 30
0.0
 11
15.8419516742
 21
18.4245161565
 31
0.0
  0
LINE
  5
92
100
AcDbEntity
  8
0
  6
CONTINUOUS
 62
       136
100
AcDbLine
 10
18.6619516742
 20
18.3620161572
 30
0.0
 11
17.5891799736
 21
18.3620161572
 31
0.0
  0
LINE
  5
93
100
AcDbEntity
  8
0
  6
CONTINUOUS
 62
       136
100
AcDbLine
 10
16.9147234481
 20
18.3620161572
 30
0.0
 11
15.8419516742
 21
18.3620161572
 31
0.0
  0
TEXT
  5
94
100
AcDbEntity
  8
0
  6
CONTINUOUS
 62
       136
100
AcDbText
 10
16.9584734751
 20
18.2995161572
 30
0.0
 40
0.125
  1
2 13/16
  7
ARIAL_TTF
 11
16.9584734751
 21
18.4245161572
 31
0.0
100
AcDbText
 73
         3
  0
POLYLINE
  5
95
100
AcDbEntity
  8
0
  6
CONTINUOUS
 62
       136
100
AcDb2dPolyline
 66
         1
 10
0.0
 20
0.0
 30
0.0
  0
VERTEX
  5
96
100
AcDbEntity
  8
0
  6
CONTINUOUS
 62
       136
100
AcDbVertex
100
AcDb2dVertex
 10
18.0709516757
 20
18.1458494497
 30
0.0
  0
VERTEX
  5
97
100
AcDbEntity
  8
0
  6
CONTINUOUS
 62
       136
100
AcDbVertex
100
AcDb2dVertex
 10
18.1959516742
 20
18.1250161166
 30
0.0
  0
VERTEX
  5
98
100
AcDbEntity
  8
0
  6
CONTINUOUS
 62
       136
100
AcDbVertex
100
AcDb2dVertex
 10
18.0709516757
 20
18.1041827835
 30
0.0
  0
VERTEX
  5
99
100
AcDbEntity
  8
0
  6
CONTINUOUS
 62
       136
100
AcDbVertex
100
AcDb2dVertex
 10
18.0709516757
 20
18.1458494497
 30
0.0
  0
SEQEND
  5
9A
100
AcDbEntity
  8
0
  6
CONTINUOUS
 62
       136
  0
POLYLINE
  5
9B
100
AcDbEntity
  8
0
  6
CONTINUOUS
 62
       136
100
AcDb2dPolyline
 66
         1
 10
0.0
 20
0.0
 30
0.0
  0
VERTEX
  5
9C
100
AcDbEntity
  8
0
  6
CONTINUOUS
 62
       136
100
AcDbVertex
100
AcDb2dVertex
 10
16.4329516727
 20
18.1458494497
 30
0.0
  0
VERTEX
  5
9D
100
AcDbEntity
  8
0
  6
CONTINUOUS
 62
       136
100
AcDbVertex
100
AcDb2dVertex
 10
16.3079516742
 20
18.1250161166
 30
0.0
  0
VERTEX
  5
9E
100
AcDbEntity
  8
0
  6
CONTINUOUS
 62
       136
100
AcDbVertex
100
AcDb2dVertex
 10
16.4329516727
 20
18.1041827835
 30
0.0
  0
VERTEX
  5
9F
100
AcDbEntity
  8
0
  6
CONTINUOUS
 62
       136
100
AcDbVertex
100
AcDb2dVertex
 10
16.4329516727
 20
18.1458494497
 30
0.0
  0
SEQEND
  5
A0
100
AcDbEntity
  8
0
  6
CONTINUOUS
 62
       136
  0
LINE
  5
A1
100
AcDbEntity
  8
0
  6
CONTINUOUS
 62
       136
100
AcDbLine
 10
18.1959516742
 20
17.4988757444
 30
0.0
 11
18.1959516742
 21
18.1875161158
 31
0.0
  0
LINE
  5
A2
100
AcDbEntity
  8
0
  6
CONTINUOUS
 62
       136
100
AcDbLine
 10
16.3079516742
 20
17.4988757444
 30
0.0
 11
16.3079516742
 21
18.1875161158
 31
0.0
  0
LINE
  5
A3
100
AcDbEntity
  8
0
  6
CONTINUOUS
 62
       136
100
AcDbLine
 10
18.1959516742
 20
18.1250161166
 30
0.0
 11
17.4913538604
 21
18.1250161166
 31
0.0
  0
LINE
  5
A4
100
AcDbEntity
  8
0
  6
CONTINUOUS
 62
       136
100
AcDbLine
 10
17.0125494879
 20
18.1250161166
 30
0.0
 11
16.3079516742
 21
18.1250161166
 31
0.0
  0
TEXT
  5
A5
100
AcDbEntity
  8
0
  6
CONTINUOUS
 62
       136
100
AcDbText
 10
17.0562994988
 20
18.0625161166
 30
0.0
 40
0.125
  1
1 7/8
  7
ARIAL_TTF
 11
17.0562994988
 21
18.1875161166
 31
0.0
100
AcDbText
 73
         3
  0
POLYLINE
  5
A6
100
AcDbEntity
  8
0
  6
CONTINUOUS
 62
       136
100
AcDb2dPolyline
 66
         1
 10
0.0
 20
0.0
 30
0.0
  0
VERTEX
  5
A7
100
AcDbEntity
  8
0
  6
CONTINUOUS
 62
       136
100
AcDbVertex
100
AcDb2dVertex
 10
21.0926664863
 20
17.8513401818
 30
0.0
  0
VERTEX
  5
A8
100
AcDbEntity
  8
0
  6
CONTINUOUS
 62
       136
100
AcDbVertex
100
AcDb2dVertex
 10
21.0718331533
 20
17.9763401803
 30
0.0
  0
VERTEX
  5
A9
100
AcDbEntity
  8
0
  6
CONTINUOUS
 62
       136
100
AcDbVertex
100
AcDb2dVertex
 10
21.0509998202
 20
17.8513401818
 30
0.0
  0
VERTEX
  5
AA
100
AcDbEntity
  8
0
  6
CONTINUOUS
 62
       136
100
AcDbVertex
100
AcDb2dVertex
 10
21.0926664863
 20
17.8513401818
 30
0.0
  0
SEQEND
  5
AB
100
AcDbEntity
  8
0
  6
CONTINUOUS
 62
       136
  0
POLYLINE
  5
AC
100
AcDbEntity
  8
0
  6
CONTINUOUS
 62
       136
100
AcDb2dPolyline
 66
         1
 10
0.0
 20
0.0
 30
0.0
  0
VERTEX
  5
AD
100
AcDbEntity
  8
0
  6
CONTINUOUS
 62
       136
100
AcDbVertex
100
AcDb2dVertex
 10
21.0926664863
 20
13.7423401788
 30
0.0
  0
VERTEX
  5
AE
100
AcDbEntity
  8
0
  6
CONTINUOUS
 62
       136
100
AcDbVertex
100
AcDb2dVertex
 10
21.0718331533
 20
13.6173401803
 30
0.0
  0
VERTEX
  5
AF
100
AcDbEntity
  8
0
  6
CONTINUOUS
 62
       136
100
AcDbVertex
100
AcDb2dVertex
 10
21.0509998202
 20
13.7423401788
 30
0.0
  0
VERTEX
  5
B0
100
AcDbEntity
  8
0
  6
CONTINUOUS
 62
       136
100
AcDbVertex
100
AcDb2dVertex
 10
21.0926664863
 20
13.7423401788
 30
0.0
  0
SEQEND
  5
B1
100
AcDbEntity
  8
0
  6
CONTINUOUS
 62
       136
  0
LINE
  5
B2
100
AcDbEntity
  8
0
  6
CONTINUOUS
 62
       136
100
AcDbLine
 10
19.2344516734
 20
17.9763401803
 30
0.0
 11
21.1343331525
 21
17.9763401803
 31
0.0
  0
LINE
  5
B3
100
AcDbEntity
  8
0
  6
CONTINUOUS
 62
       136
100
AcDbLine
 10
19.2344516734
 20
13.6173401803
 30
0.0
 11
21.1343331525
 21
13.6173401803
 31
0.0
  0
LINE
  5
B4
100
AcDbEntity
  8
0
  6
CONTINUOUS
 62
       136
100
AcDbLine
 10
21.0718331533
 20
17.9763401803
 30
0.0
 11
21.0718331533
 21
15.903090144
 31
0.0
  0
LINE
  5
B5
100
AcDbEntity
  8
0
  6
CONTINUOUS
 62
       136
100
AcDbLine
 10
21.0718331533
 20
15.6905902166
 30
0.0
 11
21.0718331533
 21
13.6173401803
 31
0.0
  0
TEXT
  5
B6
100
AcDbEntity
  8
0
  6
CONTINUOUS
 62
       136
100
AcDbText
 10
20.8761809793
 20
15.7343401714
 30
0.0
 40
0.125
  1
4 3/8
  7
ARIAL_TTF
 11
20.8761809793
 21
15.8593401714
 31
0.0
100
AcDbText
 73
         3
  0
POLYLINE
  5
B7
100
AcDbEntity
  8
0
  6
CONTINUOUS
 62
       136
100
AcDb2dPolyline
 66
         1
 10
0.0
 20
0.0
 30
0.0
  0
VERTEX
  5
B8
100
AcDbEntity
  8
0
  6
CONTINUOUS
 62
       136
100
AcDbVertex
100
AcDb2dVertex
 10
20.1307255605
 20
16.5618401818
 30
0.0
  0
VERTEX
  5
B9
100
AcDbEntity
  8
0
  6
CONTINUOUS
 62
       136
100
AcDbVertex
100
AcDb2dVertex
 10
20.1098922274
 20
16.6868401803
 30
0.0
  0
VERTEX
  5
BA
100
AcDbEntity
  8
0
  6
CONTINUOUS
 62
       136
100
AcDbVertex
100
AcDb2dVertex
 10
20.0890588944
 20
16.5618401818
 30
0.0
  0
VERTEX
  5
BB
100
AcDbEntity
  8
0
  6
CONTINUOUS
 62
       136
100
AcDbVertex
100
AcDb2dVertex
 10
20.1307255605
 20
16.5618401818
 30
0.0
  0
SEQEND
  5
BC
100
AcDbEntity
  8
0
  6
CONTINUOUS
 62
       136
  0
POLYLINE
  5
BD
100
AcDbEntity
  8
0
  6
CONTINUOUS
 62
       136
100
AcDb2dPolyline
 66
         1
 10
0.0
 20
0.0
 30
0.0
  0
VERTEX
  5
BE
100
AcDbEntity
  8
0
  6
CONTINUOUS
 62
       136
100
AcDbVertex
100
AcDb2dVertex
 10
20.1307255605
 20
15.0318401788
 30
0.0
  0
VERTEX
  5
BF
100
AcDbEntity
  8
0
  6
CONTINUOUS
 62
       136
100
AcDbVertex
100
AcDb2dVertex
 10
20.1098922274
 20
14.9068401803
 30
0.0
  0
VERTEX
  5
C0
100
AcDbEntity
  8
0
  6
CONTINUOUS
 62
       136
100
AcDbVertex
100
AcDb2dVertex
 10
20.0890588944
 20
15.0318401788
 30
0.0
  0
VERTEX
  5
C1
100
AcDbEntity
  8
0
  6
CONTINUOUS
 62
       136
100
AcDbVertex
100
AcDb2dVertex
 10
20.1307255605
 20
15.0318401788
 30
0.0
  0
SEQEND
  5
C2
100
AcDbEntity
  8
0
  6
CONTINUOUS
 62
       136
  0
LINE
  5
C3
100
AcDbEntity
  8
0
  6
CONTINUOUS
 62
       136
100
AcDbLine
 10
18.7244516734
 20
16.6868401803
 30
0.0
 11
20.1723922267
 21
16.6868401803
 31
0.0
  0
LINE
  5
C4
100
AcDbEntity
  8
0
  6
CONTINUOUS
 62
       136
100
AcDbLine
 10
18.7244516734
 20
14.9068401803
 30
0.0
 11
20.1723922267
 21
14.9068401803
 31
0.0
  0
LINE
  5
C5
100
AcDbEntity
  8
0
  6
CONTINUOUS
 62
       136
100
AcDbLine
 10
20.1098922274
 20
16.6868401803
 30
0.0
 11
20.1098922274
 21
15.9030901409
 31
0.0
  0
LINE
  5
C6
100
AcDbEntity
  8
0
  6
CONTINUOUS
 62
       136
100
AcDbLine
 10
20.1098922274
 20
15.6905901463
 30
0.0
 11
20.1098922274
 21
14.9068401803
 31
0.0
  0
TEXT
  5
C7
100
AcDbEntity
  8
0
  6
CONTINUOUS
 62
       136
100
AcDbText
 10
19.9142400535
 20
15.7343401683
 30
0.0
 40
0.125
  1
1 3/4
  7
ARIAL_TTF
 11
19.9142400535
 21
15.8593401683
 31
0.0
100
AcDbText
 73
         3
  0
LINE
  5
C8
100
AcDbEntity
  8
83949G66
  6
CONTINUOUS
 62
         7
100
AcDbLine
 10
15.3319516742
 20
11.0610362444
 30
0.0
 11
19.1719516742
 21
11.0610362444
 31
0.0
  0
LINE
  5
C9
100
AcDbEntity
  8
83949G66
  6
CONTINUOUS
 62
         7
100
AcDbLine
 10
15.3319516742
 20
11.0610362444
 30
0.0
 11
15.3319516742
 21
11.1210362444
 31
0.0
  0
LINE
  5
CA
100
AcDbEntity
  8
83949G66
  6
CONTINUOUS
 62
         7
100
AcDbLine
 10
19.1719516742
 20
11.0610362444
 30
0.0
 11
19.1719516742
 21
11.1210362444
 31
0.0
  0
LINE
  5
CB
100
AcDbEntity
  8
83949G66
  6
CONTINUOUS
 62
         7
100
AcDbLine
 10
15.3319516742
 20
11.1210362444
 30
0.0
 11
19.1719516742
 21
11.1210362444
 31
0.0
  0
LINE
  5
CC
100
AcDbEntity
  8
AC-MAB
  6
CONTINUOUS
 62
         7
100
AcDbLine
 10
16.9019516742
 20
10.4210362444
 30
0.0
 11
16.2019516742
 21
10.4210362444
 31
0.0
  0
LINE
  5
CD
100
AcDbEntity
  8
AC-MAB
  6
CONTINUOUS
 62
         7
100
AcDbLine
 10
16.2019516742
 20
10.4210362444
 30
0.0
 11
16.2019516742
 21
11.0610362444
 31
0.0
  0
LINE
  5
CE
100
AcDbEntity
  8
AC-MAB
  6
HIDDEN2
 62
         7
100
AcDbLine
 10
16.2019516742
 20
11.0610362444
 30
0.0
 11
16.2019516742
 21
11.1210362444
 31
0.0
  0
LINE
  5
CF
100
AcDbEntity
  8
AC-MAB
  6
CONTINUOUS
 62
         7
100
AcDbLine
 10
16.9019516742
 20
10.4210362444
 30
0.0
 11
16.9019516742
 21
11.0610362444
 31
0.0
  0
LINE
  5
D0
100
AcDbEntity
  8
AC-MAB
  6
HIDDEN2
 62
         7
100
AcDbLine
 10
16.9019516742
 20
11.0610362444
 30
0.0
 11
16.9019516742
 21
11.1210362444
 31
0.0
  0
LINE
  5
D1
100
AcDbEntity
  8
AC-MAB
  6
CONTINUOUS
 62
         7
100
AcDbLine
 10
18.3019516742
 20
10.8410362444
 30
0.0
 11
18.7019516742
 21
10.8410362444
 31
0.0
  0
LINE
  5
D2
100
AcDbEntity
  8
AC-MAB
  6
CONTINUOUS
 62
         7
100
AcDbLine
 10
15.8019516742
 20
10.8410362444
 30
0.0
 11
16.2019516742
 21
10.8410362444
 31
0.0
  0
LINE
  5
D3
100
AcDbEntity
  8
AC-MAB
  6
CONTINUOUS
 62
         7
100
AcDbLine
 10
18.7019516742
 20
10.8410362444
 30
0.0
 11
18.7019516742
 21
11.0610362444
 31
0.0
  0
LINE
  5
D4
100
AcDbEntity
  8
AC-MAB
  6
HIDDEN2
 62
         7
100
AcDbLine
 10
18.7019516742
 20
11.0610362444
 30
0.0
 11
18.7019516742
 21
11.1210362444
 31
0.0
  0
LINE
  5
D5
100
AcDbEntity
  8
AC-MAB
  6
CONTINUOUS
 62
         7
100
AcDbLine
 10
15.8019516742
 20
10.8410362444
 30
0.0
 11
15.8019516742
 21
11.0610362444
 31
0.0
  0
LINE
  5
D6
100
AcDbEntity
  8
AC-MAB
  6
HIDDEN2
 62
         7
100
AcDbLine
 10
15.8019516742
 20
11.0610362444
 30
0.0
 11
15.8019516742
 21
11.1210362444
 31
0.0
  0
LINE
  5
D7
100
AcDbEntity
  8
AC-MAB
  6
CONTINUOUS
 62
         7
100
AcDbLine
 10
16.7549516742
 20
10.7060362444
 30
0.0
 11
16.7549516742
 21
11.0610362444
 31
0.0
  0
LINE
  5
D8
100
AcDbEntity
  8
AC-MAB
  6
HIDDEN2
 62
         7
100
AcDbLine
 10
16.7549516742
 20
11.0610362444
 30
0.0
 11
16.7549516742
 21
11.1210362444
 31
0.0
  0
LINE
  5
D9
100
AcDbEntity
  8
AC-MAB
  6
HIDDEN2
 62
         7
100
AcDbLine
 10
16.3489516742
 20
11.1210362444
 30
0.0
 11
16.3489516742
 21
11.0610362444
 31
0.0
  0
LINE
  5
DA
100
AcDbEntity
  8
AC-MAB
  6
CONTINUOUS
 62
         7
100
AcDbLine
 10
16.3489516742
 20
11.0610362444
 30
0.0
 11
16.3489516742
 21
10.7060362444
 31
0.0
  0
ARC
  5
DB
100
AcDbEntity
  8
AC-MAB
  6
CONTINUOUS
 62
         7
100
AcDbCircle
 10
16.3839516742
 20
10.7060362444
 30
0.0
 40
0.035
100
AcDbArc
 50
180.0
 51
360.0
  0
LINE
  5
DC
100
AcDbEntity
  8
AC-MAB
  6
CONTINUOUS
 62
         7
100
AcDbLine
 10
16.4189516742
 20
10.7060362444
 30
0.0
 11
16.4189516742
 21
10.8880362444
 31
0.0
  0
LINE
  5
DD
100
AcDbEntity
  8
AC-MAB
  6
CONTINUOUS
 62
         7
100
AcDbLine
 10
16.6849516742
 20
10.8880362444
 30
0.0
 11
16.6849516742
 21
10.7060362444
 31
0.0
  0
ARC
  5
DE
100
AcDbEntity
  8
AC-MAB
  6
CONTINUOUS
 62
         7
100
AcDbCircle
 10
16.7199516742
 20
10.7060362444
 30
0.0
 40
0.035
100
AcDbArc
 50
180.0
 51
360.0
  0
ARC
  5
DF
100
AcDbEntity
  8
AC-MAB
  6
CONTINUOUS
 62
         7
100
AcDbCircle
 10
18.1199516742
 20
10.7060362444
 30
0.0
 40
0.035
100
AcDbArc
 50
180.0
 51
360.0
  0
LINE
  5
E0
100
AcDbEntity
  8
AC-MAB
  6
CONTINUOUS
 62
         7
100
AcDbLine
 10
17.8189516742
 20
10.7060362444
 30
0.0
 11
17.8189516742
 21
10.8880362444
 31
0.0
  0
LINE
  5
E1
100
AcDbEntity
  8
AC-MAB
  6
HIDDEN2
 62
         7
100
AcDbLine
 10
17.7489516742
 20
11.1210362444
 30
0.0
 11
17.7489516742
 21
11.0610362444
 31
0.0
  0
LINE
  5
E2
100
AcDbEntity
  8
AC-MAB
  6
CONTINUOUS
 62
         7
100
AcDbLine
 10
17.7489516742
 20
11.0610362444
 30
0.0
 11
17.7489516742
 21
10.7060362444
 31
0.0
  0
ARC
  5
E3
100
AcDbEntity
  8
AC-MAB
  6
CONTINUOUS
 62
         7
100
AcDbCircle
 10
17.7839516742
 20
10.7060362444
 30
0.0
 40
0.035
100
AcDbArc
 50
180.0
 51
360.0
  0
LINE
  5
E4
100
AcDbEntity
  8
AC-MAB
  6
CONTINUOUS
 62
         7
100
AcDbLine
 10
18.1549516742
 20
10.7060362444
 30
0.0
 11
18.1549516742
 21
11.0610362444
 31
0.0
  0
LINE
  5
E5
100
AcDbEntity
  8
AC-MAB
  6
HIDDEN2
 62
         7
100
AcDbLine
 10
18.1549516742
 20
11.0610362444
 30
0.0
 11
18.1549516742
 21
11.1210362444
 31
0.0
  0
LINE
  5
E6
100
AcDbEntity
  8
AC-MAB
  6
CONTINUOUS
 62
         7
100
AcDbLine
 10
18.0849516742
 20
10.8880362444
 30
0.0
 11
18.0849516742
 21
10.7060362444
 31
0.0
  0
LINE
  5
E7
100
AcDbEntity
  8
AC-MAB
  6
CONTINUOUS
 62
         7
100
AcDbLine
 10
15.7269516742
 20
11.1210362444
 30
0.0
 11
15.7269516742
 21
11.1291614412
 31
0.0
  0
LINE
  5
E8
100
AcDbEntity
  8
AC-MAB
  6
CONTINUOUS
 62
         7
100
AcDbLine
 10
18.7769516742
 20
11.1291614412
 30
0.0
 11
18.7769516742
 21
11.1210362444
 31
0.0
  0
LINE
  5
E9
100
AcDbEntity
  8
AC-MAB
  6
CONTINUOUS
 62
         7
100
AcDbLine
 10
15.7738264773
 20
11.1760362444
 30
0.0
 11
15.9144516742
 21
11.1760362444
 31
0.0
  0
LINE
  5
EA
100
AcDbEntity
  8
AC-MAB
  6
CONTINUOUS
 62
         7
100
AcDbLine
 10
18.5894516742
 20
11.1760362444
 30
0.0
 11
18.730076871
 21
11.1760362444
 31
0.0
  0
LINE
  5
EB
100
AcDbEntity
  8
AC-MAB
  6
CONTINUOUS
 62
         7
100
AcDbLine
 10
15.9144516742
 20
11.1760362444
 30
0.0
 11
18.5894516742
 21
11.1760362444
 31
0.0
  0
LINE
  5
EC
100
AcDbEntity
  8
AC-MAB
  6
CONTINUOUS
 62
         7
100
AcDbLine
 10
16.9019516742
 20
10.8410362444
 30
0.0
 11
17.6019516742
 21
10.8410362444
 31
0.0
  0
LINE
  5
ED
100
AcDbEntity
  8
AC-MAB
  6
CONTINUOUS
 62
         7
100
AcDbLine
 10
16.3489516742
 20
10.9960362444
 30
0.0
 11
16.4189516742
 21
10.9960362444
 31
0.0
  0
LINE
  5
EE
100
AcDbEntity
  8
AC-MAB
  6
CONTINUOUS
 62
         7
100
AcDbLine
 10
16.6849516742
 20
10.9960362444
 30
0.0
 11
16.7549516742
 21
10.9960362444
 31
0.0
  0
LINE
  5
EF
100
AcDbEntity
  8
AC-MAB
  6
CONTINUOUS
 62
         7
100
AcDbLine
 10
17.7489516742
 20
10.9960362444
 30
0.0
 11
17.8189516742
 21
10.9960362444
 31
0.0
  0
LINE
  5
F0
100
AcDbEntity
  8
AC-MAB
  6
CONTINUOUS
 62
         7
100
AcDbLine
 10
18.0849516742
 20
10.9960362444
 30
0.0
 11
18.1549516742
 21
10.9960362444
 31
0.0
  0
ARC
  5
F1
100
AcDbEntity
  8
AC-MAB
  6
CONTINUOUS
 62
         7
100
AcDbCircle
 10
15.7738264773
 20
11.1291614412
 30
0.0
 40
0.0468748031
100
AcDbArc
 50
90.0
 51
180.0
  0
ARC
  5
F2
100
AcDbEntity
  8
AC-MAB
  6
CONTINUOUS
 62
         7
100
AcDbCircle
 10
18.730076871
 20
11.1291614412
 30
0.0
 40
0.0468748031
100
AcDbArc
 50
0.0
 51
90.0
  0
LINE
  5
F3
100
AcDbEntity
  8
AC-MAB
  6
CONTINUOUS
 62
         7
100
AcDbLine
 10
17.8189516742
 20
10.9960362444
 30
0.0
 11
17.8189516742
 21
10.9710362444
 31
0.0
  0
LINE
  5
F4
100
AcDbEntity
  8
AC-MAB
  6
CONTINUOUS
 62
         7
100
AcDbLine
 10
17.8189516742
 20
11.0460362444
 30
0.0
 11
17.8189516742
 21
11.0210362444
 31
0.0
  0
LINE
  5
F5
100
AcDbEntity
  8
AC-MAB
  6
CONTINUOUS
 62
         7
100
AcDbLine
 10
17.8189516742
 20
11.0210362444
 30
0.0
 11
17.8189516742
 21
10.9960362444
 31
0.0
  0
LINE
  5
F6
100
AcDbEntity
  8
AC-MAB
  6
HIDDEN2
 62
         7
100
AcDbLine
 10
17.8189516742
 20
11.0710362444
 30
0.0
 11
17.8189516742
 21
11.0610362444
 31
0.0
  0
LINE
  5
F7
100
AcDbEntity
  8
AC-MAB
  6
CONTINUOUS
 62
         7
100
AcDbLine
 10
17.8189516742
 20
11.0610362444
 30
0.0
 11
17.8189516742
 21
11.0460362444
 31
0.0
  0
LINE
  5
F8
100
AcDbEntity
  8
AC-MAB
  6
CONTINUOUS
 62
         7
100
AcDbLine
 10
18.0849516742
 20
11.0210362444
 30
0.0
 11
18.0849516742
 21
11.0460362444
 31
0.0
  0
LINE
  5
F9
100
AcDbEntity
  8
AC-MAB
  6
CONTINUOUS
 62
         7
100
AcDbLine
 10
18.0849516742
 20
10.9960362444
 30
0.0
 11
18.0849516742
 21
11.0210362444
 31
0.0
  0
LINE
  5
FA
100
AcDbEntity
  8
AC-MAB
  6
CONTINUOUS
 62
         7
100
AcDbLine
 10
18.0849516742
 20
10.9710362444
 30
0.0
 11
18.0849516742
 21
10.9960362444
 31
0.0
  0
LINE
  5
FB
100
AcDbEntity
  8
AC-MAB
  6
CONTINUOUS
 62
         7
100
AcDbLine
 10
18.0849516742
 20
11.0460362444
 30
0.0
 11
18.0849516742
 21
11.0610362444
 31
0.0
  0
LINE
  5
FC
100
AcDbEntity
  8
AC-MAB
  6
HIDDEN2
 62
         7
100
AcDbLine
 10
18.0849516742
 20
11.0610362444
 30
0.0
 11
18.0849516742
 21
11.0710362444
 31
0.0
  0
LINE
  5
FD
100
AcDbEntity
  8
AC-MAB
  6
CONTINUOUS
 62
         7
100
AcDbLine
 10
17.8189516742
 20
10.8880362444
 30
0.0
 11
18.0849516742
 21
10.8880362444
 31
0.0
  0
LINE
  5
FE
100
AcDbEntity
  8
AC-MAB
  6
CONTINUOUS
 62
         7
100
AcDbLine
 10
17.8189516742
 20
10.9960362444
 30
0.0
 11
18.0849516742
 21
10.9960362444
 31
0.0
  0
LINE
  5
FF
100
AcDbEntity
  8
AC-MAB
  6
CONTINUOUS
 62
         7
100
AcDbLine
 10
17.8189516742
 20
10.9710362444
 30
0.0
 11
18.0849516742
 21
10.9710362444
 31
0.0
  0
LINE
  5
100
100
AcDbEntity
  8
AC-MAB
  6
HIDDEN2
 62
         7
100
AcDbLine
 10
17.8189516742
 20
11.0710362444
 30
0.0
 11
18.0849516742
 21
11.0710362444
 31
0.0
  0
LINE
  5
101
100
AcDbEntity
  8
AC-MAB
  6
CONTINUOUS
 62
         7
100
AcDbLine
 10
17.8189516742
 20
11.0460362444
 30
0.0
 11
18.0849516742
 21
11.0460362444
 31
0.0
  0
LINE
  5
102
100
AcDbEntity
  8
AC-MAB
  6
CONTINUOUS
 62
         7
100
AcDbLine
 10
17.8189516742
 20
11.0210362444
 30
0.0
 11
18.0849516742
 21
11.0210362444
 31
0.0
  0
LINE
  5
103
100
AcDbEntity
  8
AC-MAB
  6
CONTINUOUS
 62
         7
100
AcDbLine
 10
18.0849516742
 20
10.8880362444
 30
0.0
 11
18.0849516742
 21
10.9710362444
 31
0.0
  0
LINE
  5
104
100
AcDbEntity
  8
AC-MAB
  6
CONTINUOUS
 62
         7
100
AcDbLine
 10
17.8189516742
 20
10.9710362444
 30
0.0
 11
17.8189516742
 21
10.8880362444
 31
0.0
  0
LINE
  5
105
100
AcDbEntity
  8
AC-MAB
  6
CONTINUOUS
 62
         7
100
AcDbLine
 10
18.3019516742
 20
10.4210362444
 30
0.0
 11
17.6019516742
 21
10.4210362444
 31
0.0
  0
LINE
  5
106
100
AcDbEntity
  8
AC-MAB
  6
CONTINUOUS
 62
         7
100
AcDbLine
 10
17.6019516742
 20
10.4210362444
 30
0.0
 11
17.6019516742
 21
11.0610362444
 31
0.0
  0
LINE
  5
107
100
AcDbEntity
  8
AC-MAB
  6
HIDDEN2
 62
         7
100
AcDbLine
 10
17.6019516742
 20
11.0610362444
 30
0.0
 11
17.6019516742
 21
11.1210362444
 31
0.0
  0
LINE
  5
108
100
AcDbEntity
  8
AC-MAB
  6
CONTINUOUS
 62
         7
100
AcDbLine
 10
18.3019516742
 20
10.4210362444
 30
0.0
 11
18.3019516742
 21
11.0610362444
 31
0.0
  0
LINE
  5
109
100
AcDbEntity
  8
AC-MAB
  6
HIDDEN2
 62
         7
100
AcDbLine
 10
18.3019516742
 20
11.0610362444
 30
0.0
 11
18.3019516742
 21
11.1210362444
 31
0.0
  0
LINE
  5
10A
100
AcDbEntity
  8
AC-MAB
  6
CONTINUOUS
 62
         7
100
AcDbLine
 10
16.6849516742
 20
11.0210362444
 30
0.0
 11
16.6849516742
 21
11.0460362444
 31
0.0
  0
LINE
  5
10B
100
AcDbEntity
  8
AC-MAB
  6
CONTINUOUS
 62
         7
100
AcDbLine
 10
16.6849516742
 20
10.9960362444
 30
0.0
 11
16.6849516742
 21
11.0210362444
 31
0.0
  0
LINE
  5
10C
100
AcDbEntity
  8
AC-MAB
  6
CONTINUOUS
 62
         7
100
AcDbLine
 10
16.6849516742
 20
10.8880362444
 30
0.0
 11
16.6849516742
 21
10.9710362444
 31
0.0
  0
LINE
  5
10D
100
AcDbEntity
  8
AC-MAB
  6
CONTINUOUS
 62
         7
100
AcDbLine
 10
16.6849516742
 20
10.9710362444
 30
0.0
 11
16.6849516742
 21
10.9960362444
 31
0.0
  0
LINE
  5
10E
100
AcDbEntity
  8
AC-MAB
  6
CONTINUOUS
 62
         7
100
AcDbLine
 10
16.4189516742
 20
11.0460362444
 30
0.0
 11
16.4189516742
 21
11.0210362444
 31
0.0
  0
LINE
  5
10F
100
AcDbEntity
  8
AC-MAB
  6
CONTINUOUS
 62
         7
100
AcDbLine
 10
16.4189516742
 20
11.0210362444
 30
0.0
 11
16.4189516742
 21
10.9960362444
 31
0.0
  0
LINE
  5
110
100
AcDbEntity
  8
AC-MAB
  6
CONTINUOUS
 62
         7
100
AcDbLine
 10
16.4189516742
 20
10.9960362444
 30
0.0
 11
16.4189516742
 21
10.9710362444
 31
0.0
  0
LINE
  5
111
100
AcDbEntity
  8
AC-MAB
  6
HIDDEN2
 62
         7
100
AcDbLine
 10
16.6849516742
 20
11.0710362444
 30
0.0
 11
16.4189516742
 21
11.0710362444
 31
0.0
  0
LINE
  5
112
100
AcDbEntity
  8
AC-MAB
  6
CONTINUOUS
 62
         7
100
AcDbLine
 10
16.6849516742
 20
11.0460362444
 30
0.0
 11
16.4189516742
 21
11.0460362444
 31
0.0
  0
LINE
  5
113
100
AcDbEntity
  8
AC-MAB
  6
CONTINUOUS
 62
         7
100
AcDbLine
 10
16.6849516742
 20
11.0210362444
 30
0.0
 11
16.4189516742
 21
11.0210362444
 31
0.0
  0
LINE
  5
114
100
AcDbEntity
  8
AC-MAB
  6
CONTINUOUS
 62
         7
100
AcDbLine
 10
16.4189516742
 20
10.9710362444
 30
0.0
 11
16.4189516742
 21
10.8880362444
 31
0.0
  0
LINE
  5
115
100
AcDbEntity
  8
AC-MAB
  6
CONTINUOUS
 62
         7
100
AcDbLine
 10
16.6849516742
 20
10.9960362444
 30
0.0
 11
16.4189516742
 21
10.9960362444
 31
0.0
  0
LINE
  5
116
100
AcDbEntity
  8
AC-MAB
  6
HIDDEN2
 62
         7
100
AcDbLine
 10
16.4189516742
 20
11.0710362444
 30
0.0
 11
16.4189516742
 21
11.0610362444
 31
0.0
  0
LINE
  5
117
100
AcDbEntity
  8
AC-MAB
  6
CONTINUOUS
 62
         7
100
AcDbLine
 10
16.4189516742
 20
11.0610362444
 30
0.0
 11
16.4189516742
 21
11.0460362444
 31
0.0
  0
LINE
  5
118
100
AcDbEntity
  8
AC-MAB
  6
CONTINUOUS
 62
         7
100
AcDbLine
 10
16.6849516742
 20
11.0460362444
 30
0.0
 11
16.6849516742
 21
11.0610362444
 31
0.0
  0
LINE
  5
119
100
AcDbEntity
  8
AC-MAB
  6
HIDDEN2
 62
         7
100
AcDbLine
 10
16.6849516742
 20
11.0610362444
 30
0.0
 11
16.6849516742
 21
11.0710362444
 31
0.0
  0
LINE
  5
11A
100
AcDbEntity
  8
AC-MAB
  6
CONTINUOUS
 62
         7
100
AcDbLine
 10
16.6849516742
 20
10.8880362444
 30
0.0
 11
16.4189516742
 21
10.8880362444
 31
0.0
  0
LINE
  5
11B
100
AcDbEntity
  8
AC-MAB
  6
CONTINUOUS
 62
         7
100
AcDbLine
 10
16.6849516742
 20
10.9710362444
 30
0.0
 11
16.4189516742
 21
10.9710362444
 31
0.0
  0
POLYLINE
  5
11C
100
AcDbEntity
  8
0
  6
CONTINUOUS
 62
       136
100
AcDb2dPolyline
 66
         1
 10
0.0
 20
0.0
 30
0.0
  0
VERTEX
  5
11D
100
AcDbEntity
  8
0
  6
CONTINUOUS
 62
       136
100
AcDbVertex
100
AcDb2dVertex
 10
20.2228489255
 20
11.0510362459
 30
0.0
  0
VERTEX
  5
11E
100
AcDbEntity
  8
0
  6
CONTINUOUS
 62
       136
100
AcDbVertex
100
AcDb2dVertex
 10
20.2020155924
 20
11.1760362444
 30
0.0
  0
VERTEX
  5
11F
100
AcDbEntity
  8
0
  6
CONTINUOUS
 62
       136
100
AcDbVertex
100
AcDb2dVertex
 10
20.1811822593
 20
11.0510362459
 30
0.0
  0
VERTEX
  5
120
100
AcDbEntity
  8
0
  6
CONTINUOUS
 62
       136
100
AcDbVertex
100
AcDb2dVertex
 10
20.2228489255
 20
11.0510362459
 30
0.0
  0
SEQEND
  5
121
100
AcDbEntity
  8
0
  6
CONTINUOUS
 62
       136
  0
POLYLINE
  5
122
100
AcDbEntity
  8
0
  6
CONTINUOUS
 62
       136
100
AcDb2dPolyline
 66
         1
 10
0.0
 20
0.0
 30
0.0
  0
VERTEX
  5
123
100
AcDbEntity
  8
0
  6
CONTINUOUS
 62
       136
100
AcDbVertex
100
AcDb2dVertex
 10
20.2228489255
 20
10.5460362429
 30
0.0
  0
VERTEX
  5
124
100
AcDbEntity
  8
0
  6
CONTINUOUS
 62
       136
100
AcDbVertex
100
AcDb2dVertex
 10
20.2020155924
 20
10.4210362444
 30
0.0
  0
VERTEX
  5
125
100
AcDbEntity
  8
0
  6
CONTINUOUS
 62
       136
100
AcDbVertex
100
AcDb2dVertex
 10
20.1811822593
 20
10.5460362429
 30
0.0
  0
VERTEX
  5
126
100
AcDbEntity
  8
0
  6
CONTINUOUS
 62
       136
100
AcDbVertex
100
AcDb2dVertex
 10
20.2228489255
 20
10.5460362429
 30
0.0
  0
SEQEND
  5
127
100
AcDbEntity
  8
0
  6
CONTINUOUS
 62
       136
  0
LINE
  5
128
100
AcDbEntity
  8
0
  6
CONTINUOUS
 62
       136
100
AcDbLine
 10
18.7925768677
 20
11.1760362444
 30
0.0
 11
20.2645155916
 21
11.1760362444
 31
0.0
  0
LINE
  5
129
100
AcDbEntity
  8
0
  6
CONTINUOUS
 62
       136
100
AcDbLine
 10
18.3644516734
 20
10.4210362444
 30
0.0
 11
20.2645155916
 21
10.4210362444
 31
0.0
  0
LINE
  5
12A
100
AcDbEntity
  8
0
  6
CONTINUOUS
 62
       136
100
AcDbLine
 10
20.2020155924
 20
11.1760362444
 30
0.0
 11
20.2020155924
 21
10.9047862529
 31
0.0
  0
LINE
  5
12B
100
AcDbEntity
  8
0
  6
CONTINUOUS
 62
       136
100
AcDbLine
 10
20.2020155924
 20
10.6922862542
 30
0.0
 11
20.2020155924
 21
10.4210362444
 31
0.0
  0
TEXT
  5
12C
100
AcDbEntity
  8
0
  6
CONTINUOUS
 62
       136
100
AcDbText
 10
20.0797329837
 20
10.7360362619
 30
0.0
 40
0.125
  1
3/4
  7
ARIAL_TTF
 11
20.0797329837
 21
10.8610362619
 31
0.0
100
AcDbText
 73
         3
  0
POLYLINE
  5
12D
100
AcDbEntity
  8
0
  6
CONTINUOUS
 62
       136
100
AcDb2dPolyline
 66
         1
 10
0.0
 20
0.0
 30
0.0
  0
VERTEX
  5
12E
100
AcDbEntity
  8
0
  6
CONTINUOUS
 62
       136
100
AcDbVertex
100
AcDb2dVertex
 10
19.3663787319
 20
11.2460362429
 30
0.0
  0
VERTEX
  5
12F
100
AcDbEntity
  8
0
  6
CONTINUOUS
 62
       136
100
AcDbVertex
100
AcDb2dVertex
 10
19.3455453988
 20
11.1210362444
 30
0.0
  0
VERTEX
  5
130
100
AcDbEntity
  8
0
  6
CONTINUOUS
 62
       136
100
AcDbVertex
100
AcDb2dVertex
 10
19.3247120657
 20
11.2460362429
 30
0.0
  0
VERTEX
  5
131
100
AcDbEntity
  8
0
  6
CONTINUOUS
 62
       136
100
AcDbVertex
100
AcDb2dVertex
 10
19.3663787319
 20
11.2460362429
 30
0.0
  0
SEQEND
  5
132
100
AcDbEntity
  8
0
  6
CONTINUOUS
 62
       136
  0
POLYLINE
  5
133
100
AcDbEntity
  8
0
  6
CONTINUOUS
 62
       136
100
AcDb2dPolyline
 66
         1
 10
0.0
 20
0.0
 30
0.0
  0
VERTEX
  5
134
100
AcDbEntity
  8
0
  6
CONTINUOUS
 62
       136
100
AcDbVertex
100
AcDb2dVertex
 10
19.3663787319
 20
10.9360362459
 30
0.0
  0
VERTEX
  5
135
100
AcDbEntity
  8
0
  6
CONTINUOUS
 62
       136
100
AcDbVertex
100
AcDb2dVertex
 10
19.3455453988
 20
11.0610362444
 30
0.0
  0
VERTEX
  5
136
100
AcDbEntity
  8
0
  6
CONTINUOUS
 62
       136
100
AcDbVertex
100
AcDb2dVertex
 10
19.3247120657
 20
10.9360362459
 30
0.0
  0
VERTEX
  5
137
100
AcDbEntity
  8
0
  6
CONTINUOUS
 62
       136
100
AcDbVertex
100
AcDb2dVertex
 10
19.3663787319
 20
10.9360362459
 30
0.0
  0
SEQEND
  5
138
100
AcDbEntity
  8
0
  6
CONTINUOUS
 62
       136
  0
LINE
  5
139
100
AcDbEntity
  8
0
  6
CONTINUOUS
 62
       136
100
AcDbLine
 10
19.2344516734
 20
11.1210362444
 30
0.0
 11
19.4080453981
 21
11.1210362444
 31
0.0
  0
LINE
  5
13A
100
AcDbEntity
  8
0
  6
CONTINUOUS
 62
       136
100
AcDbLine
 10
19.2344516734
 20
11.0610362444
 30
0.0
 11
19.4080453981
 21
11.0610362444
 31
0.0
  0
LINE
  5
13B
100
AcDbEntity
  8
0
  6
CONTINUOUS
 62
       136
100
AcDbLine
 10
19.3455453988
 20
11.4646797179
 30
0.0
 11
19.7205454034
 21
11.4646797179
 31
0.0
  0
LINE
  5
13C
100
AcDbEntity
  8
0
  6
CONTINUOUS
 62
       136
100
AcDbLine
 10
19.3455453988
 20
11.4646797179
 30
0.0
 11
19.3455453988
 21
11.1210362444
 31
0.0
  0
LINE
  5
13D
100
AcDbEntity
  8
0
  6
CONTINUOUS
 62
       136
100
AcDbLine
 10
19.3455453988
 20
11.0610362444
 30
0.0
 11
19.3455453988
 21
10.8110362474
 31
0.0
  0
TEXT
  5
13E
100
AcDbEntity
  8
0
  6
CONTINUOUS
 62
       136
100
AcDbText
 10
19.7642954034
 20
11.4021797179
 30
0.0
 40
0.125
  1
1/16
  7
ARIAL_TTF
 11
19.7642954034
 21
11.5271797179
 31
0.0
100
AcDbText
 73
         3
  0
POLYLINE
  5
13F
100
AcDbEntity
  8
0
  6
CONTINUOUS
 62
       136
100
AcDb2dPolyline
 66
         1
 10
0.0
 20
0.0
 30
0.0
  0
VERTEX
  5
140
100
AcDbEntity
  8
0
  6
CONTINUOUS
 62
       136
100
AcDbVertex
100
AcDb2dVertex
 10
19.8659863237
 20
10.9360362459
 30
0.0
  0
VERTEX
  5
141
100
AcDbEntity
  8
0
  6
CONTINUOUS
 62
       136
100
AcDbVertex
100
AcDb2dVertex
 10
19.8451529906
 20
11.0610362444
 30
0.0
  0
VERTEX
  5
142
100
AcDbEntity
  8
0
  6
CONTINUOUS
 62
       136
100
AcDbVertex
100
AcDb2dVertex
 10
19.8243196576
 20
10.9360362459
 30
0.0
  0
VERTEX
  5
143
100
AcDbEntity
  8
0
  6
CONTINUOUS
 62
       136
100
AcDbVertex
100
AcDb2dVertex
 10
19.8659863237
 20
10.9360362459
 30
0.0
  0
SEQEND
  5
144
100
AcDbEntity
  8
0
  6
CONTINUOUS
 62
       136
  0
POLYLINE
  5
145
100
AcDbEntity
  8
0
  6
CONTINUOUS
 62
       136
100
AcDb2dPolyline
 66
         1
 10
0.0
 20
0.0
 30
0.0
  0
VERTEX
  5
146
100
AcDbEntity
  8
0
  6
CONTINUOUS
 62
       136
100
AcDbVertex
100
AcDb2dVertex
 10
19.8659863237
 20
10.5460362429
 30
0.0
  0
VERTEX
  5
147
100
AcDbEntity
  8
0
  6
CONTINUOUS
 62
       136
100
AcDbVertex
100
AcDb2dVertex
 10
19.8451529906
 20
10.4210362444
 30
0.0
  0
VERTEX
  5
148
100
AcDbEntity
  8
0
  6
CONTINUOUS
 62
       136
100
AcDbVertex
100
AcDb2dVertex
 10
19.8243196576
 20
10.5460362429
 30
0.0
  0
VERTEX
  5
149
100
AcDbEntity
  8
0
  6
CONTINUOUS
 62
       136
100
AcDbVertex
100
AcDb2dVertex
 10
19.8659863237
 20
10.5460362429
 30
0.0
  0
SEQEND
  5
14A
100
AcDbEntity
  8
0
  6
CONTINUOUS
 62
       136
  0
LINE
  5
14B
100
AcDbEntity
  8
0
  6
CONTINUOUS
 62
       136
100
AcDbLine
 10
19.2344516734
 20
11.0610362444
 30
0.0
 11
19.9076529899
 21
11.0610362444
 31
0.0
  0
LINE
  5
14C
100
AcDbEntity
  8
0
  6
CONTINUOUS
 62
       136
100
AcDbLine
 10
18.3644516734
 20
10.4210362444
 30
0.0
 11
19.9076529899
 21
10.4210362444
 31
0.0
  0
LINE
  5
14D
100
AcDbEntity
  8
0
  6
CONTINUOUS
 62
       136
100
AcDbLine
 10
19.8451529906
 20
11.0610362444
 30
0.0
 11
19.8451529906
 21
10.8472862186
 31
0.0
  0
LINE
  5
14E
100
AcDbEntity
  8
0
  6
CONTINUOUS
 62
       136
100
AcDbLine
 10
19.8451529906
 20
10.6347862334
 30
0.0
 11
19.8451529906
 21
10.4210362444
 31
0.0
  0
TEXT
  5
14F
100
AcDbEntity
  8
0
  6
CONTINUOUS
 62
       136
100
AcDbText
 10
19.7228703819
 20
10.6785362277
 30
0.0
 40
0.125
  1
5/8
  7
ARIAL_TTF
 11
19.7228703819
 21
10.8035362277
 31
0.0
100
AcDbText
 73
         3
  0
ENDSEC
  0
SECTION
  2
OBJECTS
  0
DICTIONARY
  5
19
100
AcDbDictionary
  3
ACAD_GROUP
350
1A
  3
ACAD_MLINESTYLE
350
1B
  0
DICTIONARY
  5
1A
102
{ACAD_REACTORS
330
19
102
}
100
AcDbDictionary
  0
DICTIONARY
  5
1B
102
{ACAD_REACTORS
330
19
102
}
100
AcDbDictionary
  3
STANDARD
350
1C
  0
MLINESTYLE
  5
1C
102
{ACAD_REACTORS
330
1B
102
}
100
AcDbMlineStyle
  2
STANDARD
 70
         0
  3

 62
         0
 51
90.0
 52
90.0
 71
         2
 49
0.5
 62
       256
  6
BYLAYER
 49
-0.5
 62
       256
  6
BYLAYER
  0
ENDSEC
  0
EOF
