  0
SECTION
  2
HEADER
  9
$ACADVER
  1
AC1012
  9
$DWGCODEPAGE
  3
ansi_1252
  9
$INSBASE
 10
0.0
 20
0.0
 30
0.0
  9
$EXTMIN
 10
0.0
 20
0.0
 30
0.0
  9
$EXTMAX
 10
34.0
 20
22.0
 30
0.0
  9
$LIMMIN
 10
0.0
 20
0.0
  9
$LIMMAX
 10
12.0
 20
9.0
  9
$ORTHOMODE
 70
         0
  9
$REGENMODE
 70
         1
  9
$FILLMODE
 70
         1
  9
$QTEXTMODE
 70
         0
  9
$MIRRTEXT
 70
         1
  9
$DRAGMODE
 70
         2
  9
$LTSCALE
 40
1.0
  9
$OSMODE
 70
         0
  9
$ATTMODE
 70
         1
  9
$TEXTSIZE
 40
0.2
  9
$TRACEWID
 40
0.05
  9
$TEXTSTYLE
  7
STANDARD
  9
$CLAYER
  8
0
  9
$CELTYPE
  6
CONTINUOUS
  9
$CECOLOR
 62
       256
  9
$CELTSCALE
 40
1.0
  9
$DELOBJ
 70
         1
  9
$DISPSILH
 70
         0
  9
$DIMSCALE
 40
1.0
  9
$DIMASZ
 40
0.18
  9
$DIMEXO
 40
0.0625
  9
$DIMDLI
 40
0.38
  9
$DIMRND
 40
0.0
  9
$DIMDLE
 40
0.0
  9
$DIMEXE
 40
0.18
  9
$DIMTP
 40
0.0
  9
$DIMTM
 40
0.0
  9
$DIMTXT
 40
0.18
  9
$DIMCEN
 40
0.09
  9
$DIMTSZ
 40
0.0
  9
$DIMTOL
 70
         0
  9
$DIMLIM
 70
         0
  9
$DIMTIH
 70
         1
  9
$DIMTOH
 70
         1
  9
$DIMSE1
 70
         0
  9
$DIMSE2
 70
         0
  9
$DIMTAD
 70
         0
  9
$DIMZIN
 70
         0
  9
$DIMBLK
  1

  9
$DIMASO
 70
         1
  9
$DIMSHO
 70
         1
  9
$DIMPOST
  1

  9
$DIMAPOST
  1

  9
$DIMALT
 70
         0
  9
$DIMALTD
 70
         2
  9
$DIMALTF
 40
25.4
  9
$DIMLFAC
 40
1.0
  9
$DIMTOFL
 70
         0
  9
$DIMTVP
 40
0.0
  9
$DIMTIX
 70
         0
  9
$DIMSOXD
 70
         0
  9
$DIMSAH
 70
         0
  9
$DIMBLK1
  1

  9
$DIMBLK2
  1

  9
$DIMSTYLE
  2
STANDARD
  9
$DIMCLRD
 70
         0
  9
$DIMCLRE
 70
         0
  9
$DIMCLRT
 70
         0
  9
$DIMTFAC
 40
1.0
  9
$DIMGAP
 40
0.09
  9
$DIMJUST
 70
         0
  9
$DIMSD1
 70
         0
  9
$DIMSD2
 70
         0
  9
$DIMTOLJ
 70
         1
  9
$DIMTZIN
 70
         0
  9
$DIMALTZ
 70
         0
  9
$DIMALTTZ
 70
         0
  9
$DIMFIT
 70
         3
  9
$DIMUPT
 70
         0
  9
$DIMUNIT
 70
         2
  9
$DIMDEC
 70
         4
  9
$DIMTDEC
 70
         4
  9
$DIMALTU
 70
         2
  9
$DIMALTTD
 70
         2
  9
$DIMTXSTY
  7
STANDARD
  9
$DIMAUNIT
 70
         0
  9
$LUNITS
 70
         2
  9
$LUPREC
 70
         4
  9
$SKETCHINC
 40
0.1
  9
$FILLETRAD
 40
0.0
  9
$AUNITS
 70
         0
  9
$AUPREC
 70
         0
  9
$MENU
  1
acad
  9
$ELEVATION
 40
0.0
  9
$PELEVATION
 40
0.0
  9
$THICKNESS
 40
0.0
  9
$LIMCHECK
 70
         0
  9
$BLIPMODE
 70
         1
  9
$CHAMFERA
 40
0.0
  9
$CHAMFERB
 40
0.0
  9
$CHAMFERC
 40
0.0
  9
$CHAMFERD
 40
0.0
  9
$SKPOLY
 70
         0
  9
$TDCREATE
 40
0.000000000
  9
$TDUPDATE
 40
0.000000000
  9
$TDINDWG
 40
0.0000000000
  9
$TDUSRTIMER
 40
0.0000000000
  9
$USRTIMER
 70
         1
  9
$ANGBASE
 50
0.0
  9
$ANGDIR
 70
         0
  9
$PDMODE
 70
         0
  9
$PDSIZE
 40
0.0
  9
$PLINEWID
 40
0.0
  9
$COORDS
 70
         0
  9
$SPLFRAME
 70
         0
  9
$SPLINETYPE
 70
         6
  9
$SPLINESEGS
 70
         8
  9
$ATTDIA
 70
         0
  9
$ATTREQ
 70
         1
  9
$HANDLING
 70
         1
  9
$HANDSEED
  5
1CE
  9
$SURFTAB1
 70
         6
  9
$SURFTAB2
 70
         6
  9
$SURFTYPE
 70
         6
  9
$SURFU
 70
         6
  9
$SURFV
 70
         6
  9
$UCSNAME
  2

  9
$UCSORG
 10
0.0
 20
0.0
 30
0.0
  9
$UCSXDIR
 10
1.0
 20
0.0
 30
0.0
  9
$UCSYDIR
 10
0.0
 20
1.0
 30
0.0
  9
$PUCSNAME
  2

  9
$PUCSORG
 10
0.0
 20
0.0
 30
0.0
  9
$PUCSXDIR
 10
1.0
 20
0.0
 30
0.0
  9
$PUCSYDIR
 10
0.0
 20
1.0
 30
0.0
  9
$USERI1
 70
         0
  9
$USERI2
 70
         0
  9
$USERI3
 70
         0
  9
$USERI4
 70
         0
  9
$USERI5
 70
         0
  9
$USERR1
 40
0.0
  9
$USERR2
 40
0.0
  9
$USERR3
 40
0.0
  9
$USERR4
 40
0.0
  9
$USERR5
 40
0.0
  9
$WORLDVIEW
 70
         1
  9
$SHADEDGE
 70
         3
  9
$SHADEDIF
 70
        70
  9
$TILEMODE
 70
         1
  9
$MAXACTVP
 70
        16
  9
$PINSBASE
 10
0.0
 20
0.0
 30
0.0
  9
$PLIMCHECK
 70
         0
  9
$PEXTMIN
 10
1.0000000000E+20
 20
1.0000000000E+20
 30
1.0000000000E+20
  9
$PEXTMAX
 10
-1.0000000000E+20
 20
-1.0000000000E+20
 30
-1.0000000000E+20
  9
$PLIMMIN
 10
0.0
 20
0.0
  9
$PLIMMAX
 10
12.0
 20
9.0
  9
$UNITMODE
 70
         0
  9
$VISRETAIN
 70
         0
  9
$PLINEGEN
 70
         1
  9
$PSLTSCALE
 70
         0
  9
$TREEDEPTH
 70
      3020
  9
$PICKSTYLE
 70
         1
  9
$CMLSTYLE
  2
STANDARD
  9
$CMLJUST
 70
         0
  9
$CMLSCALE
 40
1.0
  9
$SAVEIMAGES
 70
         0
  0
ENDSEC
  0
SECTION
  2
CLASSES
  0
CLASS
  1
LWPOLYLINE
  2
AcDbPolyline
  3
"AutoCAD"
 90
        0
280
         0
281
         1
  0
CLASS
  1
IMAGE
  2
AcDbRasterImage
  3
ISM
 90
      127
280
         0
281
         1
  0
CLASS
  1
OLE2FRAME
  2
AcDbOle2Frame
  3
""
 90
        0
280
         0
281
         1
  0
CLASS
  1
HATCH
  2
AcDbHatch
  3
"ACAD_SEDONA"
 90
        0
280
         0
281
         1
  0
CLASS
  1
DICTIONARYVAR
  2
AcDbDictionaryVar
  3
"AutoCAD"
 90
        0
280
         0
281
         0
  0
CLASS
  1
RASTERVARIABLES
  2
AcDbRasterVariables
  3
ISM
 90
        0
280
         0
281
         0
  0
CLASS
  1
IMAGEDEF
  2
AcDbRasterImageDef
  3
ISM
 90
        0
280
         0
281
         0
  0
CLASS
  1
IMAGEDEF_REACTOR
  2
AcDbRasterImageDefReactor
  3
ISM
 90
        1
280
         0
281
         0
  0
CLASS
  1
IDBUFFER
  2
AcDbIdBuffer
  3
"Acad"
 90
        0
280
         0
281
         0
  0
CLASS
  1
SPATIAL_FILTER
  2
AcDbSpatialFilter
  3
"Acad"
 90
        0
280
         0
281
         0
  0
CLASS
  1
XRECORD
  2
AcDbXrecord
  3
"<Built In>"
 90
        0
280
         0
281
         0
  0
CLASS
  1
SORTENTSTABLE
  2
AcDbSortentsTable
  3
"AutoCAD"
 90
        0
280
         0
281
         0
  0
CLASS
  1
LAYER_INDEX
  2
AcDbLayerIndex
  3
"Acad"
 90
        0
280
         0
281
         0
  0
CLASS
  1
SPATIAL_INDEX
  2
AcDbSpatialIndex
  3
"Acad"
 90
        0
280
         0
281
         0
  0
CLASS
  1
OBJECT_PTR
  2
CAseDLPNTableRecord
  3
"ASE-LPNTableRecord"
 90
        1
280
         0
281
         0
  0
CLASS
  1
LAYOUT
  2
AcDbLayout
  3
"AutoCAD 2000"
 90
        1
280
         0
281
         0
  0
CLASS
  1
PLOTSETTINGS
  2
AcDbPlotSettings
  3
"AutoCAD 2000"
 90
        1
280
         0
281
         0
  0
CLASS
  1
ACDBDICTIONARYWDFLT
  2
AcDbDictionaryWithDefault
  3
"AutoCAD 2000"
 90
        1
280
         0
281
         0
  0
CLASS
  1
ACDBPLACEHOLDER
  2
AcDbPlaceHolder
  3
"AutoCAD 2000"
 90
        1
280
         0
281
         0
  0
CLASS
  1
VBA_PROJECT
  2
AcDbVbaProject
  3
"acadvba"
 90
        1
280
         0
281
         0
  0
CLASS
  1
WIPEOUT
  2
AcDbWipeout
  3
WipeOut|AutoCAD Express Tool|expresstools@autodesk.com
 90
      127
280
         0
281
         1
  0
CLASS
  1
WIPEOUTVARIABLES
  2
AcDbWipeoutVariables
  3
WipeOut|AutoCAD Express Tool|expresstools@autodesk.com
 90
        0
280
         0
281
         0
  0
CLASS
  1
RTEXT
  2
RText
  3
RText|AutoCAD Express Tool|expresstools@autodesk.com
 90
        0
280
         0
281
         1
  0
CLASS
  1
ARCALIGNEDTEXT
  2
AcDbArcAlignedText
  3
ATEXT|AutoCAD Express Tool|expresstools@autodesk.com
 90
        0
280
         0
281
         1
  0
ENDSEC
  0
SECTION
  2
TABLES
  0
TABLE
  2
VPORT
  5
7
100
AcDbSymbolTable
 70
         1
  0
VPORT
  5
15
100
AcDbSymbolTableRecord
100
AcDbViewportTableRecord
  2
*ACTIVE
 70
         0
 10
0.0
 20
0.0
 11
1.0
 21
1.0
 12
17.0
 22
11.0
 13
0.0
 23
0.0
 14
1.0
 24
1.0
 15
0.0
 25
0.0
 16
0.0
 26
0.0
 36
1.0
 17
0.0
 27
0.0
 37
0.0
 40
22.0
 41
1.604229
 42
50.0
 43
0.0
 44
0.0
 50
0.0
 51
0.0
 71
         0
 72
       100
 73
         1
 74
         1
 75
         0
 76
         0
 77
         0
 78
         0
  0
ENDTAB
  0
TABLE
  2
LTYPE
  5
4
100
AcDbSymbolTable
 70
         7
  0
LTYPE
  5
11
100
AcDbSymbolTableRecord
100
AcDbLinetypeTableRecord
  2
BYBLOCK
 70
        64
  3

 72
        65
 73
         0
 40
0.0
  0
LTYPE
  5
12
100
AcDbSymbolTableRecord
100
AcDbLinetypeTableRecord
  2
BYLAYER
 70
        64
  3

 72
        65
 73
         0
 40
0.0
  0
LTYPE
  5
13
100
AcDbSymbolTableRecord
100
AcDbLinetypeTableRecord
  2
CONTINUOUS
 70
         0
  3
Solid line
 72
        65
 73
         0
 40
0.0
  0
LTYPE
  5
21
100
AcDbSymbolTableRecord
100
AcDbLinetypeTableRecord
  2
HIDDEN2
 70
        64
  3
_ _ _ _ _ _ _ _ _ _ _ _ _ _ _ _ _ _ _ _ _ _ _ _
 72
        65
 73
         2
 40
0.1875
 49
0.125
 74
         0
 49
-0.0625
 74
         0
  0
LTYPE
  5
22
100
AcDbSymbolTableRecord
100
AcDbLinetypeTableRecord
  2
CENTER2
 70
        64
  3
___ _ ___ _ ___ _ ___ _ ___ _ ___ _ ___ _ ___ _
 72
        65
 73
         4
 40
1.125
 49
0.75
 74
         0
 49
-0.125
 74
         0
 49
0.125
 74
         0
 49
-0.125
 74
         0
  0
LTYPE
  5
23
100
AcDbSymbolTableRecord
100
AcDbLinetypeTableRecord
  2
PHANTOM2
 70
        64
  3
___ _ _ ___ _ _ ___ _ _ ___ _ _ ___ _ _ ___ _ _
 72
        65
 73
         6
 40
1.25
 49
0.625
 74
         0
 49
-0.125
 74
         0
 49
0.125
 74
         0
 49
-0.125
 74
         0
 49
0.125
 74
         0
 49
-0.125
 74
         0
  0
LTYPE
  5
24
100
AcDbSymbolTableRecord
100
AcDbLinetypeTableRecord
  2
DOT2
 70
        64
  3
...............................................
 72
        65
 73
         2
 40
0.125
 49
0.0
 74
         0
 49
-0.125
 74
         0
  0
ENDTAB
  0
TABLE
  2
LAYER
  5
2
100
AcDbSymbolTable
 70
         3
  0
LAYER
  5
14
100
AcDbSymbolTableRecord
100
AcDbLayerTableRecord
  2
0
 70
         0
 62
         7
  6
CONTINUOUS
  0
LAYER
  5
26
100
AcDbSymbolTableRecord
100
AcDbLayerTableRecord
  2
DEFAULT
 70
         0
 62
         7
  6
CONTINUOUS
  0
LAYER
  5
28
100
AcDbSymbolTableRecord
100
AcDbLayerTableRecord
  2
83795
 70
         0
 62
         7
  6
CONTINUOUS
  0
ENDTAB
  0
TABLE
  2
STYLE
  5
3
100
AcDbSymbolTable
 70
         2
  0
STYLE
  5
17
100
AcDbSymbolTableRecord
100
AcDbTextStyleTableRecord
  2
STANDARD
 70
         0
 40
0.0
 41
1.0
 50
0.0
 71
         0
 42
0.2
  3
txt
  4

  0
STYLE
  5
29
100
AcDbSymbolTableRecord
100
AcDbTextStyleTableRecord
  2
ARIAL_TTF
 70
         0
 40
0.0
 41
1.0
 50
0.0
 71
         0
 42
0.2
  3
arial.ttf
  4

1001
ACAD
1000
Arial
1071
        2
  0
ENDTAB
  0
TABLE
  2
VIEW
  5
5
100
AcDbSymbolTable
 70
         0
  0
ENDTAB
  0
TABLE
  2
UCS
  5
6
100
AcDbSymbolTable
 70
         0
  0
ENDTAB
  0
TABLE
  2
APPID
  5
8
100
AcDbSymbolTable
 70
         1
  0
APPID
  5
16
100
AcDbSymbolTableRecord
100
AcDbRegAppTableRecord
  2
ACAD
 70
         0
  0
ENDTAB
  0
TABLE
  2
DIMSTYLE
  5
9
100
AcDbSymbolTable
 70
         1
  0
DIMSTYLE
105
18
100
AcDbSymbolTableRecord
100
AcDbDimStyleTableRecord
  2
STANDARD
 70
         0
  3

  4

  5

  6

  7

 40
1.0
 41
0.18
 42
0.0625
 43
0.38
 44
0.18
 45
0.0
 46
0.0
 47
0.0
 48
0.0
 71
         0
 72
         0
 73
         1
 74
         1
 75
         0
 76
         0
 77
         0
 78
         0
140
0.18
141
0.09
142
0.0
143
25.4
144
1.0
145
0.0
146
1.0
147
0.09
170
         0
171
         2
172
         0
173
         0
174
         0
175
         0
176
         0
177
         0
178
         0
270
         2
271
         4
272
         4
273
         2
274
         2
275
         0
280
         0
281
         0
282
         0
283
         1
284
         0
285
         0
286
         0
287
         0
288
         0
340
17
  0
ENDTAB
  0
TABLE
  2
BLOCK_RECORD
  5
1
100
AcDbSymbolTable
 70
         0
  0
BLOCK_RECORD
  5
A
100
AcDbSymbolTableRecord
100
AcDbBlockTableRecord
  2
*MODEL_SPACE
  0
BLOCK_RECORD
  5
B
100
AcDbSymbolTableRecord
100
AcDbBlockTableRecord
  2
*PAPER_SPACE
  0
ENDTAB
  0
ENDSEC
  0
SECTION
  2
BLOCKS
  0
BLOCK
  5
D
100
AcDbEntity
  8
0
100
AcDbBlockBegin
  2
*MODEL_SPACE
 70
         0
 10
0.0
 20
0.0
 30
0.0
  3
*MODEL_SPACE
  1

  0
ENDBLK
  5
E
100
AcDbEntity
  8
0
100
AcDbBlockEnd
  0
BLOCK
  5
F
100
AcDbEntity
 67
         1
  8
0
100
AcDbBlockBegin
  2
*PAPER_SPACE
 70
         0
 10
0.0
 20
0.0
 30
0.0
  3
*PAPER_SPACE
  1

  0
ENDBLK
  5
10
100
AcDbEntity
 67
         1
  8
0
100
AcDbBlockEnd
  0
ENDSEC
  0
SECTION
  2
ENTITIES
  0
LINE
  5
2A
100
AcDbEntity
  8
83795
  6
CONTINUOUS
 62
         7
100
AcDbLine
 10
16.6220422148
 20
12.2750482687
 30
0.0
 11
16.6220422148
 21
16.3510482687
 31
0.0
  0
ARC
  5
2B
100
AcDbEntity
  8
83795
  6
CONTINUOUS
 62
         7
100
AcDbCircle
 10
16.7000422148
 20
12.2750482687
 30
0.0
 40
0.078
100
AcDbArc
 50
180.0
 51
270.0
  0
ARC
  5
2C
100
AcDbEntity
  8
83795
  6
CONTINUOUS
 62
         7
100
AcDbCircle
 10
16.7000422148
 20
16.3510482687
 30
0.0
 40
0.078
100
AcDbArc
 50
90.0
 51
180.0
  0
LINE
  5
2D
100
AcDbEntity
  8
83795
  6
CONTINUOUS
 62
         7
100
AcDbLine
 10
19.7500422148
 20
12.1970482687
 30
0.0
 11
16.7000422148
 21
12.1970482687
 31
0.0
  0
ARC
  5
2E
100
AcDbEntity
  8
83795
  6
CONTINUOUS
 62
         7
100
AcDbCircle
 10
13.1950422148
 20
15.6680482687
 30
0.0
 40
0.125
100
AcDbArc
 50
90.0
 51
180.0
  0
ARC
  5
2F
100
AcDbEntity
  8
83795
  6
CONTINUOUS
 62
         7
100
AcDbCircle
 10
19.1310422148
 20
12.9580482687
 30
0.0
 40
0.125
100
AcDbArc
 50
270.0
 51
360.0
  0
ARC
  5
30
100
AcDbEntity
  8
83795
  6
CONTINUOUS
 62
         7
100
AcDbCircle
 10
17.3190422148
 20
12.9580482687
 30
0.0
 40
0.125
100
AcDbArc
 50
180.0
 51
270.0
  0
ARC
  5
31
100
AcDbEntity
  8
83795
  6
CONTINUOUS
 62
         7
100
AcDbCircle
 10
15.0070422148
 20
12.9580482687
 30
0.0
 40
0.125
100
AcDbArc
 50
270.0
 51
360.0
  0
ARC
  5
32
100
AcDbEntity
  8
83795
  6
CONTINUOUS
 62
         7
100
AcDbCircle
 10
13.1950422148
 20
12.9580482687
 30
0.0
 40
0.125
100
AcDbArc
 50
180.0
 51
270.0
  0
ARC
  5
33
100
AcDbEntity
  8
83795
  6
CONTINUOUS
 62
         7
100
AcDbCircle
 10
19.1310422148
 20
15.6680482687
 30
0.0
 40
0.125
100
AcDbArc
 50
0.0
 51
90.0
  0
ARC
  5
34
100
AcDbEntity
  8
83795
  6
CONTINUOUS
 62
         7
100
AcDbCircle
 10
17.3190422148
 20
15.6680482687
 30
0.0
 40
0.125
100
AcDbArc
 50
90.0
 51
180.0
  0
ARC
  5
35
100
AcDbEntity
  8
83795
  6
CONTINUOUS
 62
         7
100
AcDbCircle
 10
15.0070422148
 20
15.6680482687
 30
0.0
 40
0.125
100
AcDbArc
 50
0.0
 51
90.0
  0
LINE
  5
36
100
AcDbEntity
  8
83795
  6
CONTINUOUS
 62
         7
100
AcDbLine
 10
13.6630422148
 20
15.7930482687
 30
0.0
 11
13.6320422148
 21
15.7930482687
 31
0.0
  0
LINE
  5
37
100
AcDbEntity
  8
83795
  6
CONTINUOUS
 62
         7
100
AcDbLine
 10
14.5700422148
 20
15.7930482687
 30
0.0
 11
14.5390422148
 21
15.7930482687
 31
0.0
  0
LINE
  5
38
100
AcDbEntity
  8
83795
  6
CONTINUOUS
 62
         7
100
AcDbLine
 10
17.7870422148
 20
15.7930482687
 30
0.0
 11
17.7560422148
 21
15.7930482687
 31
0.0
  0
LINE
  5
39
100
AcDbEntity
  8
83795
  6
CONTINUOUS
 62
         7
100
AcDbLine
 10
18.6940422148
 20
15.7930482687
 30
0.0
 11
18.6630422148
 21
15.7930482687
 31
0.0
  0
LINE
  5
3A
100
AcDbEntity
  8
83795
  6
CONTINUOUS
 62
         7
100
AcDbLine
 10
14.5390422148
 20
12.8330482687
 30
0.0
 11
14.5700422148
 21
12.8330482687
 31
0.0
  0
LINE
  5
3B
100
AcDbEntity
  8
83795
  6
CONTINUOUS
 62
         7
100
AcDbLine
 10
13.6320422148
 20
12.8330482687
 30
0.0
 11
13.6630422148
 21
12.8330482687
 31
0.0
  0
LINE
  5
3C
100
AcDbEntity
  8
83795
  6
CONTINUOUS
 62
         7
100
AcDbLine
 10
14.6010422148
 20
15.7930482687
 30
0.0
 11
14.5700422148
 21
15.7930482687
 31
0.0
  0
LINE
  5
3D
100
AcDbEntity
  8
83795
  6
CONTINUOUS
 62
         7
100
AcDbLine
 10
14.5700422148
 20
15.7930482687
 30
0.0
 11
14.5700422148
 21
16.2170482687
 31
0.0
  0
ARC
  5
3E
100
AcDbEntity
  8
83795
  6
CONTINUOUS
 62
         7
100
AcDbCircle
 10
14.5080422148
 20
16.2170482687
 30
0.0
 40
0.062
100
AcDbArc
 50
0.0
 51
90.0
  0
LINE
  5
3F
100
AcDbEntity
  8
83795
  6
CONTINUOUS
 62
         7
100
AcDbLine
 10
13.6320422148
 20
15.7930482687
 30
0.0
 11
13.6010422148
 21
15.7930482687
 31
0.0
  0
LINE
  5
40
100
AcDbEntity
  8
83795
  6
CONTINUOUS
 62
         7
100
AcDbLine
 10
13.6320422148
 20
15.9040482687
 30
0.0
 11
13.6320422148
 21
15.7930482687
 31
0.0
  0
LINE
  5
41
100
AcDbEntity
  8
83795
  6
CONTINUOUS
 62
         7
100
AcDbLine
 10
14.5080422148
 20
16.2790482687
 30
0.0
 11
13.4962377483
 21
16.2790482687
 31
0.0
  0
LINE
  5
42
100
AcDbEntity
  8
83795
  6
CONTINUOUS
 62
         7
100
AcDbLine
 10
18.7250422148
 20
15.7930482687
 30
0.0
 11
18.6940422148
 21
15.7930482687
 31
0.0
  0
LINE
  5
43
100
AcDbEntity
  8
83795
  6
CONTINUOUS
 62
         7
100
AcDbLine
 10
18.8298466814
 20
16.2790482687
 30
0.0
 11
17.8180422148
 21
16.2790482687
 31
0.0
  0
ARC
  5
44
100
AcDbEntity
  8
83795
  6
CONTINUOUS
 62
         7
100
AcDbCircle
 10
17.8180422148
 20
16.2170482687
 30
0.0
 40
0.062
100
AcDbArc
 50
90.0
 51
180.0
  0
LINE
  5
45
100
AcDbEntity
  8
83795
  6
CONTINUOUS
 62
         7
100
AcDbLine
 10
17.7560422148
 20
15.7930482687
 30
0.0
 11
17.7250422148
 21
15.7930482687
 31
0.0
  0
LINE
  5
46
100
AcDbEntity
  8
83795
  6
CONTINUOUS
 62
         7
100
AcDbLine
 10
17.7560422148
 20
16.2170482687
 30
0.0
 11
17.7560422148
 21
15.7930482687
 31
0.0
  0
LINE
  5
47
100
AcDbEntity
  8
83795
  6
CONTINUOUS
 62
         7
100
AcDbLine
 10
13.6010422148
 20
12.8330482687
 30
0.0
 11
13.6320422148
 21
12.8330482687
 31
0.0
  0
LINE
  5
48
100
AcDbEntity
  8
83795
  6
CONTINUOUS
 62
         7
100
AcDbLine
 10
18.6940422148
 20
15.7930482687
 30
0.0
 11
18.6940422148
 21
15.9040482687
 31
0.0
  0
LINE
  5
49
100
AcDbEntity
  8
83795
  6
CONTINUOUS
 62
         7
100
AcDbLine
 10
14.5700422148
 20
12.8330482687
 30
0.0
 11
14.6010422148
 21
12.8330482687
 31
0.0
  0
ARC
  5
4A
100
AcDbEntity
  8
83795
  6
CONTINUOUS
 62
         7
100
AcDbCircle
 10
14.5080422148
 20
12.4090482687
 30
0.0
 40
0.062
100
AcDbArc
 50
270.0
 51
360.0
  0
LINE
  5
4B
100
AcDbEntity
  8
83795
  6
CONTINUOUS
 62
         7
100
AcDbLine
 10
13.6320422148
 20
12.8330482687
 30
0.0
 11
13.6320422148
 21
12.7220482687
 31
0.0
  0
LINE
  5
4C
100
AcDbEntity
  8
83795
  6
CONTINUOUS
 62
         7
100
AcDbLine
 10
13.4962377483
 20
12.3470482687
 30
0.0
 11
14.5080422148
 21
12.3470482687
 31
0.0
  0
LINE
  5
4D
100
AcDbEntity
  8
83795
  6
CONTINUOUS
 62
         7
100
AcDbLine
 10
14.5700422148
 20
12.4090482687
 30
0.0
 11
14.5700422148
 21
12.8330482687
 31
0.0
  0
ARC
  5
4E
100
AcDbEntity
  8
83795
  6
CONTINUOUS
 62
         7
100
AcDbCircle
 10
18.7250422148
 20
15.9040482687
 30
0.0
 40
0.031
100
AcDbArc
 50
90.0
 51
180.0
  0
LINE
  5
4F
100
AcDbEntity
  8
83795
  6
CONTINUOUS
 62
         7
100
AcDbLine
 10
12.5290422148
 20
12.6750482687
 30
0.0
 11
12.7560422148
 21
12.6750482687
 31
0.0
  0
LINE
  5
50
100
AcDbEntity
  8
83795
  6
CONTINUOUS
 62
         7
100
AcDbLine
 10
12.9440422148
 20
12.4870482687
 30
0.0
 11
12.9440422148
 21
12.2280482687
 31
0.0
  0
LINE
  5
51
100
AcDbEntity
  8
83795
  6
CONTINUOUS
 62
         7
100
AcDbLine
 10
12.9440422148
 20
12.2280482687
 30
0.0
 11
12.9440422148
 21
12.1970482687
 31
0.0
  0
LINE
  5
52
100
AcDbEntity
  8
83795
  6
CONTINUOUS
 62
         7
100
AcDbLine
 10
12.4980422148
 20
12.6750482687
 30
0.0
 11
12.5290422148
 21
12.6750482687
 31
0.0
  0
ARC
  5
53
100
AcDbEntity
  8
83795
  6
CONTINUOUS
 62
         7
100
AcDbCircle
 10
12.7560422148
 20
12.4870482687
 30
0.0
 40
0.188
100
AcDbArc
 50
0.0
 51
90.0
  0
LINE
  5
54
100
AcDbEntity
  8
83795
  6
CONTINUOUS
 62
         7
100
AcDbLine
 10
17.7870422148
 20
12.8330482687
 30
0.0
 11
18.6630422148
 21
12.8330482687
 31
0.0
  0
LINE
  5
55
100
AcDbEntity
  8
83795
  6
CONTINUOUS
 62
         7
100
AcDbLine
 10
18.6630422148
 20
15.7930482687
 30
0.0
 11
17.7870422148
 21
15.7930482687
 31
0.0
  0
LINE
  5
56
100
AcDbEntity
  8
83795
  6
CONTINUOUS
 62
         7
100
AcDbLine
 10
19.2560422148
 20
12.9580482687
 30
0.0
 11
19.2560422148
 21
15.6680482687
 31
0.0
  0
LINE
  5
57
100
AcDbEntity
  8
83795
  6
CONTINUOUS
 62
         7
100
AcDbLine
 10
18.7250422148
 20
12.8330482687
 30
0.0
 11
19.1310422148
 21
12.8330482687
 31
0.0
  0
LINE
  5
58
100
AcDbEntity
  8
83795
  6
CONTINUOUS
 62
         7
100
AcDbLine
 10
17.7250422148
 20
15.7930482687
 30
0.0
 11
17.3190422148
 21
15.7930482687
 31
0.0
  0
LINE
  5
59
100
AcDbEntity
  8
83795
  6
CONTINUOUS
 62
         7
100
AcDbLine
 10
17.3190422148
 20
12.8330482687
 30
0.0
 11
17.7250422148
 21
12.8330482687
 31
0.0
  0
LINE
  5
5A
100
AcDbEntity
  8
83795
  6
CONTINUOUS
 62
         7
100
AcDbLine
 10
19.1310422148
 20
15.7930482687
 30
0.0
 11
18.7250422148
 21
15.7930482687
 31
0.0
  0
LINE
  5
5B
100
AcDbEntity
  8
83795
  6
CONTINUOUS
 62
         7
100
AcDbLine
 10
17.1940422148
 20
15.6680482687
 30
0.0
 11
17.1940422148
 21
12.9580482687
 31
0.0
  0
LINE
  5
5C
100
AcDbEntity
  8
83795
  6
CONTINUOUS
 62
         7
100
AcDbLine
 10
13.6630422148
 20
12.8330482687
 30
0.0
 11
14.5390422148
 21
12.8330482687
 31
0.0
  0
LINE
  5
5D
100
AcDbEntity
  8
83795
  6
CONTINUOUS
 62
         7
100
AcDbLine
 10
14.5390422148
 20
15.7930482687
 30
0.0
 11
13.6630422148
 21
15.7930482687
 31
0.0
  0
LINE
  5
5E
100
AcDbEntity
  8
83795
  6
CONTINUOUS
 62
         7
100
AcDbLine
 10
14.6010422148
 20
12.8330482687
 30
0.0
 11
15.0070422148
 21
12.8330482687
 31
0.0
  0
LINE
  5
5F
100
AcDbEntity
  8
83795
  6
CONTINUOUS
 62
         7
100
AcDbLine
 10
15.1320422148
 20
12.9580482687
 30
0.0
 11
15.1320422148
 21
15.6680482687
 31
0.0
  0
LINE
  5
60
100
AcDbEntity
  8
83795
  6
CONTINUOUS
 62
         7
100
AcDbLine
 10
13.1950422148
 20
12.8330482687
 30
0.0
 11
13.6010422148
 21
12.8330482687
 31
0.0
  0
LINE
  5
61
100
AcDbEntity
  8
83795
  6
CONTINUOUS
 62
         7
100
AcDbLine
 10
13.0700422148
 20
15.6680482687
 30
0.0
 11
13.0700422148
 21
12.9580482687
 31
0.0
  0
LINE
  5
62
100
AcDbEntity
  8
83795
  6
CONTINUOUS
 62
         7
100
AcDbLine
 10
15.0070422148
 20
15.7930482687
 30
0.0
 11
14.6010422148
 21
15.7930482687
 31
0.0
  0
LINE
  5
63
100
AcDbEntity
  8
83795
  6
CONTINUOUS
 62
         7
100
AcDbLine
 10
13.6010422148
 20
15.7930482687
 30
0.0
 11
13.1950422148
 21
15.7930482687
 31
0.0
  0
LINE
  5
64
100
AcDbEntity
  8
83795
  6
CONTINUOUS
 62
         7
100
AcDbLine
 10
20.5980422148
 20
17.2030482687
 30
0.0
 11
20.3480422148
 21
16.9530482687
 31
0.0
  0
LINE
  5
65
100
AcDbEntity
  8
83795
  6
CONTINUOUS
 62
         7
100
AcDbLine
 10
11.9780422148
 20
16.9530482687
 30
0.0
 11
11.7280422148
 21
17.2030482687
 31
0.0
  0
LINE
  5
66
100
AcDbEntity
  8
83795
  6
CONTINUOUS
 62
         7
100
AcDbLine
 10
11.9780422148
 20
11.6730482687
 30
0.0
 11
11.7280422148
 21
11.4230482687
 31
0.0
  0
LINE
  5
67
100
AcDbEntity
  8
83795
  6
CONTINUOUS
 62
         7
100
AcDbLine
 10
20.5980422148
 20
11.4230482687
 30
0.0
 11
20.3480422148
 21
11.6730482687
 31
0.0
  0
LINE
  5
68
100
AcDbEntity
  8
83795
  6
CONTINUOUS
 62
         7
100
AcDbLine
 10
20.3480422148
 20
11.6730482687
 30
0.0
 11
20.3480422148
 21
16.9530482687
 31
0.0
  0
LINE
  5
69
100
AcDbEntity
  8
83795
  6
CONTINUOUS
 62
         7
100
AcDbLine
 10
11.9780422148
 20
16.9530482687
 30
0.0
 11
11.9780422148
 21
11.6730482687
 31
0.0
  0
LINE
  5
6A
100
AcDbEntity
  8
83795
  6
CONTINUOUS
 62
         7
100
AcDbLine
 10
20.3480422148
 20
16.9530482687
 30
0.0
 11
11.9780422148
 21
16.9530482687
 31
0.0
  0
LINE
  5
6B
100
AcDbEntity
  8
83795
  6
CONTINUOUS
 62
         7
100
AcDbLine
 10
20.5980422148
 20
11.4230482687
 30
0.0
 11
11.7280422148
 21
11.4230482687
 31
0.0
  0
LINE
  5
6C
100
AcDbEntity
  8
83795
  6
CONTINUOUS
 62
         7
100
AcDbLine
 10
11.9780422148
 20
11.6730482687
 30
0.0
 11
20.3480422148
 21
11.6730482687
 31
0.0
  0
LINE
  5
6D
100
AcDbEntity
  8
83795
  6
CONTINUOUS
 62
         7
100
AcDbLine
 10
12.4980422148
 20
12.2750482687
 30
0.0
 11
12.4980422148
 21
16.3510482687
 31
0.0
  0
ARC
  5
6E
100
AcDbEntity
  8
83795
  6
CONTINUOUS
 62
         7
100
AcDbCircle
 10
12.5760422148
 20
16.3510482687
 30
0.0
 40
0.078
100
AcDbArc
 50
90.0
 51
180.0
  0
LINE
  5
6F
100
AcDbEntity
  8
83795
  6
CONTINUOUS
 62
         7
100
AcDbLine
 10
12.5760422148
 20
16.4290482687
 30
0.0
 11
15.6260422148
 21
16.4290482687
 31
0.0
  0
LINE
  5
70
100
AcDbEntity
  8
83795
  6
CONTINUOUS
 62
         7
100
AcDbLine
 10
20.5980422148
 20
17.2030482687
 30
0.0
 11
20.5980422148
 21
11.4230482687
 31
0.0
  0
LINE
  5
71
100
AcDbEntity
  8
83795
  6
CONTINUOUS
 62
         7
100
AcDbLine
 10
11.7280422148
 20
11.4230482687
 30
0.0
 11
11.7280422148
 21
17.2030482687
 31
0.0
  0
LINE
  5
72
100
AcDbEntity
  8
83795
  6
CONTINUOUS
 62
         7
100
AcDbLine
 10
11.7280422148
 20
17.2030482687
 30
0.0
 11
20.5980422148
 21
17.2030482687
 31
0.0
  0
ARC
  5
73
100
AcDbEntity
  8
83795
  6
CONTINUOUS
 62
         7
100
AcDbCircle
 10
12.5760422148
 20
12.2750482687
 30
0.0
 40
0.078
100
AcDbArc
 50
180.0
 51
270.0
  0
LINE
  5
74
100
AcDbEntity
  8
83795
  6
CONTINUOUS
 62
         7
100
AcDbLine
 10
15.6260422148
 20
12.1970482687
 30
0.0
 11
12.5760422148
 21
12.1970482687
 31
0.0
  0
ARC
  5
75
100
AcDbEntity
  8
83795
  6
CONTINUOUS
 62
         7
100
AcDbCircle
 10
15.6260422148
 20
16.3510482687
 30
0.0
 40
0.078
100
AcDbArc
 50
0.0
 51
90.0
  0
LINE
  5
76
100
AcDbEntity
  8
83795
  6
CONTINUOUS
 62
         7
100
AcDbLine
 10
15.7040422148
 20
16.3510482687
 30
0.0
 11
15.7040422148
 21
12.2750482687
 31
0.0
  0
ARC
  5
77
100
AcDbEntity
  8
83795
  6
CONTINUOUS
 62
         7
100
AcDbCircle
 10
15.6260422148
 20
12.2750482687
 30
0.0
 40
0.078
100
AcDbArc
 50
270.0
 51
360.0
  0
ARC
  5
78
100
AcDbEntity
  8
83795
  6
CONTINUOUS
 62
         7
100
AcDbCircle
 10
19.7500422148
 20
12.2750482687
 30
0.0
 40
0.078
100
AcDbArc
 50
270.0
 51
360.0
  0
LINE
  5
79
100
AcDbEntity
  8
83795
  6
CONTINUOUS
 62
         7
100
AcDbLine
 10
16.7000422148
 20
16.4290482687
 30
0.0
 11
19.7500422148
 21
16.4290482687
 31
0.0
  0
ARC
  5
7A
100
AcDbEntity
  8
83795
  6
CONTINUOUS
 62
         7
100
AcDbCircle
 10
19.7500422148
 20
16.3510482687
 30
0.0
 40
0.078
100
AcDbArc
 50
0.0
 51
90.0
  0
LINE
  5
7B
100
AcDbEntity
  8
83795
  6
CONTINUOUS
 62
         7
100
AcDbLine
 10
19.8280422148
 20
16.3510482687
 30
0.0
 11
19.8280422148
 21
12.2750482687
 31
0.0
  0
LINE
  5
7C
100
AcDbEntity
  8
83795
  6
CONTINUOUS
 62
         7
100
AcDbLine
 10
17.0680422148
 20
16.3980482687
 30
0.0
 11
17.0680422148
 21
16.1390482687
 31
0.0
  0
ARC
  5
7D
100
AcDbEntity
  8
83795
  6
CONTINUOUS
 62
         7
100
AcDbCircle
 10
16.8800422148
 20
16.1390482687
 30
0.0
 40
0.188
100
AcDbArc
 50
270.0
 51
360.0
  0
ARC
  5
7E
100
AcDbEntity
  8
83795
  6
CONTINUOUS
 62
         7
100
AcDbCircle
 10
17.0990422148
 20
16.3980482687
 30
0.0
 40
0.031
100
AcDbArc
 50
90.0
 51
180.0
  0
LINE
  5
7F
100
AcDbEntity
  8
83795
  6
CONTINUOUS
 62
         7
100
AcDbLine
 10
17.0680422148
 20
12.4870482687
 30
0.0
 11
17.0680422148
 21
12.2280482687
 31
0.0
  0
LINE
  5
80
100
AcDbEntity
  8
83795
  6
CONTINUOUS
 62
         7
100
AcDbLine
 10
16.6530422148
 20
12.6750482687
 30
0.0
 11
16.8800422148
 21
12.6750482687
 31
0.0
  0
ARC
  5
81
100
AcDbEntity
  8
83795
  6
CONTINUOUS
 62
         7
100
AcDbCircle
 10
16.8800422148
 20
12.4870482687
 30
0.0
 40
0.188
100
AcDbArc
 50
0.0
 51
90.0
  0
ARC
  5
82
100
AcDbEntity
  8
83795
  6
CONTINUOUS
 62
         7
100
AcDbCircle
 10
17.0990422148
 20
12.2280482687
 30
0.0
 40
0.031
100
AcDbArc
 50
180.0
 51
270.0
  0
LINE
  5
83
100
AcDbEntity
  8
83795
  6
CONTINUOUS
 62
         7
100
AcDbLine
 10
19.5700422148
 20
12.6750482687
 30
0.0
 11
19.7970422148
 21
12.6750482687
 31
0.0
  0
ARC
  5
84
100
AcDbEntity
  8
83795
  6
CONTINUOUS
 62
         7
100
AcDbCircle
 10
16.6530422148
 20
12.7060482687
 30
0.0
 40
0.031
100
AcDbArc
 50
180.0
 51
270.0
  0
ARC
  5
85
100
AcDbEntity
  8
83795
  6
CONTINUOUS
 62
         7
100
AcDbCircle
 10
19.7970422148
 20
12.7060482687
 30
0.0
 40
0.031
100
AcDbArc
 50
270.0
 51
360.0
  0
ARC
  5
86
100
AcDbEntity
  8
83795
  6
CONTINUOUS
 62
         7
100
AcDbCircle
 10
19.5700422148
 20
12.4870482687
 30
0.0
 40
0.188
100
AcDbArc
 50
90.0
 51
180.0
  0
LINE
  5
87
100
AcDbEntity
  8
83795
  6
CONTINUOUS
 62
         7
100
AcDbLine
 10
19.3820422148
 20
12.2280482687
 30
0.0
 11
19.3820422148
 21
12.4870482687
 31
0.0
  0
LINE
  5
88
100
AcDbEntity
  8
83795
  6
CONTINUOUS
 62
         7
100
AcDbLine
 10
15.4460422148
 20
12.6750482687
 30
0.0
 11
15.6730422148
 21
12.6750482687
 31
0.0
  0
LINE
  5
89
100
AcDbEntity
  8
83795
  6
CONTINUOUS
 62
         7
100
AcDbLine
 10
15.6730422148
 20
12.6750482687
 30
0.0
 11
15.7040422148
 21
12.6750482687
 31
0.0
  0
ARC
  5
8A
100
AcDbEntity
  8
83795
  6
CONTINUOUS
 62
         7
100
AcDbCircle
 10
19.3510422148
 20
12.2280482687
 30
0.0
 40
0.031
100
AcDbArc
 50
270.0
 51
360.0
  0
LINE
  5
8B
100
AcDbEntity
  8
83795
  6
CONTINUOUS
 62
         7
100
AcDbLine
 10
15.2580422148
 20
12.2280482687
 30
0.0
 11
15.2580422148
 21
12.4870482687
 31
0.0
  0
ARC
  5
8C
100
AcDbEntity
  8
83795
  6
CONTINUOUS
 62
         7
100
AcDbCircle
 10
15.4460422148
 20
12.4870482687
 30
0.0
 40
0.188
100
AcDbArc
 50
90.0
 51
180.0
  0
LINE
  5
8D
100
AcDbEntity
  8
83795
  6
CONTINUOUS
 62
         7
100
AcDbLine
 10
15.2580422148
 20
12.1970482687
 30
0.0
 11
15.2580422148
 21
12.2280482687
 31
0.0
  0
LINE
  5
8E
100
AcDbEntity
  8
83795
  6
CONTINUOUS
 62
         7
100
AcDbLine
 10
12.5600422148
 20
12.7370482687
 30
0.0
 11
12.4980422148
 21
12.6750482687
 31
0.0
  0
ARC
  5
8F
100
AcDbEntity
  8
83795
  6
CONTINUOUS
 62
         7
100
AcDbCircle
 10
13.3350422148
 20
12.4870482687
 30
0.0
 40
0.204
100
AcDbArc
 50
90.0
 51
255.9803655147
  0
ARC
  5
90
100
AcDbEntity
  8
83795
  6
CONTINUOUS
 62
         7
100
AcDbCircle
 10
13.6010422148
 20
12.7220482687
 30
0.0
 40
0.031
100
AcDbArc
 50
270.0
 51
360.0
  0
ARC
  5
91
100
AcDbEntity
  8
83795
  6
CONTINUOUS
 62
         7
100
AcDbCircle
 10
13.4962377483
 20
12.3160482687
 30
0.0
 40
0.031
100
AcDbArc
 50
90.0
 51
133.3094549108
  0
ARC
  5
92
100
AcDbEntity
  8
83795
  6
CONTINUOUS
 62
         7
100
AcDbCircle
 10
13.3350422148
 20
12.4870482687
 30
0.0
 40
0.204
100
AcDbArc
 50
284.0196344853
 51
313.3094549108
  0
ARC
  5
93
100
AcDbEntity
  8
83795
  6
CONTINUOUS
 62
         7
100
AcDbCircle
 10
13.3350422148
 20
12.4870482687
 30
0.0
 40
0.204
100
AcDbArc
 50
255.9803655147
 51
284.0196344853
  0
ARC
  5
94
100
AcDbEntity
  8
83795
  6
CONTINUOUS
 62
         7
100
AcDbCircle
 10
18.9910422148
 20
16.1390482687
 30
0.0
 40
0.204
100
AcDbArc
 50
75.9803655147
 51
104.0196344853
  0
ARC
  5
95
100
AcDbEntity
  8
83795
  6
CONTINUOUS
 62
         7
100
AcDbCircle
 10
18.9910422148
 20
16.1390482687
 30
0.0
 40
0.204
100
AcDbArc
 50
270.0
 51
75.9803655147
  0
ARC
  5
96
100
AcDbEntity
  8
83795
  6
CONTINUOUS
 62
         7
100
AcDbCircle
 10
18.9910422148
 20
16.1390482687
 30
0.0
 40
0.204
100
AcDbArc
 50
104.0196344853
 51
133.3094549108
  0
ARC
  5
97
100
AcDbEntity
  8
83795
  6
CONTINUOUS
 62
         7
100
AcDbCircle
 10
13.6010422148
 20
15.9040482687
 30
0.0
 40
0.031
100
AcDbArc
 50
0.0
 51
90.0
  0
ARC
  5
98
100
AcDbEntity
  8
83795
  6
CONTINUOUS
 62
         7
100
AcDbCircle
 10
13.4962377483
 20
16.3100482687
 30
0.0
 40
0.031
100
AcDbArc
 50
226.6905450892
 51
270.0
  0
LINE
  5
99
100
AcDbEntity
  8
83795
  6
CONTINUOUS
 62
         7
100
AcDbLine
 10
18.6940422148
 20
12.8330482687
 30
0.0
 11
18.7250422148
 21
12.8330482687
 31
0.0
  0
LINE
  5
9A
100
AcDbEntity
  8
83795
  6
CONTINUOUS
 62
         7
100
AcDbLine
 10
17.7870422148
 20
12.3470482687
 30
0.0
 11
18.8298466814
 21
12.3470482687
 31
0.0
  0
LINE
  5
9B
100
AcDbEntity
  8
83795
  6
CONTINUOUS
 62
         7
100
AcDbLine
 10
17.7250422148
 20
12.8330482687
 30
0.0
 11
17.7560422148
 21
12.8330482687
 31
0.0
  0
LINE
  5
9C
100
AcDbEntity
  8
83795
  6
CONTINUOUS
 62
         7
100
AcDbLine
 10
17.7560422148
 20
12.8330482687
 30
0.0
 11
17.7560422148
 21
12.3780482687
 31
0.0
  0
ARC
  5
9D
100
AcDbEntity
  8
83795
  6
CONTINUOUS
 62
         7
100
AcDbCircle
 10
17.7870422148
 20
12.3780482687
 30
0.0
 40
0.031
100
AcDbArc
 50
180.0
 51
270.0
  0
ARC
  5
9E
100
AcDbEntity
  8
83795
  6
CONTINUOUS
 62
         7
100
AcDbCircle
 10
18.7250422148
 20
12.7220482687
 30
0.0
 40
0.031
100
AcDbArc
 50
180.0
 51
270.0
  0
LINE
  5
9F
100
AcDbEntity
  8
83795
  6
CONTINUOUS
 62
         7
100
AcDbLine
 10
18.6940422148
 20
12.7220482687
 30
0.0
 11
18.6940422148
 21
12.8330482687
 31
0.0
  0
LINE
  5
A0
100
AcDbEntity
  8
83795
  6
CONTINUOUS
 62
         7
100
AcDbLine
 10
18.9910422148
 20
12.6910482687
 30
0.0
 11
18.7250422148
 21
12.6910482687
 31
0.0
  0
ARC
  5
A1
100
AcDbEntity
  8
83795
  6
CONTINUOUS
 62
         7
100
AcDbCircle
 10
18.9910422148
 20
12.4870482687
 30
0.0
 40
0.204
100
AcDbArc
 50
284.0196344853
 51
90.0
  0
ARC
  5
A2
100
AcDbEntity
  8
83795
  6
CONTINUOUS
 62
         7
100
AcDbCircle
 10
18.9910422148
 20
12.4870482687
 30
0.0
 40
0.204
100
AcDbArc
 50
226.6905450892
 51
255.9803655147
  0
ARC
  5
A3
100
AcDbEntity
  8
83795
  6
CONTINUOUS
 62
         7
100
AcDbCircle
 10
18.8298466814
 20
12.3160482687
 30
0.0
 40
0.031
100
AcDbArc
 50
46.6905450892
 51
90.0
  0
ARC
  5
A4
100
AcDbEntity
  8
83795
  6
CONTINUOUS
 62
         7
100
AcDbCircle
 10
18.9910422148
 20
12.4870482687
 30
0.0
 40
0.204
100
AcDbArc
 50
255.9803655147
 51
284.0196344853
  0
LINE
  5
A5
100
AcDbEntity
  8
83795
  6
CONTINUOUS
 62
         7
100
AcDbLine
 10
18.6630422148
 20
12.8330482687
 30
0.0
 11
18.6940422148
 21
12.8330482687
 31
0.0
  0
LINE
  5
A6
100
AcDbEntity
  8
83795
  6
CONTINUOUS
 62
         7
100
AcDbLine
 10
17.7560422148
 20
12.8330482687
 30
0.0
 11
17.7870422148
 21
12.8330482687
 31
0.0
  0
LINE
  5
A7
100
AcDbEntity
  8
83795
  6
CONTINUOUS
 62
         7
100
AcDbLine
 10
13.6010422148
 20
12.6910482687
 30
0.0
 11
13.3350422148
 21
12.6910482687
 31
0.0
  0
LINE
  5
A8
100
AcDbEntity
  8
83795
  6
CONTINUOUS
 62
         7
100
AcDbLine
 10
18.7250422148
 20
15.9350482687
 30
0.0
 11
18.9910422148
 21
15.9350482687
 31
0.0
  0
LINE
  5
A9
100
AcDbEntity
  8
83795
  6
CONTINUOUS
 62
         7
100
AcDbLine
 10
16.8800422148
 20
15.9510482687
 30
0.0
 11
16.6530422148
 21
15.9510482687
 31
0.0
  0
ARC
  5
AA
100
AcDbEntity
  8
83795
  6
CONTINUOUS
 62
         7
100
AcDbCircle
 10
16.6530422148
 20
15.9200482687
 30
0.0
 40
0.031
100
AcDbArc
 50
90.0
 51
180.0
  0
ARC
  5
AB
100
AcDbEntity
  8
83795
  6
CONTINUOUS
 62
         7
100
AcDbCircle
 10
19.7970422148
 20
15.9200482687
 30
0.0
 40
0.031
100
AcDbArc
 50
0.0
 51
90.0
  0
ARC
  5
AC
100
AcDbEntity
  8
83795
  6
CONTINUOUS
 62
         7
100
AcDbCircle
 10
19.3510422148
 20
16.3980482687
 30
0.0
 40
0.031
100
AcDbArc
 50
0.0
 51
90.0
  0
ARC
  5
AD
100
AcDbEntity
  8
83795
  6
CONTINUOUS
 62
         7
100
AcDbCircle
 10
19.5700422148
 20
16.1390482687
 30
0.0
 40
0.188
100
AcDbArc
 50
180.0
 51
270.0
  0
LINE
  5
AE
100
AcDbEntity
  8
83795
  6
CONTINUOUS
 62
         7
100
AcDbLine
 10
19.3820422148
 20
16.1390482687
 30
0.0
 11
19.3820422148
 21
16.3980482687
 31
0.0
  0
LINE
  5
AF
100
AcDbEntity
  8
83795
  6
CONTINUOUS
 62
         7
100
AcDbLine
 10
19.7970422148
 20
15.9510482687
 30
0.0
 11
19.5700422148
 21
15.9510482687
 31
0.0
  0
ARC
  5
B0
100
AcDbEntity
  8
83795
  6
CONTINUOUS
 62
         7
100
AcDbCircle
 10
18.8298466814
 20
16.3100482687
 30
0.0
 40
0.031
100
AcDbArc
 50
270.0
 51
313.3094549108
  0
LINE
  5
B1
100
AcDbEntity
  8
83795
  6
CONTINUOUS
 62
         7
100
AcDbLine
 10
15.1960422148
 20
12.2590482687
 30
0.0
 11
15.2580422148
 21
12.1970482687
 31
0.0
  0
LINE
  5
B2
100
AcDbEntity
  8
83795
  6
CONTINUOUS
 62
         7
100
AcDbLine
 10
15.6420422148
 20
12.7370482687
 30
0.0
 11
15.7040422148
 21
12.6750482687
 31
0.0
  0
ARC
  5
B3
100
AcDbEntity
  8
83795
  6
CONTINUOUS
 62
         7
100
AcDbCircle
 10
13.3350422148
 20
16.1390482687
 30
0.0
 40
0.204
100
AcDbArc
 50
46.6905450892
 51
75.9803655147
  0
ARC
  5
B4
100
AcDbEntity
  8
83795
  6
CONTINUOUS
 62
         7
100
AcDbCircle
 10
13.3350422148
 20
16.1390482687
 30
0.0
 40
0.204
100
AcDbArc
 50
75.9803655147
 51
104.0196344853
  0
ARC
  5
B5
100
AcDbEntity
  8
83795
  6
CONTINUOUS
 62
         7
100
AcDbCircle
 10
13.3350422148
 20
16.1390482687
 30
0.0
 40
0.204
100
AcDbArc
 50
104.0196344853
 51
270.0
  0
LINE
  5
B6
100
AcDbEntity
  8
83795
  6
CONTINUOUS
 62
         7
100
AcDbLine
 10
13.3350422148
 20
15.9350482687
 30
0.0
 11
13.6010422148
 21
15.9350482687
 31
0.0
  0
ARC
  5
B7
100
AcDbEntity
  8
83795
  6
CONTINUOUS
 62
         7
100
AcDbCircle
 10
12.7560422148
 20
16.1390482687
 30
0.0
 40
0.188
100
AcDbArc
 50
270.0
 51
360.0
  0
LINE
  5
B8
100
AcDbEntity
  8
83795
  6
CONTINUOUS
 62
         7
100
AcDbLine
 10
12.9440422148
 20
16.3980482687
 30
0.0
 11
12.9440422148
 21
16.1390482687
 31
0.0
  0
ARC
  5
B9
100
AcDbEntity
  8
83795
  6
CONTINUOUS
 62
         7
100
AcDbCircle
 10
12.9750422148
 20
16.3980482687
 30
0.0
 40
0.031
100
AcDbArc
 50
90.0
 51
180.0
  0
LINE
  5
BA
100
AcDbEntity
  8
83795
  6
CONTINUOUS
 62
         7
100
AcDbLine
 10
15.6730422148
 20
15.9510482687
 30
0.0
 11
15.4460422148
 21
15.9510482687
 31
0.0
  0
LINE
  5
BB
100
AcDbEntity
  8
83795
  6
CONTINUOUS
 62
         7
100
AcDbLine
 10
12.7560422148
 20
15.9510482687
 30
0.0
 11
12.5290422148
 21
15.9510482687
 31
0.0
  0
ARC
  5
BC
100
AcDbEntity
  8
83795
  6
CONTINUOUS
 62
         7
100
AcDbCircle
 10
15.6730422148
 20
15.9200482687
 30
0.0
 40
0.031
100
AcDbArc
 50
0.0
 51
90.0
  0
ARC
  5
BD
100
AcDbEntity
  8
83795
  6
CONTINUOUS
 62
         7
100
AcDbCircle
 10
12.5290422148
 20
15.9200482687
 30
0.0
 40
0.031
100
AcDbArc
 50
90.0
 51
180.0
  0
LINE
  5
BE
100
AcDbEntity
  8
83795
  6
CONTINUOUS
 62
         7
100
AcDbLine
 10
15.2580422148
 20
16.1390482687
 30
0.0
 11
15.2580422148
 21
16.3980482687
 31
0.0
  0
ARC
  5
BF
100
AcDbEntity
  8
83795
  6
CONTINUOUS
 62
         7
100
AcDbCircle
 10
15.4460422148
 20
16.1390482687
 30
0.0
 40
0.188
100
AcDbArc
 50
180.0
 51
270.0
  0
ARC
  5
C0
100
AcDbEntity
  8
83795
  6
CONTINUOUS
 62
         7
100
AcDbCircle
 10
15.2270422148
 20
16.3980482687
 30
0.0
 40
0.031
100
AcDbArc
 50
0.0
 51
90.0
  0
LINE
  5
C1
100
AcDbEntity
  8
83795
  6
CONTINUOUS
 62
         7
100
AcDbLine
 10
13.0060422148
 20
12.2590482687
 30
0.0
 11
12.9440422148
 21
12.1970482687
 31
0.0
  0
POLYLINE
  5
C2
100
AcDbEntity
  8
0
  6
CONTINUOUS
 62
       136
100
AcDb2dPolyline
 66
         1
 10
0.0
 20
0.0
 30
0.0
  0
VERTEX
  5
C3
100
AcDbEntity
  8
0
  6
CONTINUOUS
 62
       136
100
AcDbVertex
100
AcDb2dVertex
 10
11.8530422133
 20
19.0966459008
 30
0.0
  0
VERTEX
  5
C4
100
AcDbEntity
  8
0
  6
CONTINUOUS
 62
       136
100
AcDbVertex
100
AcDb2dVertex
 10
11.7280422148
 20
19.0758125677
 30
0.0
  0
VERTEX
  5
C5
100
AcDbEntity
  8
0
  6
CONTINUOUS
 62
       136
100
AcDbVertex
100
AcDb2dVertex
 10
11.8530422133
 20
19.0549792346
 30
0.0
  0
VERTEX
  5
C6
100
AcDbEntity
  8
0
  6
CONTINUOUS
 62
       136
100
AcDbVertex
100
AcDb2dVertex
 10
11.8530422133
 20
19.0966459008
 30
0.0
  0
SEQEND
  5
C7
100
AcDbEntity
  8
0
  6
CONTINUOUS
 62
       136
  0
POLYLINE
  5
C8
100
AcDbEntity
  8
0
  6
CONTINUOUS
 62
       136
100
AcDb2dPolyline
 66
         1
 10
0.0
 20
0.0
 30
0.0
  0
VERTEX
  5
C9
100
AcDbEntity
  8
0
  6
CONTINUOUS
 62
       136
100
AcDbVertex
100
AcDb2dVertex
 10
20.4730422164
 20
19.0966459008
 30
0.0
  0
VERTEX
  5
CA
100
AcDbEntity
  8
0
  6
CONTINUOUS
 62
       136
100
AcDbVertex
100
AcDb2dVertex
 10
20.5980422148
 20
19.0758125677
 30
0.0
  0
VERTEX
  5
CB
100
AcDbEntity
  8
0
  6
CONTINUOUS
 62
       136
100
AcDbVertex
100
AcDb2dVertex
 10
20.4730422164
 20
19.0549792346
 30
0.0
  0
VERTEX
  5
CC
100
AcDbEntity
  8
0
  6
CONTINUOUS
 62
       136
100
AcDbVertex
100
AcDb2dVertex
 10
20.4730422164
 20
19.0966459008
 30
0.0
  0
SEQEND
  5
CD
100
AcDbEntity
  8
0
  6
CONTINUOUS
 62
       136
  0
LINE
  5
CE
100
AcDbEntity
  8
0
  6
CONTINUOUS
 62
       136
100
AcDbLine
 10
11.7280422148
 20
17.265548268
 30
0.0
 11
11.7280422148
 21
19.138312567
 31
0.0
  0
LINE
  5
CF
100
AcDbEntity
  8
0
  6
CONTINUOUS
 62
       136
100
AcDbLine
 10
20.5980422148
 20
17.265548268
 30
0.0
 11
20.5980422148
 21
19.138312567
 31
0.0
  0
LINE
  5
D0
100
AcDbEntity
  8
0
  6
CONTINUOUS
 62
       136
100
AcDbLine
 10
11.7280422148
 20
19.0758125677
 30
0.0
 11
15.9236401469
 21
19.0758125677
 31
0.0
  0
LINE
  5
D1
100
AcDbEntity
  8
0
  6
CONTINUOUS
 62
       136
100
AcDbLine
 10
16.4024445761
 20
19.0758125677
 30
0.0
 11
20.5980422148
 21
19.0758125677
 31
0.0
  0
TEXT
  5
D2
100
AcDbEntity
  8
0
  6
CONTINUOUS
 62
       136
100
AcDbText
 10
15.9673900874
 20
19.0133125677
 30
0.0
 40
0.125
  1
8 7/8
  7
ARIAL_TTF
 11
15.9673900874
 21
19.1383125677
 31
0.0
100
AcDbText
 73
         3
  0
POLYLINE
  5
D3
100
AcDbEntity
  8
0
  6
CONTINUOUS
 62
       136
100
AcDb2dPolyline
 66
         1
 10
0.0
 20
0.0
 30
0.0
  0
VERTEX
  5
D4
100
AcDbEntity
  8
0
  6
CONTINUOUS
 62
       136
100
AcDbVertex
100
AcDb2dVertex
 10
12.6230422133
 20
18.6932846647
 30
0.0
  0
VERTEX
  5
D5
100
AcDbEntity
  8
0
  6
CONTINUOUS
 62
       136
100
AcDbVertex
100
AcDb2dVertex
 10
12.4980422148
 20
18.6724513317
 30
0.0
  0
VERTEX
  5
D6
100
AcDbEntity
  8
0
  6
CONTINUOUS
 62
       136
100
AcDbVertex
100
AcDb2dVertex
 10
12.6230422133
 20
18.6516179986
 30
0.0
  0
VERTEX
  5
D7
100
AcDbEntity
  8
0
  6
CONTINUOUS
 62
       136
100
AcDbVertex
100
AcDb2dVertex
 10
12.6230422133
 20
18.6932846647
 30
0.0
  0
SEQEND
  5
D8
100
AcDbEntity
  8
0
  6
CONTINUOUS
 62
       136
  0
POLYLINE
  5
D9
100
AcDbEntity
  8
0
  6
CONTINUOUS
 62
       136
100
AcDb2dPolyline
 66
         1
 10
0.0
 20
0.0
 30
0.0
  0
VERTEX
  5
DA
100
AcDbEntity
  8
0
  6
CONTINUOUS
 62
       136
100
AcDbVertex
100
AcDb2dVertex
 10
19.7030422164
 20
18.6932846647
 30
0.0
  0
VERTEX
  5
DB
100
AcDbEntity
  8
0
  6
CONTINUOUS
 62
       136
100
AcDbVertex
100
AcDb2dVertex
 10
19.8280422148
 20
18.6724513317
 30
0.0
  0
VERTEX
  5
DC
100
AcDbEntity
  8
0
  6
CONTINUOUS
 62
       136
100
AcDbVertex
100
AcDb2dVertex
 10
19.7030422164
 20
18.6516179986
 30
0.0
  0
VERTEX
  5
DD
100
AcDbEntity
  8
0
  6
CONTINUOUS
 62
       136
100
AcDbVertex
100
AcDb2dVertex
 10
19.7030422164
 20
18.6932846647
 30
0.0
  0
SEQEND
  5
DE
100
AcDbEntity
  8
0
  6
CONTINUOUS
 62
       136
  0
LINE
  5
DF
100
AcDbEntity
  8
0
  6
CONTINUOUS
 62
       136
100
AcDbLine
 10
12.4980422148
 20
16.413548268
 30
0.0
 11
12.4980422148
 21
18.7349513309
 31
0.0
  0
LINE
  5
E0
100
AcDbEntity
  8
0
  6
CONTINUOUS
 62
       136
100
AcDbLine
 10
19.8280422148
 20
16.413548268
 30
0.0
 11
19.8280422148
 21
18.7349513309
 31
0.0
  0
LINE
  5
E1
100
AcDbEntity
  8
0
  6
CONTINUOUS
 62
       136
100
AcDbLine
 10
12.4980422148
 20
18.6724513317
 30
0.0
 11
15.8747271804
 21
18.6724513317
 31
0.0
  0
LINE
  5
E2
100
AcDbEntity
  8
0
  6
CONTINUOUS
 62
       136
100
AcDbLine
 10
16.4513575426
 20
18.6724513317
 30
0.0
 11
19.8280422148
 21
18.6724513317
 31
0.0
  0
TEXT
  5
E3
100
AcDbEntity
  8
0
  6
CONTINUOUS
 62
       136
100
AcDbText
 10
15.9184771391
 20
18.6099513317
 30
0.0
 40
0.125
  1
7 5/16
  7
ARIAL_TTF
 11
15.9184771391
 21
18.7349513317
 31
0.0
100
AcDbText
 73
         3
  0
POLYLINE
  5
E4
100
AcDbEntity
  8
0
  6
CONTINUOUS
 62
       136
100
AcDb2dPolyline
 66
         1
 10
0.0
 20
0.0
 30
0.0
  0
VERTEX
  5
E5
100
AcDbEntity
  8
0
  6
CONTINUOUS
 62
       136
100
AcDbVertex
100
AcDb2dVertex
 10
19.7030422164
 20
18.2278680146
 30
0.0
  0
VERTEX
  5
E6
100
AcDbEntity
  8
0
  6
CONTINUOUS
 62
       136
100
AcDbVertex
100
AcDb2dVertex
 10
19.8280422148
 20
18.2070346815
 30
0.0
  0
VERTEX
  5
E7
100
AcDbEntity
  8
0
  6
CONTINUOUS
 62
       136
100
AcDbVertex
100
AcDb2dVertex
 10
19.7030422164
 20
18.1862013484
 30
0.0
  0
VERTEX
  5
E8
100
AcDbEntity
  8
0
  6
CONTINUOUS
 62
       136
100
AcDbVertex
100
AcDb2dVertex
 10
19.7030422164
 20
18.2278680146
 30
0.0
  0
SEQEND
  5
E9
100
AcDbEntity
  8
0
  6
CONTINUOUS
 62
       136
  0
POLYLINE
  5
EA
100
AcDbEntity
  8
0
  6
CONTINUOUS
 62
       136
100
AcDb2dPolyline
 66
         1
 10
0.0
 20
0.0
 30
0.0
  0
VERTEX
  5
EB
100
AcDbEntity
  8
0
  6
CONTINUOUS
 62
       136
100
AcDbVertex
100
AcDb2dVertex
 10
16.7470422133
 20
18.2278680146
 30
0.0
  0
VERTEX
  5
EC
100
AcDbEntity
  8
0
  6
CONTINUOUS
 62
       136
100
AcDbVertex
100
AcDb2dVertex
 10
16.6220422148
 20
18.2070346815
 30
0.0
  0
VERTEX
  5
ED
100
AcDbEntity
  8
0
  6
CONTINUOUS
 62
       136
100
AcDbVertex
100
AcDb2dVertex
 10
16.7470422133
 20
18.1862013484
 30
0.0
  0
VERTEX
  5
EE
100
AcDbEntity
  8
0
  6
CONTINUOUS
 62
       136
100
AcDbVertex
100
AcDb2dVertex
 10
16.7470422133
 20
18.2278680146
 30
0.0
  0
SEQEND
  5
EF
100
AcDbEntity
  8
0
  6
CONTINUOUS
 62
       136
  0
LINE
  5
F0
100
AcDbEntity
  8
0
  6
CONTINUOUS
 62
       136
100
AcDbLine
 10
19.8280422148
 20
16.413548268
 30
0.0
 11
19.8280422148
 21
18.2695346808
 31
0.0
  0
LINE
  5
F1
100
AcDbEntity
  8
0
  6
CONTINUOUS
 62
       136
100
AcDbLine
 10
16.6220422148
 20
16.413548268
 30
0.0
 11
16.6220422148
 21
18.2695346808
 31
0.0
  0
LINE
  5
F2
100
AcDbEntity
  8
0
  6
CONTINUOUS
 62
       136
100
AcDbLine
 10
19.8280422148
 20
18.2070346815
 30
0.0
 11
18.5133573489
 21
18.2070346815
 31
0.0
  0
LINE
  5
F3
100
AcDbEntity
  8
0
  6
CONTINUOUS
 62
       136
100
AcDbLine
 10
17.9367269342
 20
18.2070346815
 30
0.0
 11
16.6220422148
 21
18.2070346815
 31
0.0
  0
TEXT
  5
F4
100
AcDbEntity
  8
0
  6
CONTINUOUS
 62
       136
100
AcDbText
 10
17.9804769554
 20
18.1445346815
 30
0.0
 40
0.125
  1
3 3/16
  7
ARIAL_TTF
 11
17.9804769554
 21
18.2695346815
 31
0.0
100
AcDbText
 73
         3
  0
POLYLINE
  5
F5
100
AcDbEntity
  8
0
  6
CONTINUOUS
 62
       136
100
AcDb2dPolyline
 66
         1
 10
0.0
 20
0.0
 30
0.0
  0
VERTEX
  5
F6
100
AcDbEntity
  8
0
  6
CONTINUOUS
 62
       136
100
AcDbVertex
100
AcDb2dVertex
 10
15.5790422164
 20
18.2588957228
 30
0.0
  0
VERTEX
  5
F7
100
AcDbEntity
  8
0
  6
CONTINUOUS
 62
       136
100
AcDbVertex
100
AcDb2dVertex
 10
15.7040422148
 20
18.2380623898
 30
0.0
  0
VERTEX
  5
F8
100
AcDbEntity
  8
0
  6
CONTINUOUS
 62
       136
100
AcDbVertex
100
AcDb2dVertex
 10
15.5790422164
 20
18.2172290567
 30
0.0
  0
VERTEX
  5
F9
100
AcDbEntity
  8
0
  6
CONTINUOUS
 62
       136
100
AcDbVertex
100
AcDb2dVertex
 10
15.5790422164
 20
18.2588957228
 30
0.0
  0
SEQEND
  5
FA
100
AcDbEntity
  8
0
  6
CONTINUOUS
 62
       136
  0
POLYLINE
  5
FB
100
AcDbEntity
  8
0
  6
CONTINUOUS
 62
       136
100
AcDb2dPolyline
 66
         1
 10
0.0
 20
0.0
 30
0.0
  0
VERTEX
  5
FC
100
AcDbEntity
  8
0
  6
CONTINUOUS
 62
       136
100
AcDbVertex
100
AcDb2dVertex
 10
12.6230422133
 20
18.2588957228
 30
0.0
  0
VERTEX
  5
FD
100
AcDbEntity
  8
0
  6
CONTINUOUS
 62
       136
100
AcDbVertex
100
AcDb2dVertex
 10
12.4980422148
 20
18.2380623898
 30
0.0
  0
VERTEX
  5
FE
100
AcDbEntity
  8
0
  6
CONTINUOUS
 62
       136
100
AcDbVertex
100
AcDb2dVertex
 10
12.6230422133
 20
18.2172290567
 30
0.0
  0
VERTEX
  5
FF
100
AcDbEntity
  8
0
  6
CONTINUOUS
 62
       136
100
AcDbVertex
100
AcDb2dVertex
 10
12.6230422133
 20
18.2588957228
 30
0.0
  0
SEQEND
  5
100
100
AcDbEntity
  8
0
  6
CONTINUOUS
 62
       136
  0
LINE
  5
101
100
AcDbEntity
  8
0
  6
CONTINUOUS
 62
       136
100
AcDbLine
 10
15.7040422148
 20
16.413548268
 30
0.0
 11
15.7040422148
 21
18.300562389
 31
0.0
  0
LINE
  5
102
100
AcDbEntity
  8
0
  6
CONTINUOUS
 62
       136
100
AcDbLine
 10
12.4980422148
 20
16.413548268
 30
0.0
 11
12.4980422148
 21
18.300562389
 31
0.0
  0
LINE
  5
103
100
AcDbEntity
  8
0
  6
CONTINUOUS
 62
       136
100
AcDbLine
 10
15.7040422148
 20
18.2380623898
 30
0.0
 11
14.3893573489
 21
18.2380623898
 31
0.0
  0
LINE
  5
104
100
AcDbEntity
  8
0
  6
CONTINUOUS
 62
       136
100
AcDbLine
 10
13.8127269342
 20
18.2380623898
 30
0.0
 11
12.4980422148
 21
18.2380623898
 31
0.0
  0
TEXT
  5
105
100
AcDbEntity
  8
0
  6
CONTINUOUS
 62
       136
100
AcDbText
 10
13.8564769554
 20
18.1755623898
 30
0.0
 40
0.125
  1
3 3/16
  7
ARIAL_TTF
 11
13.8564769554
 21
18.3005623898
 31
0.0
100
AcDbText
 73
         3
  0
POLYLINE
  5
106
100
AcDbEntity
  8
0
  6
CONTINUOUS
 62
       136
100
AcDb2dPolyline
 66
         1
 10
0.0
 20
0.0
 30
0.0
  0
VERTEX
  5
107
100
AcDbEntity
  8
0
  6
CONTINUOUS
 62
       136
100
AcDbVertex
100
AcDb2dVertex
 10
15.0070422164
 20
17.7779651485
 30
0.0
  0
VERTEX
  5
108
100
AcDbEntity
  8
0
  6
CONTINUOUS
 62
       136
100
AcDbVertex
100
AcDb2dVertex
 10
15.1320422148
 20
17.7571318154
 30
0.0
  0
VERTEX
  5
109
100
AcDbEntity
  8
0
  6
CONTINUOUS
 62
       136
100
AcDbVertex
100
AcDb2dVertex
 10
15.0070422164
 20
17.7362984824
 30
0.0
  0
VERTEX
  5
10A
100
AcDbEntity
  8
0
  6
CONTINUOUS
 62
       136
100
AcDbVertex
100
AcDb2dVertex
 10
15.0070422164
 20
17.7779651485
 30
0.0
  0
SEQEND
  5
10B
100
AcDbEntity
  8
0
  6
CONTINUOUS
 62
       136
  0
POLYLINE
  5
10C
100
AcDbEntity
  8
0
  6
CONTINUOUS
 62
       136
100
AcDb2dPolyline
 66
         1
 10
0.0
 20
0.0
 30
0.0
  0
VERTEX
  5
10D
100
AcDbEntity
  8
0
  6
CONTINUOUS
 62
       136
100
AcDbVertex
100
AcDb2dVertex
 10
13.1950422133
 20
17.7779651485
 30
0.0
  0
VERTEX
  5
10E
100
AcDbEntity
  8
0
  6
CONTINUOUS
 62
       136
100
AcDbVertex
100
AcDb2dVertex
 10
13.0700422148
 20
17.7571318154
 30
0.0
  0
VERTEX
  5
10F
100
AcDbEntity
  8
0
  6
CONTINUOUS
 62
       136
100
AcDbVertex
100
AcDb2dVertex
 10
13.1950422133
 20
17.7362984824
 30
0.0
  0
VERTEX
  5
110
100
AcDbEntity
  8
0
  6
CONTINUOUS
 62
       136
100
AcDbVertex
100
AcDb2dVertex
 10
13.1950422133
 20
17.7779651485
 30
0.0
  0
SEQEND
  5
111
100
AcDbEntity
  8
0
  6
CONTINUOUS
 62
       136
  0
LINE
  5
112
100
AcDbEntity
  8
0
  6
CONTINUOUS
 62
       136
100
AcDbLine
 10
15.1320422148
 20
15.730548268
 30
0.0
 11
15.1320422148
 21
17.8196318147
 31
0.0
  0
LINE
  5
113
100
AcDbEntity
  8
0
  6
CONTINUOUS
 62
       136
100
AcDbLine
 10
13.0700422148
 20
15.730548268
 30
0.0
 11
13.0700422148
 21
17.8196318147
 31
0.0
  0
LINE
  5
114
100
AcDbEntity
  8
0
  6
CONTINUOUS
 62
       136
100
AcDbLine
 10
15.1320422148
 20
17.7571318154
 30
0.0
 11
14.3893574877
 21
17.7571318154
 31
0.0
  0
LINE
  5
115
100
AcDbEntity
  8
0
  6
CONTINUOUS
 62
       136
100
AcDbLine
 10
13.8127270153
 20
17.7571318154
 30
0.0
 11
13.0700422148
 21
17.7571318154
 31
0.0
  0
TEXT
  5
116
100
AcDbEntity
  8
0
  6
CONTINUOUS
 62
       136
100
AcDbText
 10
13.856477021
 20
17.6946318154
 30
0.0
 40
0.125
  1
2 1/16
  7
ARIAL_TTF
 11
13.856477021
 21
17.8196318154
 31
0.0
100
AcDbText
 73
         3
  0
POLYLINE
  5
117
100
AcDbEntity
  8
0
  6
CONTINUOUS
 62
       136
100
AcDb2dPolyline
 66
         1
 10
0.0
 20
0.0
 30
0.0
  0
VERTEX
  5
118
100
AcDbEntity
  8
0
  6
CONTINUOUS
 62
       136
100
AcDbVertex
100
AcDb2dVertex
 10
17.3190422133
 20
17.6848818772
 30
0.0
  0
VERTEX
  5
119
100
AcDbEntity
  8
0
  6
CONTINUOUS
 62
       136
100
AcDbVertex
100
AcDb2dVertex
 10
17.1940422148
 20
17.6640485441
 30
0.0
  0
VERTEX
  5
11A
100
AcDbEntity
  8
0
  6
CONTINUOUS
 62
       136
100
AcDbVertex
100
AcDb2dVertex
 10
17.3190422133
 20
17.643215211
 30
0.0
  0
VERTEX
  5
11B
100
AcDbEntity
  8
0
  6
CONTINUOUS
 62
       136
100
AcDbVertex
100
AcDb2dVertex
 10
17.3190422133
 20
17.6848818772
 30
0.0
  0
SEQEND
  5
11C
100
AcDbEntity
  8
0
  6
CONTINUOUS
 62
       136
  0
POLYLINE
  5
11D
100
AcDbEntity
  8
0
  6
CONTINUOUS
 62
       136
100
AcDb2dPolyline
 66
         1
 10
0.0
 20
0.0
 30
0.0
  0
VERTEX
  5
11E
100
AcDbEntity
  8
0
  6
CONTINUOUS
 62
       136
100
AcDbVertex
100
AcDb2dVertex
 10
19.1310422164
 20
17.6848818772
 30
0.0
  0
VERTEX
  5
11F
100
AcDbEntity
  8
0
  6
CONTINUOUS
 62
       136
100
AcDbVertex
100
AcDb2dVertex
 10
19.2560422148
 20
17.6640485441
 30
0.0
  0
VERTEX
  5
120
100
AcDbEntity
  8
0
  6
CONTINUOUS
 62
       136
100
AcDbVertex
100
AcDb2dVertex
 10
19.1310422164
 20
17.643215211
 30
0.0
  0
VERTEX
  5
121
100
AcDbEntity
  8
0
  6
CONTINUOUS
 62
       136
100
AcDbVertex
100
AcDb2dVertex
 10
19.1310422164
 20
17.6848818772
 30
0.0
  0
SEQEND
  5
122
100
AcDbEntity
  8
0
  6
CONTINUOUS
 62
       136
  0
LINE
  5
123
100
AcDbEntity
  8
0
  6
CONTINUOUS
 62
       136
100
AcDbLine
 10
17.1940422148
 20
15.730548268
 30
0.0
 11
17.1940422148
 21
17.7265485433
 31
0.0
  0
LINE
  5
124
100
AcDbEntity
  8
0
  6
CONTINUOUS
 62
       136
100
AcDbLine
 10
19.2560422148
 20
15.730548268
 30
0.0
 11
19.2560422148
 21
17.7265485433
 31
0.0
  0
LINE
  5
125
100
AcDbEntity
  8
0
  6
CONTINUOUS
 62
       136
100
AcDbLine
 10
17.1940422148
 20
17.6640485441
 30
0.0
 11
17.936726942
 21
17.6640485441
 31
0.0
  0
LINE
  5
126
100
AcDbEntity
  8
0
  6
CONTINUOUS
 62
       136
100
AcDbLine
 10
18.5133574144
 20
17.6640485441
 30
0.0
 11
19.2560422148
 21
17.6640485441
 31
0.0
  0
TEXT
  5
127
100
AcDbEntity
  8
0
  6
CONTINUOUS
 62
       136
100
AcDbText
 10
17.9804769739
 20
17.6015485441
 30
0.0
 40
0.125
  1
2 1/16
  7
ARIAL_TTF
 11
17.9804769739
 21
17.7265485441
 31
0.0
100
AcDbText
 73
         3
  0
POLYLINE
  5
128
100
AcDbEntity
  8
0
  6
CONTINUOUS
 62
       136
100
AcDb2dPolyline
 66
         1
 10
0.0
 20
0.0
 30
0.0
  0
VERTEX
  5
129
100
AcDbEntity
  8
0
  6
CONTINUOUS
 62
       136
100
AcDbVertex
100
AcDb2dVertex
 10
22.7152232641
 20
17.0780482702
 30
0.0
  0
VERTEX
  5
12A
100
AcDbEntity
  8
0
  6
CONTINUOUS
 62
       136
100
AcDbVertex
100
AcDb2dVertex
 10
22.694389931
 20
17.2030482687
 30
0.0
  0
VERTEX
  5
12B
100
AcDbEntity
  8
0
  6
CONTINUOUS
 62
       136
100
AcDbVertex
100
AcDb2dVertex
 10
22.6735565979
 20
17.0780482702
 30
0.0
  0
VERTEX
  5
12C
100
AcDbEntity
  8
0
  6
CONTINUOUS
 62
       136
100
AcDbVertex
100
AcDb2dVertex
 10
22.7152232641
 20
17.0780482702
 30
0.0
  0
SEQEND
  5
12D
100
AcDbEntity
  8
0
  6
CONTINUOUS
 62
       136
  0
POLYLINE
  5
12E
100
AcDbEntity
  8
0
  6
CONTINUOUS
 62
       136
100
AcDb2dPolyline
 66
         1
 10
0.0
 20
0.0
 30
0.0
  0
VERTEX
  5
12F
100
AcDbEntity
  8
0
  6
CONTINUOUS
 62
       136
100
AcDbVertex
100
AcDb2dVertex
 10
22.7152232641
 20
11.5480482672
 30
0.0
  0
VERTEX
  5
130
100
AcDbEntity
  8
0
  6
CONTINUOUS
 62
       136
100
AcDbVertex
100
AcDb2dVertex
 10
22.694389931
 20
11.4230482687
 30
0.0
  0
VERTEX
  5
131
100
AcDbEntity
  8
0
  6
CONTINUOUS
 62
       136
100
AcDbVertex
100
AcDb2dVertex
 10
22.6735565979
 20
11.5480482672
 30
0.0
  0
VERTEX
  5
132
100
AcDbEntity
  8
0
  6
CONTINUOUS
 62
       136
100
AcDbVertex
100
AcDb2dVertex
 10
22.7152232641
 20
11.5480482672
 30
0.0
  0
SEQEND
  5
133
100
AcDbEntity
  8
0
  6
CONTINUOUS
 62
       136
  0
LINE
  5
134
100
AcDbEntity
  8
0
  6
CONTINUOUS
 62
       136
100
AcDbLine
 10
20.6605422141
 20
17.2030482687
 30
0.0
 11
22.7568899302
 21
17.2030482687
 31
0.0
  0
LINE
  5
135
100
AcDbEntity
  8
0
  6
CONTINUOUS
 62
       136
100
AcDbLine
 10
20.6605422141
 20
11.4230482687
 30
0.0
 11
22.7568899302
 21
11.4230482687
 31
0.0
  0
LINE
  5
136
100
AcDbEntity
  8
0
  6
CONTINUOUS
 62
       136
100
AcDbLine
 10
22.694389931
 20
17.2030482687
 30
0.0
 11
22.694389931
 21
14.4192981068
 31
0.0
  0
LINE
  5
137
100
AcDbEntity
  8
0
  6
CONTINUOUS
 62
       136
100
AcDbLine
 10
22.694389931
 20
14.2067981373
 30
0.0
 11
22.694389931
 21
11.4230482687
 31
0.0
  0
TEXT
  5
138
100
AcDbEntity
  8
0
  6
CONTINUOUS
 62
       136
100
AcDbText
 10
22.4987377571
 20
14.2505481342
 30
0.0
 40
0.125
  1
5 3/4
  7
ARIAL_TTF
 11
22.4987377571
 21
14.3755481342
 31
0.0
100
AcDbText
 73
         3
  0
POLYLINE
  5
139
100
AcDbEntity
  8
0
  6
CONTINUOUS
 62
       136
100
AcDb2dPolyline
 66
         1
 10
0.0
 20
0.0
 30
0.0
  0
VERTEX
  5
13A
100
AcDbEntity
  8
0
  6
CONTINUOUS
 62
       136
100
AcDbVertex
100
AcDb2dVertex
 10
21.9240148747
 20
16.3040482702
 30
0.0
  0
VERTEX
  5
13B
100
AcDbEntity
  8
0
  6
CONTINUOUS
 62
       136
100
AcDbVertex
100
AcDb2dVertex
 10
21.9031815416
 20
16.4290482687
 30
0.0
  0
VERTEX
  5
13C
100
AcDbEntity
  8
0
  6
CONTINUOUS
 62
       136
100
AcDbVertex
100
AcDb2dVertex
 10
21.8823482085
 20
16.3040482702
 30
0.0
  0
VERTEX
  5
13D
100
AcDbEntity
  8
0
  6
CONTINUOUS
 62
       136
100
AcDbVertex
100
AcDb2dVertex
 10
21.9240148747
 20
16.3040482702
 30
0.0
  0
SEQEND
  5
13E
100
AcDbEntity
  8
0
  6
CONTINUOUS
 62
       136
  0
POLYLINE
  5
13F
100
AcDbEntity
  8
0
  6
CONTINUOUS
 62
       136
100
AcDb2dPolyline
 66
         1
 10
0.0
 20
0.0
 30
0.0
  0
VERTEX
  5
140
100
AcDbEntity
  8
0
  6
CONTINUOUS
 62
       136
100
AcDbVertex
100
AcDb2dVertex
 10
21.9240148747
 20
12.3220482672
 30
0.0
  0
VERTEX
  5
141
100
AcDbEntity
  8
0
  6
CONTINUOUS
 62
       136
100
AcDbVertex
100
AcDb2dVertex
 10
21.9031815416
 20
12.1970482687
 30
0.0
  0
VERTEX
  5
142
100
AcDbEntity
  8
0
  6
CONTINUOUS
 62
       136
100
AcDbVertex
100
AcDb2dVertex
 10
21.8823482085
 20
12.3220482672
 30
0.0
  0
VERTEX
  5
143
100
AcDbEntity
  8
0
  6
CONTINUOUS
 62
       136
100
AcDbVertex
100
AcDb2dVertex
 10
21.9240148747
 20
12.3220482672
 30
0.0
  0
SEQEND
  5
144
100
AcDbEntity
  8
0
  6
CONTINUOUS
 62
       136
  0
LINE
  5
145
100
AcDbEntity
  8
0
  6
CONTINUOUS
 62
       136
100
AcDbLine
 10
19.8125422141
 20
16.4290482687
 30
0.0
 11
21.9656815408
 21
16.4290482687
 31
0.0
  0
LINE
  5
146
100
AcDbEntity
  8
0
  6
CONTINUOUS
 62
       136
100
AcDbLine
 10
19.8125422141
 20
12.1970482687
 30
0.0
 11
21.9656815408
 21
12.1970482687
 31
0.0
  0
LINE
  5
147
100
AcDbEntity
  8
0
  6
CONTINUOUS
 62
       136
100
AcDbLine
 10
21.9031815416
 20
16.4290482687
 30
0.0
 11
21.9031815416
 21
14.4192982988
 31
0.0
  0
LINE
  5
148
100
AcDbEntity
  8
0
  6
CONTINUOUS
 62
       136
100
AcDbLine
 10
21.9031815416
 20
14.2067983852
 30
0.0
 11
21.9031815416
 21
12.1970482687
 31
0.0
  0
TEXT
  5
149
100
AcDbEntity
  8
0
  6
CONTINUOUS
 62
       136
100
AcDbText
 10
21.7075293677
 20
14.2505483263
 30
0.0
 40
0.125
  1
4 1/4
  7
ARIAL_TTF
 11
21.7075293677
 21
14.3755483263
 31
0.0
100
AcDbText
 73
         3
  0
POLYLINE
  5
14A
100
AcDbEntity
  8
0
  6
CONTINUOUS
 62
       136
100
AcDb2dPolyline
 66
         1
 10
0.0
 20
0.0
 30
0.0
  0
VERTEX
  5
14B
100
AcDbEntity
  8
0
  6
CONTINUOUS
 62
       136
100
AcDbVertex
100
AcDb2dVertex
 10
21.0862648166
 20
15.6680482702
 30
0.0
  0
VERTEX
  5
14C
100
AcDbEntity
  8
0
  6
CONTINUOUS
 62
       136
100
AcDbVertex
100
AcDb2dVertex
 10
21.0654314835
 20
15.7930482687
 30
0.0
  0
VERTEX
  5
14D
100
AcDbEntity
  8
0
  6
CONTINUOUS
 62
       136
100
AcDbVertex
100
AcDb2dVertex
 10
21.0445981505
 20
15.6680482702
 30
0.0
  0
VERTEX
  5
14E
100
AcDbEntity
  8
0
  6
CONTINUOUS
 62
       136
100
AcDbVertex
100
AcDb2dVertex
 10
21.0862648166
 20
15.6680482702
 30
0.0
  0
SEQEND
  5
14F
100
AcDbEntity
  8
0
  6
CONTINUOUS
 62
       136
  0
POLYLINE
  5
150
100
AcDbEntity
  8
0
  6
CONTINUOUS
 62
       136
100
AcDb2dPolyline
 66
         1
 10
0.0
 20
0.0
 30
0.0
  0
VERTEX
  5
151
100
AcDbEntity
  8
0
  6
CONTINUOUS
 62
       136
100
AcDbVertex
100
AcDb2dVertex
 10
21.0862648166
 20
12.9580482672
 30
0.0
  0
VERTEX
  5
152
100
AcDbEntity
  8
0
  6
CONTINUOUS
 62
       136
100
AcDbVertex
100
AcDb2dVertex
 10
21.0654314835
 20
12.8330482687
 30
0.0
  0
VERTEX
  5
153
100
AcDbEntity
  8
0
  6
CONTINUOUS
 62
       136
100
AcDbVertex
100
AcDb2dVertex
 10
21.0445981505
 20
12.9580482672
 30
0.0
  0
VERTEX
  5
154
100
AcDbEntity
  8
0
  6
CONTINUOUS
 62
       136
100
AcDbVertex
100
AcDb2dVertex
 10
21.0862648166
 20
12.9580482672
 30
0.0
  0
SEQEND
  5
155
100
AcDbEntity
  8
0
  6
CONTINUOUS
 62
       136
  0
LINE
  5
156
100
AcDbEntity
  8
0
  6
CONTINUOUS
 62
       136
100
AcDbLine
 10
18.9905422141
 20
15.7930482687
 30
0.0
 11
21.1279314828
 21
15.7930482687
 31
0.0
  0
LINE
  5
157
100
AcDbEntity
  8
0
  6
CONTINUOUS
 62
       136
100
AcDbLine
 10
19.1935422141
 20
12.8330482687
 30
0.0
 11
21.1279314828
 21
12.8330482687
 31
0.0
  0
LINE
  5
158
100
AcDbEntity
  8
0
  6
CONTINUOUS
 62
       136
100
AcDbLine
 10
21.0654314835
 20
15.7930482687
 30
0.0
 11
21.0654314835
 21
14.4192981917
 31
0.0
  0
LINE
  5
159
100
AcDbEntity
  8
0
  6
CONTINUOUS
 62
       136
100
AcDbLine
 10
21.0654314835
 20
14.206798199
 30
0.0
 11
21.0654314835
 21
12.8330482687
 31
0.0
  0
TEXT
  5
15A
100
AcDbEntity
  8
0
  6
CONTINUOUS
 62
       136
100
AcDbText
 10
20.7719532227
 20
14.2505482191
 30
0.0
 40
0.125
  1
2 15/16
  7
ARIAL_TTF
 11
20.7719532227
 21
14.3755482191
 31
0.0
100
AcDbText
 73
         3
  0
LINE
  5
15B
100
AcDbEntity
  8
83795
  6
CONTINUOUS
 62
         7
100
AcDbLine
 10
19.9750422148
 20
8.6883660908
 30
0.0
 11
19.9750422148
 21
8.1303660908
 31
0.0
  0
LINE
  5
15C
100
AcDbEntity
  8
83795
  6
CONTINUOUS
 62
         7
100
AcDbLine
 10
12.3510422148
 20
8.1283660908
 30
0.0
 11
12.3510422148
 21
8.6883660908
 31
0.0
  0
LINE
  5
15D
100
AcDbEntity
  8
83795
  6
CONTINUOUS
 62
         7
100
AcDbLine
 10
16.4750422148
 20
8.6883660908
 30
0.0
 11
16.4750422148
 21
8.7503660908
 31
0.0
  0
LINE
  5
15E
100
AcDbEntity
  8
83795
  6
CONTINUOUS
 62
         7
100
AcDbLine
 10
15.8590422148
 20
8.7503660908
 30
0.0
 11
15.8590422148
 21
8.6883660908
 31
0.0
  0
LINE
  5
15F
100
AcDbEntity
  8
83795
  6
CONTINUOUS
 62
         7
100
AcDbLine
 10
12.4760422148
 20
8.0683660908
 30
0.0
 11
12.4110422148
 21
8.0683660908
 31
0.0
  0
LINE
  5
160
100
AcDbEntity
  8
83795
  6
CONTINUOUS
 62
         7
100
AcDbLine
 10
15.7970422148
 20
8.0683660908
 30
0.0
 11
12.4760422148
 21
8.0683660908
 31
0.0
  0
LINE
  5
161
100
AcDbEntity
  8
83795
  6
CONTINUOUS
 62
         7
100
AcDbLine
 10
15.8590422148
 20
8.4403660908
 30
0.0
 11
15.8590422148
 21
8.1303660908
 31
0.0
  0
ARC
  5
162
100
AcDbEntity
  8
83795
  6
CONTINUOUS
 62
         7
100
AcDbCircle
 10
15.7970422148
 20
8.1303660908
 30
0.0
 40
0.062
100
AcDbArc
 50
270.0
 51
360.0
  0
LINE
  5
163
100
AcDbEntity
  8
83795
  6
CONTINUOUS
 62
         7
100
AcDbLine
 10
16.4750422148
 20
8.1303660908
 30
0.0
 11
16.4750422148
 21
8.4403660908
 31
0.0
  0
LINE
  5
164
100
AcDbEntity
  8
83795
  6
CONTINUOUS
 62
         7
100
AcDbLine
 10
16.4750422148
 20
8.1283660908
 30
0.0
 11
16.4750422148
 21
8.1303660908
 31
0.0
  0
LINE
  5
165
100
AcDbEntity
  8
83795
  6
CONTINUOUS
 62
         7
100
AcDbLine
 10
16.4150422148
 20
8.5003660908
 30
0.0
 11
15.9190422148
 21
8.5003660908
 31
0.0
  0
ARC
  5
166
100
AcDbEntity
  8
83795
  6
CONTINUOUS
 62
         7
100
AcDbCircle
 10
16.4150422148
 20
8.4403660908
 30
0.0
 40
0.06
100
AcDbArc
 50
0.0
 51
90.0
  0
ARC
  5
167
100
AcDbEntity
  8
83795
  6
CONTINUOUS
 62
         7
100
AcDbCircle
 10
15.9190422148
 20
8.4403660908
 30
0.0
 40
0.06
100
AcDbArc
 50
90.0
 51
180.0
  0
ARC
  5
168
100
AcDbEntity
  8
83795
  6
CONTINUOUS
 62
         7
100
AcDbCircle
 10
16.5350422148
 20
8.1283660908
 30
0.0
 40
0.06
100
AcDbArc
 50
180.0
 51
270.0
  0
ARC
  5
169
100
AcDbEntity
  8
83795
  6
CONTINUOUS
 62
         7
100
AcDbCircle
 10
12.4110422148
 20
8.1283660908
 30
0.0
 40
0.06
100
AcDbArc
 50
180.0
 51
270.0
  0
ARC
  5
16A
100
AcDbEntity
  8
83795
  6
CONTINUOUS
 62
         7
100
AcDbCircle
 10
12.2890422148
 20
8.6883660908
 30
0.0
 40
0.062
100
AcDbArc
 50
0.0
 51
90.0
  0
ARC
  5
16B
100
AcDbEntity
  8
83795
  6
CONTINUOUS
 62
         7
100
AcDbCircle
 10
20.0370422148
 20
8.6883660908
 30
0.0
 40
0.062
100
AcDbArc
 50
90.0
 51
180.0
  0
LINE
  5
16C
100
AcDbEntity
  8
83795
  6
CONTINUOUS
 62
         7
100
AcDbLine
 10
11.9780422148
 20
8.9533660908
 30
0.0
 11
11.7280422148
 21
8.8283660908
 31
0.0
  0
LINE
  5
16D
100
AcDbEntity
  8
83795
  6
CONTINUOUS
 62
         7
100
AcDbLine
 10
20.5980422148
 20
8.8283660908
 30
0.0
 11
20.3480422148
 21
8.9533660908
 31
0.0
  0
LINE
  5
16E
100
AcDbEntity
  8
83795
  6
CONTINUOUS
 62
         7
100
AcDbLine
 10
11.7280422148
 20
8.7503660908
 30
0.0
 11
20.5980422148
 21
8.7503660908
 31
0.0
  0
LINE
  5
16F
100
AcDbEntity
  8
83795
  6
CONTINUOUS
 62
         7
100
AcDbLine
 10
11.9780422148
 20
8.9533660908
 30
0.0
 11
20.3480422148
 21
8.9533660908
 31
0.0
  0
LINE
  5
170
100
AcDbEntity
  8
83795
  6
CONTINUOUS
 62
         7
100
AcDbLine
 10
11.7280422148
 20
8.8283660908
 30
0.0
 11
11.7280422148
 21
8.7503660908
 31
0.0
  0
LINE
  5
171
100
AcDbEntity
  8
83795
  6
CONTINUOUS
 62
         7
100
AcDbLine
 10
20.5980422148
 20
8.8283660908
 30
0.0
 11
20.5980422148
 21
8.7503660908
 31
0.0
  0
LINE
  5
172
100
AcDbEntity
  8
83795
  6
CONTINUOUS
 62
         7
100
AcDbLine
 10
20.5980422148
 20
8.8283660908
 30
0.0
 11
11.7280422148
 21
8.8283660908
 31
0.0
  0
LINE
  5
173
100
AcDbEntity
  8
83795
  6
CONTINUOUS
 62
         7
100
AcDbLine
 10
19.8500422148
 20
8.0683660908
 30
0.0
 11
16.5350422148
 21
8.0683660908
 31
0.0
  0
LINE
  5
174
100
AcDbEntity
  8
83795
  6
CONTINUOUS
 62
         7
100
AcDbLine
 10
19.9130422148
 20
8.0683660908
 30
0.0
 11
19.8500422148
 21
8.0683660908
 31
0.0
  0
ARC
  5
175
100
AcDbEntity
  8
83795
  6
CONTINUOUS
 62
         7
100
AcDbCircle
 10
19.9130422148
 20
8.1303660908
 30
0.0
 40
0.062
100
AcDbArc
 50
270.0
 51
360.0
  0
POLYLINE
  5
176
100
AcDbEntity
  8
0
  6
CONTINUOUS
 62
       136
100
AcDb2dPolyline
 66
         1
 10
0.0
 20
0.0
 30
0.0
  0
VERTEX
  5
177
100
AcDbEntity
  8
0
  6
CONTINUOUS
 62
       136
100
AcDbVertex
100
AcDb2dVertex
 10
11.8530422133
 20
10.3600668769
 30
0.0
  0
VERTEX
  5
178
100
AcDbEntity
  8
0
  6
CONTINUOUS
 62
       136
100
AcDbVertex
100
AcDb2dVertex
 10
11.7280422148
 20
10.3392335438
 30
0.0
  0
VERTEX
  5
179
100
AcDbEntity
  8
0
  6
CONTINUOUS
 62
       136
100
AcDbVertex
100
AcDb2dVertex
 10
11.8530422133
 20
10.3184002107
 30
0.0
  0
VERTEX
  5
17A
100
AcDbEntity
  8
0
  6
CONTINUOUS
 62
       136
100
AcDbVertex
100
AcDb2dVertex
 10
11.8530422133
 20
10.3600668769
 30
0.0
  0
SEQEND
  5
17B
100
AcDbEntity
  8
0
  6
CONTINUOUS
 62
       136
  0
POLYLINE
  5
17C
100
AcDbEntity
  8
0
  6
CONTINUOUS
 62
       136
100
AcDb2dPolyline
 66
         1
 10
0.0
 20
0.0
 30
0.0
  0
VERTEX
  5
17D
100
AcDbEntity
  8
0
  6
CONTINUOUS
 62
       136
100
AcDbVertex
100
AcDb2dVertex
 10
20.4730422164
 20
10.3600668769
 30
0.0
  0
VERTEX
  5
17E
100
AcDbEntity
  8
0
  6
CONTINUOUS
 62
       136
100
AcDbVertex
100
AcDb2dVertex
 10
20.5980422148
 20
10.3392335438
 30
0.0
  0
VERTEX
  5
17F
100
AcDbEntity
  8
0
  6
CONTINUOUS
 62
       136
100
AcDbVertex
100
AcDb2dVertex
 10
20.4730422164
 20
10.3184002107
 30
0.0
  0
VERTEX
  5
180
100
AcDbEntity
  8
0
  6
CONTINUOUS
 62
       136
100
AcDbVertex
100
AcDb2dVertex
 10
20.4730422164
 20
10.3600668769
 30
0.0
  0
SEQEND
  5
181
100
AcDbEntity
  8
0
  6
CONTINUOUS
 62
       136
  0
LINE
  5
182
100
AcDbEntity
  8
0
  6
CONTINUOUS
 62
       136
100
AcDbLine
 10
11.7280422148
 20
8.8908660901
 30
0.0
 11
11.7280422148
 21
10.4017335431
 31
0.0
  0
LINE
  5
183
100
AcDbEntity
  8
0
  6
CONTINUOUS
 62
       136
100
AcDbLine
 10
20.5980422148
 20
8.8908660901
 30
0.0
 11
20.5980422148
 21
10.4017335431
 31
0.0
  0
LINE
  5
184
100
AcDbEntity
  8
0
  6
CONTINUOUS
 62
       136
100
AcDbLine
 10
11.7280422148
 20
10.3392335438
 30
0.0
 11
15.9236401469
 21
10.3392335438
 31
0.0
  0
LINE
  5
185
100
AcDbEntity
  8
0
  6
CONTINUOUS
 62
       136
100
AcDbLine
 10
16.4024445761
 20
10.3392335438
 30
0.0
 11
20.5980422148
 21
10.3392335438
 31
0.0
  0
TEXT
  5
186
100
AcDbEntity
  8
0
  6
CONTINUOUS
 62
       136
100
AcDbText
 10
15.9673900874
 20
10.2767335438
 30
0.0
 40
0.125
  1
8 7/8
  7
ARIAL_TTF
 11
15.9673900874
 21
10.4017335438
 31
0.0
100
AcDbText
 73
         3
  0
POLYLINE
  5
187
100
AcDbEntity
  8
0
  6
CONTINUOUS
 62
       136
100
AcDb2dPolyline
 66
         1
 10
0.0
 20
0.0
 30
0.0
  0
VERTEX
  5
188
100
AcDbEntity
  8
0
  6
CONTINUOUS
 62
       136
100
AcDbVertex
100
AcDb2dVertex
 10
22.3821708502
 20
8.8283660923
 30
0.0
  0
VERTEX
  5
189
100
AcDbEntity
  8
0
  6
CONTINUOUS
 62
       136
100
AcDbVertex
100
AcDb2dVertex
 10
22.3613375171
 20
8.9533660908
 30
0.0
  0
VERTEX
  5
18A
100
AcDbEntity
  8
0
  6
CONTINUOUS
 62
       136
100
AcDbVertex
100
AcDb2dVertex
 10
22.340504184
 20
8.8283660923
 30
0.0
  0
VERTEX
  5
18B
100
AcDbEntity
  8
0
  6
CONTINUOUS
 62
       136
100
AcDbVertex
100
AcDb2dVertex
 10
22.3821708502
 20
8.8283660923
 30
0.0
  0
SEQEND
  5
18C
100
AcDbEntity
  8
0
  6
CONTINUOUS
 62
       136
  0
POLYLINE
  5
18D
100
AcDbEntity
  8
0
  6
CONTINUOUS
 62
       136
100
AcDb2dPolyline
 66
         1
 10
0.0
 20
0.0
 30
0.0
  0
VERTEX
  5
18E
100
AcDbEntity
  8
0
  6
CONTINUOUS
 62
       136
100
AcDbVertex
100
AcDb2dVertex
 10
22.3821708502
 20
8.1933660893
 30
0.0
  0
VERTEX
  5
18F
100
AcDbEntity
  8
0
  6
CONTINUOUS
 62
       136
100
AcDbVertex
100
AcDb2dVertex
 10
22.3613375171
 20
8.0683660908
 30
0.0
  0
VERTEX
  5
190
100
AcDbEntity
  8
0
  6
CONTINUOUS
 62
       136
100
AcDbVertex
100
AcDb2dVertex
 10
22.340504184
 20
8.1933660893
 30
0.0
  0
VERTEX
  5
191
100
AcDbEntity
  8
0
  6
CONTINUOUS
 62
       136
100
AcDbVertex
100
AcDb2dVertex
 10
22.3821708502
 20
8.1933660893
 30
0.0
  0
SEQEND
  5
192
100
AcDbEntity
  8
0
  6
CONTINUOUS
 62
       136
  0
LINE
  5
193
100
AcDbEntity
  8
0
  6
CONTINUOUS
 62
       136
100
AcDbLine
 10
20.4105422141
 20
8.9533660908
 30
0.0
 11
22.4238375163
 21
8.9533660908
 31
0.0
  0
LINE
  5
194
100
AcDbEntity
  8
0
  6
CONTINUOUS
 62
       136
100
AcDbLine
 10
19.9125422141
 20
8.0683660908
 30
0.0
 11
22.4238375163
 21
8.0683660908
 31
0.0
  0
LINE
  5
195
100
AcDbEntity
  8
0
  6
CONTINUOUS
 62
       136
100
AcDbLine
 10
22.3613375171
 20
8.9533660908
 30
0.0
 11
22.3613375171
 21
8.6171161085
 31
0.0
  0
LINE
  5
196
100
AcDbEntity
  8
0
  6
CONTINUOUS
 62
       136
100
AcDbLine
 10
22.3613375171
 20
8.4046161098
 30
0.0
 11
22.3613375171
 21
8.0683660908
 31
0.0
  0
TEXT
  5
197
100
AcDbEntity
  8
0
  6
CONTINUOUS
 62
       136
100
AcDbText
 10
22.2390549084
 20
8.4483660993
 30
0.0
 40
0.125
  1
7/8
  7
ARIAL_TTF
 11
22.2390549084
 21
8.5733660993
 31
0.0
100
AcDbText
 73
         3
  0
POLYLINE
  5
198
100
AcDbEntity
  8
0
  6
CONTINUOUS
 62
       136
100
AcDb2dPolyline
 66
         1
 10
0.0
 20
0.0
 30
0.0
  0
VERTEX
  5
199
100
AcDbEntity
  8
0
  6
CONTINUOUS
 62
       136
100
AcDbVertex
100
AcDb2dVertex
 10
21.370733561
 20
9.0783660893
 30
0.0
  0
VERTEX
  5
19A
100
AcDbEntity
  8
0
  6
CONTINUOUS
 62
       136
100
AcDbVertex
100
AcDb2dVertex
 10
21.349900228
 20
8.9533660908
 30
0.0
  0
VERTEX
  5
19B
100
AcDbEntity
  8
0
  6
CONTINUOUS
 62
       136
100
AcDbVertex
100
AcDb2dVertex
 10
21.3290668949
 20
9.0783660893
 30
0.0
  0
VERTEX
  5
19C
100
AcDbEntity
  8
0
  6
CONTINUOUS
 62
       136
100
AcDbVertex
100
AcDb2dVertex
 10
21.370733561
 20
9.0783660893
 30
0.0
  0
SEQEND
  5
19D
100
AcDbEntity
  8
0
  6
CONTINUOUS
 62
       136
  0
POLYLINE
  5
19E
100
AcDbEntity
  8
0
  6
CONTINUOUS
 62
       136
100
AcDb2dPolyline
 66
         1
 10
0.0
 20
0.0
 30
0.0
  0
VERTEX
  5
19F
100
AcDbEntity
  8
0
  6
CONTINUOUS
 62
       136
100
AcDbVertex
100
AcDb2dVertex
 10
21.370733561
 20
8.6253660923
 30
0.0
  0
VERTEX
  5
1A0
100
AcDbEntity
  8
0
  6
CONTINUOUS
 62
       136
100
AcDbVertex
100
AcDb2dVertex
 10
21.349900228
 20
8.7503660908
 30
0.0
  0
VERTEX
  5
1A1
100
AcDbEntity
  8
0
  6
CONTINUOUS
 62
       136
100
AcDbVertex
100
AcDb2dVertex
 10
21.3290668949
 20
8.6253660923
 30
0.0
  0
VERTEX
  5
1A2
100
AcDbEntity
  8
0
  6
CONTINUOUS
 62
       136
100
AcDbVertex
100
AcDb2dVertex
 10
21.370733561
 20
8.6253660923
 30
0.0
  0
SEQEND
  5
1A3
100
AcDbEntity
  8
0
  6
CONTINUOUS
 62
       136
  0
LINE
  5
1A4
100
AcDbEntity
  8
0
  6
CONTINUOUS
 62
       136
100
AcDbLine
 10
20.4105422141
 20
8.9533660908
 30
0.0
 11
21.4124002272
 21
8.9533660908
 31
0.0
  0
LINE
  5
1A5
100
AcDbEntity
  8
0
  6
CONTINUOUS
 62
       136
100
AcDbLine
 10
20.6605422141
 20
8.7503660908
 30
0.0
 11
21.4124002272
 21
8.7503660908
 31
0.0
  0
LINE
  5
1A6
100
AcDbEntity
  8
0
  6
CONTINUOUS
 62
       136
100
AcDbLine
 10
21.349900228
 20
9.2110919219
 30
0.0
 11
21.7249002326
 21
9.2110919219
 31
0.0
  0
LINE
  5
1A7
100
AcDbEntity
  8
0
  6
CONTINUOUS
 62
       136
100
AcDbLine
 10
21.349900228
 20
9.2110919219
 30
0.0
 11
21.349900228
 21
8.9533660908
 31
0.0
  0
LINE
  5
1A8
100
AcDbEntity
  8
0
  6
CONTINUOUS
 62
       136
100
AcDbLine
 10
21.349900228
 20
8.7503660908
 30
0.0
 11
21.349900228
 21
8.5003660938
 31
0.0
  0
TEXT
  5
1A9
100
AcDbEntity
  8
0
  6
CONTINUOUS
 62
       136
100
AcDbText
 10
21.7686502326
 20
9.1485919219
 30
0.0
 40
0.125
  1
3/16
  7
ARIAL_TTF
 11
21.7686502326
 21
9.2735919219
 31
0.0
100
AcDbText
 73
         3
  0
POLYLINE
  5
1AA
100
AcDbEntity
  8
0
  6
CONTINUOUS
 62
       136
100
AcDb2dPolyline
 66
         1
 10
0.0
 20
0.0
 30
0.0
  0
VERTEX
  5
1AB
100
AcDbEntity
  8
0
  6
CONTINUOUS
 62
       136
100
AcDbVertex
100
AcDb2dVertex
 10
16.6000422133
 20
7.3878254483
 30
0.0
  0
VERTEX
  5
1AC
100
AcDbEntity
  8
0
  6
CONTINUOUS
 62
       136
100
AcDbVertex
100
AcDb2dVertex
 10
16.4750422148
 20
7.4086587814
 30
0.0
  0
VERTEX
  5
1AD
100
AcDbEntity
  8
0
  6
CONTINUOUS
 62
       136
100
AcDbVertex
100
AcDb2dVertex
 10
16.6000422133
 20
7.4294921145
 30
0.0
  0
VERTEX
  5
1AE
100
AcDbEntity
  8
0
  6
CONTINUOUS
 62
       136
100
AcDbVertex
100
AcDb2dVertex
 10
16.6000422133
 20
7.3878254483
 30
0.0
  0
SEQEND
  5
1AF
100
AcDbEntity
  8
0
  6
CONTINUOUS
 62
       136
  0
POLYLINE
  5
1B0
100
AcDbEntity
  8
0
  6
CONTINUOUS
 62
       136
100
AcDb2dPolyline
 66
         1
 10
0.0
 20
0.0
 30
0.0
  0
VERTEX
  5
1B1
100
AcDbEntity
  8
0
  6
CONTINUOUS
 62
       136
100
AcDbVertex
100
AcDb2dVertex
 10
19.8500422164
 20
7.3878254483
 30
0.0
  0
VERTEX
  5
1B2
100
AcDbEntity
  8
0
  6
CONTINUOUS
 62
       136
100
AcDbVertex
100
AcDb2dVertex
 10
19.9750422148
 20
7.4086587814
 30
0.0
  0
VERTEX
  5
1B3
100
AcDbEntity
  8
0
  6
CONTINUOUS
 62
       136
100
AcDbVertex
100
AcDb2dVertex
 10
19.8500422164
 20
7.4294921145
 30
0.0
  0
VERTEX
  5
1B4
100
AcDbEntity
  8
0
  6
CONTINUOUS
 62
       136
100
AcDbVertex
100
AcDb2dVertex
 10
19.8500422164
 20
7.3878254483
 30
0.0
  0
SEQEND
  5
1B5
100
AcDbEntity
  8
0
  6
CONTINUOUS
 62
       136
  0
LINE
  5
1B6
100
AcDbEntity
  8
0
  6
CONTINUOUS
 62
       136
100
AcDbLine
 10
16.4750422148
 20
8.0678660916
 30
0.0
 11
16.4750422148
 21
7.3461587821
 31
0.0
  0
LINE
  5
1B7
100
AcDbEntity
  8
0
  6
CONTINUOUS
 62
       136
100
AcDbLine
 10
19.9750422148
 20
8.0678660916
 30
0.0
 11
19.9750422148
 21
7.3461587821
 31
0.0
  0
LINE
  5
1B8
100
AcDbEntity
  8
0
  6
CONTINUOUS
 62
       136
100
AcDbLine
 10
16.4750422148
 20
7.4086587814
 30
0.0
 11
17.9856400976
 21
7.4086587814
 31
0.0
  0
LINE
  5
1B9
100
AcDbEntity
  8
0
  6
CONTINUOUS
 62
       136
100
AcDbLine
 10
18.4644443321
 20
7.4086587814
 30
0.0
 11
19.9750422148
 21
7.4086587814
 31
0.0
  0
TEXT
  5
1BA
100
AcDbEntity
  8
0
  6
CONTINUOUS
 62
       136
100
AcDbText
 10
18.0293900381
 20
7.3461587814
 30
0.0
 40
0.125
  1
3 1/2
  7
ARIAL_TTF
 11
18.0293900381
 21
7.4711587814
 31
0.0
100
AcDbText
 73
         3
  0
POLYLINE
  5
1BB
100
AcDbEntity
  8
0
  6
CONTINUOUS
 62
       136
100
AcDb2dPolyline
 66
         1
 10
0.0
 20
0.0
 30
0.0
  0
VERTEX
  5
1BC
100
AcDbEntity
  8
0
  6
CONTINUOUS
 62
       136
100
AcDbVertex
100
AcDb2dVertex
 10
15.7344571415
 20
7.4025516966
 30
0.0
  0
VERTEX
  5
1BD
100
AcDbEntity
  8
0
  6
CONTINUOUS
 62
       136
100
AcDbVertex
100
AcDb2dVertex
 10
15.8594452421
 20
7.423456292
 30
0.0
  0
VERTEX
  5
1BE
100
AcDbEntity
  8
0
  6
CONTINUOUS
 62
       136
100
AcDbVertex
100
AcDb2dVertex
 10
15.7344333863
 20
7.444218356
 30
0.0
  0
VERTEX
  5
1BF
100
AcDbEntity
  8
0
  6
CONTINUOUS
 62
       136
100
AcDbVertex
100
AcDb2dVertex
 10
15.7344571415
 20
7.4025516966
 30
0.0
  0
SEQEND
  5
1C0
100
AcDbEntity
  8
0
  6
CONTINUOUS
 62
       136
  0
POLYLINE
  5
1C1
100
AcDbEntity
  8
0
  6
CONTINUOUS
 62
       136
100
AcDb2dPolyline
 66
         1
 10
0.0
 20
0.0
 30
0.0
  0
VERTEX
  5
1C2
100
AcDbEntity
  8
0
  6
CONTINUOUS
 62
       136
100
AcDbVertex
100
AcDb2dVertex
 10
12.4764570979
 20
7.400694228
 30
0.0
  0
VERTEX
  5
1C3
100
AcDbEntity
  8
0
  6
CONTINUOUS
 62
       136
100
AcDbVertex
100
AcDb2dVertex
 10
12.3514452421
 20
7.421456292
 30
0.0
  0
VERTEX
  5
1C4
100
AcDbEntity
  8
0
  6
CONTINUOUS
 62
       136
100
AcDbVertex
100
AcDb2dVertex
 10
12.4764333427
 20
7.4423608874
 30
0.0
  0
VERTEX
  5
1C5
100
AcDbEntity
  8
0
  6
CONTINUOUS
 62
       136
100
AcDbVertex
100
AcDb2dVertex
 10
12.4764570979
 20
7.400694228
 30
0.0
  0
SEQEND
  5
1C6
100
AcDbEntity
  8
0
  6
CONTINUOUS
 62
       136
  0
LINE
  5
1C7
100
AcDbEntity
  8
0
  6
CONTINUOUS
 62
       136
100
AcDbLine
 10
15.8590778477
 20
8.0678661017
 30
0.0
 11
15.8594808749
 21
7.3609563029
 31
0.0
  0
LINE
  5
1C8
100
AcDbEntity
  8
0
  6
CONTINUOUS
 62
       136
100
AcDbLine
 10
12.3510778477
 20
8.0658661017
 30
0.0
 11
12.3514808749
 21
7.3589563029
 31
0.0
  0
LINE
  5
1C9
100
AcDbEntity
  8
0
  6
CONTINUOUS
 62
       136
100
AcDbLine
 10
15.8594452421
 20
7.423456292
 30
0.0
 11
14.344847465
 21
7.4225927813
 31
0.0
  0
LINE
  5
1CA
100
AcDbEntity
  8
0
  6
CONTINUOUS
 62
       136
100
AcDbLine
 10
13.8660430192
 20
7.4223198027
 30
0.0
 11
12.3514452421
 21
7.421456292
 31
0.0
  0
TEXT
  5
1CB
100
AcDbEntity
  8
0
  6
CONTINUOUS
 62
       136
100
AcDbText
 10
13.9097930689
 20
7.359956292
 30
0.0
 40
0.125
  1
3 1/2
  7
ARIAL_TTF
 11
13.9097930689
 21
7.484956292
 31
0.0
100
AcDbText
 73
         3
  0
ENDSEC
  0
SECTION
  2
OBJECTS
  0
DICTIONARY
  5
19
100
AcDbDictionary
  3
ACAD_GROUP
350
1A
  3
ACAD_MLINESTYLE
350
1B
  0
DICTIONARY
  5
1A
102
{ACAD_REACTORS
330
19
102
}
100
AcDbDictionary
  0
DICTIONARY
  5
1B
102
{ACAD_REACTORS
330
19
102
}
100
AcDbDictionary
  3
STANDARD
350
1C
  0
MLINESTYLE
  5
1C
102
{ACAD_REACTORS
330
1B
102
}
100
AcDbMlineStyle
  2
STANDARD
 70
         0
  3

 62
         0
 51
90.0
 52
90.0
 71
         2
 49
0.5
 62
       256
  6
BYLAYER
 49
-0.5
 62
       256
  6
BYLAYER
  0
ENDSEC
  0
EOF
