  0
SECTION
  2
HEADER
  9
$ACADVER
  1
AC1014
  9
$ACADMAINTVER
 70
     0
  9
$DWGCODEPAGE
  3
ANSI_1252
  9
$INSBASE
 10
0.0
 20
0.0
 30
0.0
  9
$EXTMIN
 10
-1.01477
 20
-1.062515
 30
-0.001526
  9
$EXTMAX
 10
1.014954
 20
0.655472
 30
0.0
  9
$LIMMIN
 10
0.0
 20
0.0
  9
$LIMMAX
 10
12.0
 20
9.0
  9
$ORTHOMODE
 70
     0
  9
$REGENMODE
 70
     1
  9
$FILLMODE
 70
     1
  9
$QTEXTMODE
 70
     0
  9
$MIRRTEXT
 70
     1
  9
$DRAGMODE
 70
     2
  9
$LTSCALE
 40
1.0
  9
$OSMODE
 70
     0
  9
$ATTMODE
 70
     1
  9
$TEXTSIZE
 40
0.2
  9
$TRACEWID
 40
0.05
  9
$TEXTSTYLE
  7
STANDARD
  9
$CLAYER
  8
100
  9
$CELTYPE
  6
BYLAYER
  9
$CECOLOR
 62
     1
  9
$CELTSCALE
 40
1.0
  9
$DELOBJ
 70
     1
  9
$DISPSILH
 70
     0
  9
$DIMSCALE
 40
1.0
  9
$DIMASZ
 40
0.18
  9
$DIMEXO
 40
0.0625
  9
$DIMDLI
 40
0.38
  9
$DIMRND
 40
0.0
  9
$DIMDLE
 40
0.0
  9
$DIMEXE
 40
0.18
  9
$DIMTP
 40
0.0
  9
$DIMTM
 40
0.0
  9
$DIMTXT
 40
0.18
  9
$DIMCEN
 40
0.09
  9
$DIMTSZ
 40
0.0
  9
$DIMTOL
 70
     0
  9
$DIMLIM
 70
     0
  9
$DIMTIH
 70
     1
  9
$DIMTOH
 70
     1
  9
$DIMSE1
 70
     0
  9
$DIMSE2
 70
     0
  9
$DIMTAD
 70
     0
  9
$DIMZIN
 70
     0
  9
$DIMBLK
  1

  9
$DIMASO
 70
     1
  9
$DIMSHO
 70
     1
  9
$DIMPOST
  1

  9
$DIMAPOST
  1

  9
$DIMALT
 70
     0
  9
$DIMALTD
 70
     2
  9
$DIMALTF
 40
25.4
  9
$DIMLFAC
 40
1.0
  9
$DIMTOFL
 70
     0
  9
$DIMTVP
 40
0.0
  9
$DIMTIX
 70
     0
  9
$DIMSOXD
 70
     0
  9
$DIMSAH
 70
     0
  9
$DIMBLK1
  1

  9
$DIMBLK2
  1

  9
$DIMSTYLE
  2
STANDARD
  9
$DIMCLRD
 70
     0
  9
$DIMCLRE
 70
     0
  9
$DIMCLRT
 70
     0
  9
$DIMTFAC
 40
1.0
  9
$DIMGAP
 40
0.09
  9
$DIMJUST
 70
     0
  9
$DIMSD1
 70
     0
  9
$DIMSD2
 70
     0
  9
$DIMTOLJ
 70
     1
  9
$DIMTZIN
 70
     0
  9
$DIMALTZ
 70
     0
  9
$DIMALTTZ
 70
     0
  9
$DIMFIT
 70
     3
  9
$DIMUPT
 70
     0
  9
$DIMUNIT
 70
     2
  9
$DIMDEC
 70
     4
  9
$DIMTDEC
 70
     4
  9
$DIMALTU
 70
     2
  9
$DIMALTTD
 70
     2
  9
$DIMTXSTY
  7
STANDARD
  9
$DIMAUNIT
 70
     0
  9
$LUNITS
 70
     2
  9
$LUPREC
 70
     4
  9
$SKETCHINC
 40
0.1
  9
$FILLETRAD
 40
0.5
  9
$AUNITS
 70
     0
  9
$AUPREC
 70
     0
  9
$MENU
  1
.
  9
$ELEVATION
 40
0.0
  9
$PELEVATION
 40
0.0
  9
$THICKNESS
 40
0.0
  9
$LIMCHECK
 70
     0
  9
$BLIPMODE
 70
     0
  9
$CHAMFERA
 40
0.5
  9
$CHAMFERB
 40
0.5
  9
$CHAMFERC
 40
1.0
  9
$CHAMFERD
 40
0.0
  9
$SKPOLY
 70
     0
  9
$TDCREATE
 40
2451485.626000394
  9
$TDUPDATE
 40
2451485.626000394
  9
$TDINDWG
 40
0.0000000000
  9
$TDUSRTIMER
 40
0.0000000000
  9
$USRTIMER
 70
     1
  9
$ANGBASE
 50
0.0
  9
$ANGDIR
 70
     0
  9
$PDMODE
 70
     0
  9
$PDSIZE
 40
0.0
  9
$PLINEWID
 40
0.0
  9
$COORDS
 70
     1
  9
$SPLFRAME
 70
     0
  9
$SPLINETYPE
 70
     6
  9
$SPLINESEGS
 70
     8
  9
$ATTDIA
 70
     0
  9
$ATTREQ
 70
     1
  9
$HANDLING
 70
     1
  9
$HANDSEED
  5
5A
  9
$SURFTAB1
 70
     6
  9
$SURFTAB2
 70
     6
  9
$SURFTYPE
 70
     6
  9
$SURFU
 70
     6
  9
$SURFV
 70
     6
  9
$UCSNAME
  2
KKK
  9
$UCSORG
 10
0.0
 20
0.0
 30
0.0
  9
$UCSXDIR
 10
1.0
 20
0.0
 30
0.0
  9
$UCSYDIR
 10
0.0
 20
1.0
 30
0.0
  9
$PUCSNAME
  2

  9
$PUCSORG
 10
0.0
 20
0.0
 30
0.0
  9
$PUCSXDIR
 10
1.0
 20
0.0
 30
0.0
  9
$PUCSYDIR
 10
0.0
 20
1.0
 30
0.0
  9
$USERI1
 70
     0
  9
$USERI2
 70
     0
  9
$USERI3
 70
     0
  9
$USERI4
 70
     0
  9
$USERI5
 70
     0
  9
$USERR1
 40
0.0
  9
$USERR2
 40
0.0
  9
$USERR3
 40
0.0
  9
$USERR4
 40
0.0
  9
$USERR5
 40
0.0
  9
$WORLDVIEW
 70
     1
  9
$SHADEDGE
 70
     3
  9
$SHADEDIF
 70
    70
  9
$TILEMODE
 70
     1
  9
$MAXACTVP
 70
    48
  9
$PINSBASE
 10
0.0
 20
0.0
 30
0.0
  9
$PLIMCHECK
 70
     0
  9
$PEXTMIN
 10
1.000000E+20
 20
1.000000E+20
 30
1.000000E+20
  9
$PEXTMAX
 10
-1.000000E+20
 20
-1.000000E+20
 30
-1.000000E+20
  9
$PLIMMIN
 10
0.0
 20
0.0
  9
$PLIMMAX
 10
12.0
 20
9.0
  9
$UNITMODE
 70
     0
  9
$VISRETAIN
 70
     1
  9
$PLINEGEN
 70
     0
  9
$PSLTSCALE
 70
     1
  9
$TREEDEPTH
 70
  3020
  9
$PICKSTYLE
 70
     1
  9
$CMLSTYLE
  2
STANDARD
  9
$CMLJUST
 70
     0
  9
$CMLSCALE
 40
1.0
  9
$PROXYGRAPHICS
 70
     1
  9
$MEASUREMENT
 70
     0
  0
ENDSEC
  0
SECTION
  2
CLASSES
  0
ENDSEC
  0
SECTION
  2
TABLES
  0
TABLE
  2
VPORT
  5
8
100
AcDbSymbolTable
 70
     3
  0
VPORT
  5
58
100
AcDbSymbolTableRecord
100
AcDbViewportTableRecord
  2
NEW_VIEWPORT
 70
     0
 10
0.0
 20
0.0
 11
1.0
 21
1.0
 12
8.854526
 22
4.5
 13
0.0
 23
0.0
 14
1.0
 24
1.0
 15
0.0
 25
0.0
 16
0.0
 26
0.0
 36
1.0
 17
0.0
 27
0.0
 37
0.0
 40
9.0
 41
1.967672
 42
50.0
 43
0.0
 44
0.0
 50
0.0
 51
0.0
 71
     0
 72
   100
 73
     1
 74
     1
 75
     0
 76
     0
 77
     0
 78
     0
  0
VPORT
  5
59
100
AcDbSymbolTableRecord
100
AcDbViewportTableRecord
  2
*ACTIVE
 70
     0
 10
0.0
 20
0.0
 11
1.0
 21
1.0
 12
0.000092
 22
-0.203522
 13
0.0
 23
0.0
 14
1.0
 24
1.0
 15
0.0
 25
0.0
 16
0.0
 26
0.0
 36
1.0
 17
0.0
 27
0.0
 37
0.0
 40
1.740155
 41
1.967672
 42
50.0
 43
0.0
 44
0.0
 50
0.0
 51
0.0
 71
     0
 72
   100
 73
     1
 74
     1
 75
     0
 76
     0
 77
     0
 78
     0
  0
ENDTAB
  0
TABLE
  2
LTYPE
  5
5
100
AcDbSymbolTable
 70
     1
  0
LTYPE
  5
12
100
AcDbSymbolTableRecord
100
AcDbLinetypeTableRecord
  2
BYBLOCK
 70
     0
  3

 72
    65
 73
     0
 40
0.0
  0
LTYPE
  5
13
100
AcDbSymbolTableRecord
100
AcDbLinetypeTableRecord
  2
BYLAYER
 70
     0
  3

 72
    65
 73
     0
 40
0.0
  0
LTYPE
  5
14
100
AcDbSymbolTableRecord
100
AcDbLinetypeTableRecord
  2
CONTINUOUS
 70
     0
  3
Solid line
 72
    65
 73
     0
 40
0.0
  0
ENDTAB
  0
TABLE
  2
LAYER
  5
2
100
AcDbSymbolTable
 70
     2
  0
LAYER
  5
E
100
AcDbSymbolTableRecord
100
AcDbLayerTableRecord
  2
0
 70
     0
 62
     7
  6
CONTINUOUS
  0
LAYER
  5
20
100
AcDbSymbolTableRecord
100
AcDbLayerTableRecord
  2
100
 70
     0
 62
     7
  6
CONTINUOUS
  0
ENDTAB
  0
TABLE
  2
STYLE
  5
3
100
AcDbSymbolTable
 70
     1
  0
STYLE
  5
F
100
AcDbSymbolTableRecord
100
AcDbTextStyleTableRecord
  2
STANDARD
 70
     0
 40
0.0
 41
1.0
 50
0.0
 71
     0
 42
0.2
  3
txt
  4

  0
ENDTAB
  0
TABLE
  2
VIEW
  5
6
100
AcDbSymbolTable
 70
     0
  0
ENDTAB
  0
TABLE
  2
UCS
  5
7
100
AcDbSymbolTable
 70
     1
  0
UCS
  5
21
100
AcDbSymbolTableRecord
100
AcDbUCSTableRecord
  2
KKK
 70
     0
 10
0.0
 20
0.0
 30
0.0
 11
1.0
 21
0.0
 31
0.0
 12
0.0
 22
1.0
 32
0.0
  0
ENDTAB
  0
TABLE
  2
APPID
  5
9
100
AcDbSymbolTable
 70
     1
  0
APPID
  5
10
100
AcDbSymbolTableRecord
100
AcDbRegAppTableRecord
  2
ACAD
 70
     0
  0
ENDTAB
  0
TABLE
  2
DIMSTYLE
  5
A
100
AcDbSymbolTable
 70
     1
  0
DIMSTYLE
105
1D
100
AcDbSymbolTableRecord
100
AcDbDimStyleTableRecord
  2
STANDARD
 70
     0
  3

  4

  5

  6

  7

 40
1.0
 41
0.18
 42
0.0625
 43
0.38
 44
0.18
 45
0.0
 46
0.0
 47
0.0
 48
0.0
140
0.18
141
0.09
142
0.0
143
25.4
144
1.0
145
0.0
146
1.0
147
0.09
 71
     0
 72
     0
 73
     1
 74
     1
 75
     0
 76
     0
 77
     0
 78
     0
170
     0
171
     2
172
     0
173
     0
174
     0
175
     0
176
     0
177
     0
178
     0
270
     2
271
     4
272
     4
273
     2
274
     2
340
F
275
     0
280
     0
281
     0
282
     0
283
     1
284
     0
285
     0
286
     0
287
     3
288
     0
  0
ENDTAB
  0
TABLE
  2
BLOCK_RECORD
  5
1
100
AcDbSymbolTable
 70
     0
  0
BLOCK_RECORD
  5
18
100
AcDbSymbolTableRecord
100
AcDbBlockTableRecord
  2
*MODEL_SPACE
  0
BLOCK_RECORD
  5
15
100
AcDbSymbolTableRecord
100
AcDbBlockTableRecord
  2
*PAPER_SPACE
  0
ENDTAB
  0
ENDSEC
  0
SECTION
  2
BLOCKS
  0
BLOCK
  5
19
100
AcDbEntity
  8
0
100
AcDbBlockBegin
  2
*MODEL_SPACE
 70
     0
 10
0.0
 20
0.0
 30
0.0
  3
*MODEL_SPACE
  1

  0
ENDBLK
  5
1A
100
AcDbEntity
  8
0
100
AcDbBlockEnd
  0
BLOCK
  5
16
100
AcDbEntity
 67
     1
  8
0
100
AcDbBlockBegin
  2
*PAPER_SPACE
 70
     0
 10
0.0
 20
0.0
 30
0.0
  3
*PAPER_SPACE
  1

  0
ENDBLK
  5
17
100
AcDbEntity
 67
     1
  8
0
100
AcDbBlockEnd
  0
ENDSEC
  0
SECTION
  2
ENTITIES
  0
ELLIPSE
  5
22
100
AcDbEntity
  8
100
 62
     1
100
AcDbEllipse
 10
0.72035
 20
-0.63355
 30
0.0
 11
-0.0896
 21
0.0001344
 31
0.0
210
0.0
220
0.0
230
1.0
 40
0.768973
 41
3.094521667861115
 42
6.205094150933293
  0
ELLIPSE
  5
23
100
AcDbEntity
  8
100
 62
     1
100
AcDbEllipse
 10
0.32035
 20
-0.63355
 30
0.0
 11
-0.0896
 21
0.0001344
 31
0.0
210
0.0
220
0.0
230
1.0
 40
0.768973
 41
3.094521667861115
 42
6.205094150933293
  0
ELLIPSE
  5
24
100
AcDbEntity
  8
100
 62
     1
100
AcDbEllipse
 10
0.72035
 20
0.63355
 30
0.0
 11
-0.0896
 21
0.0001344
 31
0.0
210
0.0
220
0.0
230
1.0
 40
0.768973
 41
0.078091276653027
 42
3.188663759916202
  0
ELLIPSE
  5
25
100
AcDbEntity
  8
100
 62
     1
100
AcDbEllipse
 10
-0.31965
 20
-0.63355
 30
0.0
 11
-0.0896
 21
0.0001344
 31
0.0
210
0.0
220
0.0
230
1.0
 40
0.768973
 41
3.094521667861115
 42
6.205094150933293
  0
ELLIPSE
  5
26
100
AcDbEntity
  8
100
 62
     1
100
AcDbEllipse
 10
-0.71965
 20
-0.63355
 30
0.0
 11
-0.0896
 21
0.0001344
 31
0.0
210
0.0
220
0.0
230
1.0
 40
0.768973
 41
3.094521667861115
 42
6.205094150933293
  0
ELLIPSE
  5
27
100
AcDbEntity
  8
100
 62
     1
100
AcDbEllipse
 10
0.32035
 20
0.63355
 30
0.0
 11
-0.0896
 21
0.0001344
 31
0.0
210
0.0
220
0.0
230
1.0
 40
0.768973
 41
0.078091276653027
 42
3.188663759916202
  0
ELLIPSE
  5
28
100
AcDbEntity
  8
100
 62
     1
100
AcDbEllipse
 10
-0.31965
 20
0.63355
 30
0.0
 11
-0.0896
 21
0.0001344
 31
0.0
210
0.0
220
0.0
230
1.0
 40
0.768973
 41
0.078091276653027
 42
3.188663759916202
  0
ELLIPSE
  5
29
100
AcDbEntity
  8
100
 62
     1
100
AcDbEllipse
 10
-0.71965
 20
0.63355
 30
0.0
 11
-0.0896
 21
0.0001344
 31
0.0
210
0.0
220
0.0
230
1.0
 40
0.768973
 41
0.078091276653027
 42
3.188663759916202
  0
LINE
  5
2A
100
AcDbEntity
  8
100
 62
     1
100
AcDbLine
 10
-0.409691
 20
0.633221
 30
0.0
 11
-0.630009
 21
0.633221
 31
0.0
  0
LINE
  5
2B
100
AcDbEntity
  8
100
 62
     1
100
AcDbLine
 10
0.910936
 20
-0.638324
 30
0.0
 11
0.809985
 21
-0.638324
 31
0.0
  0
LINE
  5
2C
100
AcDbEntity
  8
100
 62
     1
100
AcDbLine
 10
0.911837
 20
-0.633198
 30
0.0
 11
0.809991
 21
-0.633198
 31
0.0
  0
ARC
  5
2D
100
AcDbEntity
  8
100
 62
     1
100
AcDbCircle
 10
0.91185
 20
-0.54315
 30
0.0
 40
0.09
100
AcDbArc
 50
269.997957
 51
348.378583
  0
ARC
  5
2E
100
AcDbEntity
  8
100
 62
     1
100
AcDbCircle
 10
0.91095
 20
-0.54835
 30
0.0
 40
0.09
100
AcDbArc
 50
269.997453
 51
351.689776
  0
ELLIPSE
  5
2F
100
AcDbEntity
  8
100
 62
     1
100
AcDbEllipse
 10
0.71995
 20
-0.63835
 30
0.0
 11
0.09
 21
0.0
 31
0.0
210
0.0
220
0.0
230
0.9999999999999998
 40
0.687778
 41
0.0
 42
3.14160333496166
  0
LINE
  5
30
100
AcDbEntity
  8
100
 62
     1
100
AcDbLine
 10
0.63
 20
-0.638324
 30
0.0
 11
0.409985
 21
-0.638324
 31
0.0
  0
LINE
  5
31
100
AcDbEntity
  8
100
 62
     1
100
AcDbLine
 10
0.630309
 20
-0.633198
 30
0.0
 11
0.409991
 21
-0.633198
 31
0.0
  0
LINE
  5
32
100
AcDbEntity
  8
100
 62
     1
100
AcDbLine
 10
0.999992
 20
-0.561324
 30
0.0
 11
0.999992
 21
0.561348
 31
0.0
  0
LINE
  5
33
100
AcDbEntity
  8
100
 62
     1
100
AcDbLine
 10
0.911837
 20
0.633221
 30
0.0
 11
0.809991
 21
0.633221
 31
0.0
  0
ARC
  5
34
100
AcDbEntity
  8
100
 62
     1
100
AcDbCircle
 10
0.91185
 20
0.54325
 30
0.0
 40
0.09
100
AcDbArc
 50
11.621422
 51
90.002049
  0
LINE
  5
35
100
AcDbEntity
  8
100
 62
     1
100
AcDbLine
 10
0.910936
 20
0.638348
 30
0.0
 11
0.809985
 21
0.638348
 31
0.0
  0
ARC
  5
36
100
AcDbEntity
  8
100
 62
     1
100
AcDbCircle
 10
0.91095
 20
0.54835
 30
0.0
 40
0.09
100
AcDbArc
 50
8.31023
 51
90.002552
  0
ELLIPSE
  5
37
100
AcDbEntity
  8
100
 62
     1
100
AcDbEllipse
 10
0.31995
 20
-0.63835
 30
0.0
 11
0.09
 21
0.0
 31
0.0
210
0.0
220
0.0
230
0.9999999999999998
 40
0.687778
 41
0.0
 42
3.14160333496166
  0
LINE
  5
38
100
AcDbEntity
  8
100
 62
     1
100
AcDbLine
 10
0.23
 20
-0.638324
 30
0.0
 11
-0.230015
 21
-0.638324
 31
0.0
  0
LINE
  5
39
100
AcDbEntity
  8
100
 62
     1
100
AcDbLine
 10
0.230309
 20
-0.633198
 30
0.0
 11
-0.230009
 21
-0.633198
 31
0.0
  0
LINE
  5
3A
100
AcDbEntity
  8
100
 62
     1
100
AcDbLine
 10
-0.41
 20
-0.638324
 30
0.0
 11
-0.630015
 21
-0.638324
 31
0.0
  0
LINE
  5
3B
100
AcDbEntity
  8
100
 62
     1
100
AcDbLine
 10
-0.409691
 20
-0.633198
 30
0.0
 11
-0.630009
 21
-0.633198
 31
0.0
  0
LINE
  5
3C
100
AcDbEntity
  8
100
 62
     1
100
AcDbLine
 10
-0.81
 20
-0.638324
 30
0.0
 11
-0.910952
 21
-0.638324
 31
0.0
  0
LINE
  5
3D
100
AcDbEntity
  8
100
 62
     1
100
AcDbLine
 10
-0.809691
 20
-0.633198
 30
0.0
 11
-0.911852
 21
-0.633198
 31
0.0
  0
ELLIPSE
  5
3E
100
AcDbEntity
  8
100
 62
     1
100
AcDbEllipse
 10
0.71995
 20
0.63835
 30
0.0
 11
0.09
 21
0.0
 31
0.0
210
0.0
220
0.0
230
0.9999999999999998
 40
0.687778
 41
-3.141603200004678
 42
0.0000001349569825
  0
ARC
  5
3F
100
AcDbEntity
  8
100
 62
     1
100
AcDbCircle
 10
-0.91185
 20
0.54325
 30
0.0
 40
0.09
100
AcDbArc
 50
89.997951
 51
168.378578
  0
ARC
  5
40
100
AcDbEntity
  8
100
 62
     1
100
AcDbCircle
 10
-0.91095
 20
0.54835
 30
0.0
 40
0.09
100
AcDbArc
 50
89.997448
 51
171.68977
  0
LINE
  5
41
100
AcDbEntity
  8
100
 62
     1
100
AcDbLine
 10
-0.41
 20
0.638348
 30
0.0
 11
-0.630015
 21
0.638348
 31
0.0
  0
ELLIPSE
  5
42
100
AcDbEntity
  8
100
 62
     1
100
AcDbEllipse
 10
-0.72005
 20
0.63835
 30
0.0
 11
0.09
 21
0.0
 31
0.0
210
0.0
220
0.0
230
0.9999999999999998
 40
0.687778
 41
-3.141603200004678
 42
0.0000001349569825
  0
ELLIPSE
  5
43
100
AcDbEntity
  8
100
 62
     1
100
AcDbEllipse
 10
-0.32005
 20
0.63835
 30
0.0
 11
0.09
 21
0.0
 31
0.0
210
0.0
220
0.0
230
0.9999999999999998
 40
0.687778
 41
-3.141603200004678
 42
0.0000001349569825
  0
LINE
  5
44
100
AcDbEntity
  8
100
 62
     1
100
AcDbLine
 10
-1.000008
 20
0.561348
 30
0.0
 11
-1.000008
 21
-0.561324
 31
0.0
  0
LINE
  5
45
100
AcDbEntity
  8
100
 62
     1
100
AcDbLine
 10
-0.809691
 20
0.633221
 30
0.0
 11
-0.911852
 21
0.633221
 31
0.0
  0
LINE
  5
46
100
AcDbEntity
  8
100
 62
     1
100
AcDbLine
 10
0.999992
 20
0.561348
 30
0.0
 11
-1.000008
 21
0.561348
 31
0.0
  0
ELLIPSE
  5
47
100
AcDbEntity
  8
100
 62
     1
100
AcDbEllipse
 10
-0.32005
 20
-0.63835
 30
0.0
 11
0.09
 21
0.0
 31
0.0
210
0.0
220
0.0
230
0.9999999999999998
 40
0.687778
 41
0.0
 42
3.14160333496166
  0
LINE
  5
48
100
AcDbEntity
  8
100
 62
     1
100
AcDbLine
 10
0.630309
 20
0.633221
 30
0.0
 11
0.409991
 21
0.633221
 31
0.0
  0
LINE
  5
49
100
AcDbEntity
  8
100
 62
     1
100
AcDbLine
 10
0.63
 20
0.638348
 30
0.0
 11
0.409985
 21
0.638348
 31
0.0
  0
LINE
  5
4A
100
AcDbEntity
  8
100
 62
     1
100
AcDbLine
 10
-0.81
 20
0.638348
 30
0.0
 11
-0.910952
 21
0.638348
 31
0.0
  0
ARC
  5
4B
100
AcDbEntity
  8
100
 62
     1
100
AcDbCircle
 10
-0.91095
 20
-0.54835
 30
0.0
 40
0.09
100
AcDbArc
 50
188.310235
 51
270.002557
  0
ARC
  5
4C
100
AcDbEntity
  8
100
 62
     1
100
AcDbCircle
 10
-0.91185
 20
-0.54315
 30
0.0
 40
0.09
100
AcDbArc
 50
191.621428
 51
270.002054
  0
LINE
  5
4D
100
AcDbEntity
  8
100
 62
     1
100
AcDbLine
 10
0.999992
 20
-0.561324
 30
0.0
 11
-1.000008
 21
-0.561324
 31
0.0
  0
ELLIPSE
  5
4E
100
AcDbEntity
  8
100
 62
     1
100
AcDbEllipse
 10
-0.72005
 20
-0.63835
 30
0.0
 11
0.09
 21
0.0
 31
0.0
210
0.0
220
0.0
230
0.9999999999999998
 40
0.687778
 41
0.0
 42
3.14160333496166
  0
ARC
  5
4F
100
AcDbEntity
  8
100
 62
     1
100
AcDbCircle
 10
-0.50005
 20
-0.14135
 30
0.0
 40
0.14
100
AcDbArc
 50
180.000003
 51
0.000424
  0
LINE
  5
50
100
AcDbEntity
  8
100
 62
     1
100
AcDbLine
 10
-0.360008
 20
-0.141324
 30
0.0
 11
-0.360008
 21
0.138675
 31
0.0
  0
ELLIPSE
  5
51
100
AcDbEntity
  8
100
 62
     1
100
AcDbEllipse
 10
0.31995
 20
0.63835
 30
0.0
 11
0.09
 21
0.0
 31
0.0
210
0.0
220
0.0
230
0.9999999999999998
 40
0.687778
 41
-3.141603200004678
 42
0.0000001349569825
  0
LINE
  5
52
100
AcDbEntity
  8
100
 62
     1
100
AcDbLine
 10
-0.640008
 20
-0.141324
 30
0.0
 11
-0.640008
 21
0.138676
 31
0.0
  0
LINE
  5
53
100
AcDbEntity
  8
100
 62
     1
100
AcDbLine
 10
0.230309
 20
0.633221
 30
0.0
 11
-0.230009
 21
0.633221
 31
0.0
  0
LINE
  5
54
100
AcDbEntity
  8
100
 62
     1
100
AcDbLine
 10
0.23
 20
0.638348
 30
0.0
 11
-0.230015
 21
0.638348
 31
0.0
  0
ARC
  5
55
100
AcDbEntity
  8
100
 62
     1
100
AcDbCircle
 10
-0.50005
 20
0.13865
 30
0.0
 40
0.14
100
AcDbArc
 50
0.0
 51
180.000421
  0
TEXT
  5
56
100
AcDbEntity
  8
100
 62
     1
100
AcDbText
 10
-1.00185
 20
-0.878628
 30
0.0
 40
0.100185
  1
Part Family: 2000
100
AcDbText
  0
TEXT
  5
57
100
AcDbEntity
  8
100
 62
     1
100
AcDbText
 10
-1.00185
 20
-1.028905
 30
0.0
 40
0.100185
  1
Component Name: 2001
100
AcDbText
  0
ENDSEC
  0
SECTION
  2
OBJECTS
  0
DICTIONARY
  5
C
100
AcDbDictionary
  3
ACAD_GROUP
350
D
  3
ACAD_MLINESTYLE
350
1B
  0
DICTIONARY
  5
D
102
{ACAD_REACTORS
330
C
102
}
100
AcDbDictionary
  0
DICTIONARY
  5
1B
102
{ACAD_REACTORS
330
C
102
}
100
AcDbDictionary
  3
STANDARD
350
1C
  0
MLINESTYLE
  5
1C
102
{ACAD_REACTORS
330
1B
102
}
100
AcDbMlineStyle
  2
STANDARD
 70
     0
  3

 62
   256
 51
90.0
 52
90.0
 71
     2
 49
0.5
 62
   256
  6
BYLAYER
 49
-0.5
 62
   256
  6
BYLAYER
  0
ENDSEC
  0
EOF
