  0
SECTION
  2
HEADER
  9
$ACADVER
  1
AC1014
  9
$ACADMAINTVER
 70
         0
  9
$DWGCODEPAGE
  3
ANSI_1252
  9
$INSBASE
 10
0.0
 20
0.0
 30
0.0
  9
$EXTMIN
 10
0.0
 20
0.0
 30
0.0
  9
$EXTMAX
 10
16.999966
 20
10.999978
 30
0.0
  9
$LIMMIN
 10
0.0
 20
0.0
  9
$LIMMAX
 10
16.999966
 20
10.999978
  9
$ORTHOMODE
 70
         0
  9
$REGENMODE
 70
         1
  9
$FILLMODE
 70
         1
  9
$QTEXTMODE
 70
         0
  9
$MIRRTEXT
 70
         1
  9
$DRAGMODE
 70
         2
  9
$LTSCALE
 40
1.0
  9
$OSMODE
 70
         0
  9
$ATTMODE
 70
         1
  9
$TEXTSIZE
 40
0.2
  9
$TRACEWID
 40
0.05
  9
$TEXTSTYLE
  7
Standard
  9
$CLAYER
  8
0
  9
$CELTYPE
  6
CONTINUOUS
  9
$CECOLOR
 62
       256
  9
$CELTSCALE
 40
1.0
  9
$DELOBJ
 70
         1
  9
$DISPSILH
 70
         0
  9
$DIMSCALE
 40
1.0
  9
$DIMASZ
 40
0.18
  9
$DIMEXO
 40
0.0625
  9
$DIMDLI
 40
0.38
  9
$DIMRND
 40
0.0
  9
$DIMDLE
 40
0.0
  9
$DIMEXE
 40
0.18
  9
$DIMTP
 40
0.0
  9
$DIMTM
 40
0.0
  9
$DIMTXT
 40
0.18
  9
$DIMCEN
 40
0.09
  9
$DIMTSZ
 40
0.0
  9
$DIMTOL
 70
         0
  9
$DIMLIM
 70
         0
  9
$DIMTIH
 70
         1
  9
$DIMTOH
 70
         1
  9
$DIMSE1
 70
         0
  9
$DIMSE2
 70
         0
  9
$DIMTAD
 70
         0
  9
$DIMZIN
 70
         0
  9
$DIMBLK
  1

  9
$DIMASO
 70
         1
  9
$DIMSHO
 70
         1
  9
$DIMPOST
  1

  9
$DIMAPOST
  1

  9
$DIMALT
 70
         0
  9
$DIMALTD
 70
         2
  9
$DIMALTF
 40
25.4
  9
$DIMLFAC
 40
1.0
  9
$DIMTOFL
 70
         0
  9
$DIMTVP
 40
0.0
  9
$DIMTIX
 70
         0
  9
$DIMSOXD
 70
         0
  9
$DIMSAH
 70
         0
  9
$DIMBLK1
  1

  9
$DIMBLK2
  1

  9
$DIMSTYLE
  2
Standard
  9
$DIMCLRD
 70
         0
  9
$DIMCLRE
 70
         0
  9
$DIMCLRT
 70
         0
  9
$DIMTFAC
 40
1.0
  9
$DIMGAP
 40
0.09
  9
$DIMJUST
 70
         0
  9
$DIMSD1
 70
         0
  9
$DIMSD2
 70
         0
  9
$DIMTOLJ
 70
         1
  9
$DIMTZIN
 70
         0
  9
$DIMALTZ
 70
         0
  9
$DIMALTTZ
 70
         0
  9
$DIMFIT
 70
         3
  9
$DIMUPT
 70
         0
  9
$DIMUNIT
 70
         2
  9
$DIMDEC
 70
         4
  9
$DIMTDEC
 70
         4
  9
$DIMALTU
 70
         2
  9
$DIMALTTD
 70
         2
  9
$DIMTXSTY
  7
Standard
  9
$DIMAUNIT
 70
         0
  9
$LUNITS
 70
         2
  9
$LUPREC
 70
         4
  9
$SKETCHINC
 40
0.1
  9
$FILLETRAD
 40
0.0
  9
$AUNITS
 70
         0
  9
$AUPREC
 70
         0
  9
$MENU
  1
acad
  9
$ELEVATION
 40
0.0
  9
$PELEVATION
 40
0.0
  9
$THICKNESS
 40
0.0
  9
$LIMCHECK
 70
         0
  9
$BLIPMODE
 70
         1
  9
$CHAMFERA
 40
0.0
  9
$CHAMFERB
 40
0.0
  9
$CHAMFERC
 40
0.0
  9
$CHAMFERD
 40
0.0
  9
$SKPOLY
 70
         0
  9
$TDCREATE
 40
0.000000000
  9
$TDUPDATE
 40
0.000000000
  9
$TDINDWG
 40
0.0000000000
  9
$TDUSRTIMER
 40
0.0000000000
  9
$USRTIMER
 70
         1
  9
$ANGBASE
 50
0.0
  9
$ANGDIR
 70
         0
  9
$PDMODE
 70
         0
  9
$PDSIZE
 40
0.0
  9
$PLINEWID
 40
0.0
  9
$COORDS
 70
         0
  9
$SPLFRAME
 70
         0
  9
$SPLINETYPE
 70
         6
  9
$SPLINESEGS
 70
         8
  9
$ATTDIA
 70
         0
  9
$ATTREQ
 70
         1
  9
$HANDLING
 70
         1
  9
$HANDSEED
  5
100
  9
$SURFTAB1
 70
         6
  9
$SURFTAB2
 70
         6
  9
$SURFTYPE
 70
         6
  9
$SURFU
 70
         6
  9
$SURFV
 70
         6
  9
$UCSNAME
  2

  9
$UCSORG
 10
0.0
 20
0.0
 30
0.0
  9
$UCSXDIR
 10
1.0
 20
0.0
 30
0.0
  9
$UCSYDIR
 10
0.0
 20
1.0
 30
0.0
  9
$PUCSNAME
  2

  9
$PUCSORG
 10
0.0
 20
0.0
 30
0.0
  9
$PUCSXDIR
 10
1.0
 20
0.0
 30
0.0
  9
$PUCSYDIR
 10
0.0
 20
1.0
 30
0.0
  9
$USERI1
 70
         0
  9
$USERI2
 70
         0
  9
$USERI3
 70
         0
  9
$USERI4
 70
         0
  9
$USERI5
 70
         0
  9
$USERR1
 40
0.0
  9
$USERR2
 40
0.0
  9
$USERR3
 40
0.0
  9
$USERR4
 40
0.0
  9
$USERR5
 40
0.0
  9
$WORLDVIEW
 70
         1
  9
$SHADEDGE
 70
         3
  9
$SHADEDIF
 70
        70
  9
$TILEMODE
 70
         1
  9
$MAXACTVP
 70
        16
  9
$PINSBASE
 10
0.0
 20
0.0
 30
0.0
  9
$PLIMCHECK
 70
         0
  9
$PEXTMIN
 10
1.0000000000E+20
 20
1.0000000000E+20
 30
1.0000000000E+20
  9
$PEXTMAX
 10
-1.0000000000E+20
 20
-1.0000000000E+20
 30
-1.0000000000E+20
  9
$PLIMMIN
 10
0.0
 20
0.0
  9
$PLIMMAX
 10
12.0
 20
9.0
  9
$UNITMODE
 70
         0
  9
$VISRETAIN
 70
         0
  9
$PLINEGEN
 70
         1
  9
$PSLTSCALE
 70
         0
  9
$TREEDEPTH
 70
      3020
  9
$PICKSTYLE
 70
         1
  9
$CMLSTYLE
  2
Standard
  9
$CMLJUST
 70
         0
  9
$CMLSCALE
 40
1.0
  9
$PROXYGRAPHICS
 70
         0
  9
$MEASUREMENT
 70
         0
  0
ENDSEC
  0
SECTION
  2
CLASSES
  0
CLASS
  1
LWPOLYLINE
  2
AcDbPolyline
  3
"AutoCAD"
 90
        0
280
         0
281
         1
  0
CLASS
  1
IMAGE
  2
AcDbRasterImage
  3
ISM
 90
      127
280
         0
281
         1
  0
CLASS
  1
OLE2FRAME
  2
AcDbOle2Frame
  3
""
 90
        0
280
         0
281
         1
  0
CLASS
  1
HATCH
  2
AcDbHatch
  3
"ACAD_SEDONA"
 90
        0
280
         0
281
         1
  0
CLASS
  1
DICTIONARYVAR
  2
AcDbDictionaryVar
  3
"AutoCAD"
 90
        0
280
         0
281
         0
  0
CLASS
  1
RASTERVARIABLES
  2
AcDbRasterVariables
  3
ISM
 90
        0
280
         0
281
         0
  0
CLASS
  1
IMAGEDEF
  2
AcDbRasterImageDef
  3
ISM
 90
        0
280
         0
281
         0
  0
CLASS
  1
IMAGEDEF_REACTOR
  2
AcDbRasterImageDefReactor
  3
ISM
 90
        1
280
         0
281
         0
  0
CLASS
  1
IDBUFFER
  2
AcDbIdBuffer
  3
"Acad"
 90
        0
280
         0
281
         0
  0
CLASS
  1
SPATIAL_FILTER
  2
AcDbSpatialFilter
  3
"Acad"
 90
        0
280
         0
281
         0
  0
CLASS
  1
XRECORD
  2
AcDbXrecord
  3
"<Built In>"
 90
        0
280
         0
281
         0
  0
CLASS
  1
SORTENTSTABLE
  2
AcDbSortentsTable
  3
"AutoCAD"
 90
        0
280
         0
281
         0
  0
CLASS
  1
LAYER_INDEX
  2
AcDbLayerIndex
  3
"Acad"
 90
        0
280
         0
281
         0
  0
CLASS
  1
SPATIAL_INDEX
  2
AcDbSpatialIndex
  3
"Acad"
 90
        0
280
         0
281
         0
  0
CLASS
  1
OBJECT_PTR
  2
CAseDLPNTableRecord
  3
"ASE-LPNTableRecord"
 90
        1
280
         0
281
         0
  0
CLASS
  1
LAYOUT
  2
AcDbLayout
  3
"AutoCAD 2000"
 90
        1
280
         0
281
         0
  0
CLASS
  1
PLOTSETTINGS
  2
AcDbPlotSettings
  3
"AutoCAD 2000"
 90
        1
280
         0
281
         0
  0
CLASS
  1
ACDBDICTIONARYWDFLT
  2
AcDbDictionaryWithDefault
  3
"AutoCAD 2000"
 90
        1
280
         0
281
         0
  0
CLASS
  1
ACDBPLACEHOLDER
  2
AcDbPlaceHolder
  3
"AutoCAD 2000"
 90
        1
280
         0
281
         0
  0
CLASS
  1
VBA_PROJECT
  2
AcDbVbaProject
  3
"acadvba"
 90
        1
280
         0
281
         0
  0
CLASS
  1
WIPEOUT
  2
AcDbWipeout
  3
WipeOut|AutoCAD Express Tool|expresstools@autodesk.com
 90
      127
280
         0
281
         1
  0
CLASS
  1
WIPEOUTVARIABLES
  2
AcDbWipeoutVariables
  3
WipeOut|AutoCAD Express Tool|expresstools@autodesk.com
 90
        0
280
         0
281
         0
  0
CLASS
  1
RTEXT
  2
RText
  3
RText|AutoCAD Express Tool|expresstools@autodesk.com
 90
        0
280
         0
281
         1
  0
CLASS
  1
ARCALIGNEDTEXT
  2
AcDbArcAlignedText
  3
ATEXT|AutoCAD Express Tool|expresstools@autodesk.com
 90
        0
280
         0
281
         1
  0
ENDSEC
  0
SECTION
  2
TABLES
  0
TABLE
  2
VPORT
  5
7
100
AcDbSymbolTable
 70
         1
  0
VPORT
  5
15
100
AcDbSymbolTableRecord
100
AcDbViewportTableRecord
  2
*ACTIVE
 70
         0
 10
0.0
 20
0.0
 11
1.0
 21
1.0
 12
8.499983
 22
5.499989
 13
0.0
 23
0.0
 14
1.0
 24
1.0
 15
0.0
 25
0.0
 16
0.0
 26
0.0
 36
1.0
 17
0.0
 27
0.0
 37
0.0
 40
10.999978
 41
1.604229
 42
50.0
 43
0.0
 44
0.0
 50
0.0
 51
0.0
 71
         0
 72
       100
 73
         1
 74
         1
 75
         0
 76
         0
 77
         0
 78
         0
  0
ENDTAB
  0
TABLE
  2
LTYPE
  5
4
100
AcDbSymbolTable
 70
         7
  0
LTYPE
  5
11
100
AcDbSymbolTableRecord
100
AcDbLinetypeTableRecord
  2
ByBlock
 70
        64
  3

 72
        65
 73
         0
 40
0.0
  0
LTYPE
  5
12
100
AcDbSymbolTableRecord
100
AcDbLinetypeTableRecord
  2
ByLayer
 70
        64
  3

 72
        65
 73
         0
 40
0.0
  0
LTYPE
  5
13
100
AcDbSymbolTableRecord
100
AcDbLinetypeTableRecord
  2
CONTINUOUS
 70
         0
  3
Solid line
 72
        65
 73
         0
 40
0.0
  0
LTYPE
  5
21
100
AcDbSymbolTableRecord
100
AcDbLinetypeTableRecord
  2
HIDDEN2
 70
        64
  3
_ _ _ _ _ _ _ _ _ _ _ _ _ _ _ _ _ _ _ _ _ _ _ _
 72
        65
 73
         2
 40
0.1875
 49
0.125
 74
         0
 49
-0.0625
 74
         0
  0
LTYPE
  5
22
100
AcDbSymbolTableRecord
100
AcDbLinetypeTableRecord
  2
CENTER2
 70
        64
  3
___ _ ___ _ ___ _ ___ _ ___ _ ___ _ ___ _ ___ _
 72
        65
 73
         4
 40
1.125
 49
0.75
 74
         0
 49
-0.125
 74
         0
 49
0.125
 74
         0
 49
-0.125
 74
         0
  0
LTYPE
  5
23
100
AcDbSymbolTableRecord
100
AcDbLinetypeTableRecord
  2
PHANTOM2
 70
        64
  3
___ _ _ ___ _ _ ___ _ _ ___ _ _ ___ _ _ ___ _ _
 72
        65
 73
         6
 40
1.25
 49
0.625
 74
         0
 49
-0.125
 74
         0
 49
0.125
 74
         0
 49
-0.125
 74
         0
 49
0.125
 74
         0
 49
-0.125
 74
         0
  0
LTYPE
  5
24
100
AcDbSymbolTableRecord
100
AcDbLinetypeTableRecord
  2
DOT2
 70
        64
  3
...............................................
 72
        65
 73
         2
 40
0.125
 49
0.0
 74
         0
 49
-0.125
 74
         0
  0
ENDTAB
  0
TABLE
  2
LAYER
  5
2
100
AcDbSymbolTable
 70
         2
  0
LAYER
  5
14
100
AcDbSymbolTableRecord
100
AcDbLayerTableRecord
  2
0
 70
         0
 62
         7
  6
CONTINUOUS
  0
LAYER
  5
26
100
AcDbSymbolTableRecord
100
AcDbLayerTableRecord
  2
DEFAULT
 70
         0
 62
         7
  6
CONTINUOUS
  0
ENDTAB
  0
TABLE
  2
STYLE
  5
3
100
AcDbSymbolTable
 70
         2
  0
STYLE
  5
17
100
AcDbSymbolTableRecord
100
AcDbTextStyleTableRecord
  2
Standard
 70
         0
 40
0.0
 41
1.0
 50
0.0
 71
         0
 42
0.2
  3
txt
  4

  0
STYLE
  5
8F
100
AcDbSymbolTableRecord
100
AcDbTextStyleTableRecord
  2
arial_ttf
 70
         0
 40
0.0
 41
1.0
 50
0.0
 71
         0
 42
0.2
  3
arial.ttf
  4

1001
ACAD
1000
Arial
1071
        2
  0
ENDTAB
  0
TABLE
  2
VIEW
  5
5
100
AcDbSymbolTable
 70
         0
  0
ENDTAB
  0
TABLE
  2
UCS
  5
6
100
AcDbSymbolTable
 70
         0
  0
ENDTAB
  0
TABLE
  2
APPID
  5
8
100
AcDbSymbolTable
 70
         1
  0
APPID
  5
16
100
AcDbSymbolTableRecord
100
AcDbRegAppTableRecord
  2
ACAD
 70
         0
  0
ENDTAB
  0
TABLE
  2
DIMSTYLE
  5
9
100
AcDbSymbolTable
 70
         1
  0
DIMSTYLE
105
18
100
AcDbSymbolTableRecord
100
AcDbDimStyleTableRecord
  2
Standard
 70
         0
  3

  4

  5

  6

  7

 40
1.0
 41
0.18
 42
0.0625
 43
0.38
 44
0.18
 45
0.0
 46
0.0
 47
0.0
 48
0.0
 71
         0
 72
         0
 73
         1
 74
         1
 75
         0
 76
         0
 77
         0
 78
         0
140
0.18
141
0.09
142
0.0
143
25.4
144
1.0
145
0.0
146
1.0
147
0.09
170
         0
171
         2
172
         0
173
         0
174
         0
175
         0
176
         0
177
         0
178
         0
270
         2
271
         4
272
         4
273
         2
274
         2
275
         0
280
         0
281
         0
282
         0
283
         1
284
         0
285
         0
286
         0
287
         0
288
         0
340
17
  0
ENDTAB
  0
TABLE
  2
BLOCK_RECORD
  5
1
100
AcDbSymbolTable
 70
         7
  0
BLOCK_RECORD
  5
A
100
AcDbSymbolTableRecord
100
AcDbBlockTableRecord
  2
*MODEL_SPACE
  0
BLOCK_RECORD
  5
B
100
AcDbSymbolTableRecord
100
AcDbBlockTableRecord
  2
*PAPER_SPACE
  0
BLOCK_RECORD
  5
8E
100
AcDbSymbolTableRecord
100
AcDbBlockTableRecord
  2
SE408
  0
BLOCK_RECORD
  5
91
100
AcDbSymbolTableRecord
100
AcDbBlockTableRecord
  2
SE409
  0
BLOCK_RECORD
  5
92
100
AcDbSymbolTableRecord
100
AcDbBlockTableRecord
  2
SE410
  0
BLOCK_RECORD
  5
98
100
AcDbSymbolTableRecord
100
AcDbBlockTableRecord
  2
SE411
  0
BLOCK_RECORD
  5
99
100
AcDbSymbolTableRecord
100
AcDbBlockTableRecord
  2
SE412
  0
BLOCK_RECORD
  5
9F
100
AcDbSymbolTableRecord
100
AcDbBlockTableRecord
  2
SE413
  0
BLOCK_RECORD
  5
A3
100
AcDbSymbolTableRecord
100
AcDbBlockTableRecord
  2
SE414
  0
ENDTAB
  0
ENDSEC
  0
SECTION
  2
BLOCKS
  0
BLOCK
  5
D
100
AcDbEntity
  8
0
100
AcDbBlockBegin
  2
*MODEL_SPACE
 70
         0
 10
0.0
 20
0.0
 30
0.0
  3
*MODEL_SPACE
  1

  0
ENDBLK
  5
E
100
AcDbEntity
  8
0
100
AcDbBlockEnd
  0
BLOCK
  5
F
100
AcDbEntity
 67
         1
  8
0
100
AcDbBlockBegin
  2
*PAPER_SPACE
 70
         0
 10
0.0
 20
0.0
 30
0.0
  3
*PAPER_SPACE
  1

  0
ENDBLK
  5
10
100
AcDbEntity
 67
         1
  8
0
100
AcDbBlockEnd
  0
BLOCK
  5
A7
100
AcDbEntity
  8
DEFAULT
 62
         1
 48
0.0
100
AcDbBlockBegin
  2
SE408
 70
         0
 10
0.0
 20
0.0
 30
0.0
  3
SE408
  1

  0
TEXT
  5
A8
100
AcDbEntity
  8
0
  6
CONTINUOUS
 62
         7
100
AcDbText
 10
7.9174432966
 20
1.6774455591
 30
0.0
 40
0.25
  1
SYSTEM: FLOOR BOX
  7
arial_ttf
 11
7.9174432966
 21
1.9274455591
 31
0.0
100
AcDbText
 73
         3
  0
TEXT
  5
A9
100
AcDbEntity
  8
0
  6
CONTINUOUS
 62
         7
100
AcDbText
 10
7.9174432966
 20
1.1774455591
 30
0.0
 40
0.25
  1
CATALOG NUMBER: RFB119-SKO
  7
arial_ttf
 11
7.9174432966
 21
1.4274455591
 31
0.0
100
AcDbText
 73
         3
  0
ENDBLK
  5
AA
100
AcDbEntity
  8
0
  6
CONTINUOUS
 62
         7
100
AcDbBlockEnd
  0
BLOCK
  5
C1
100
AcDbEntity
  8
0
 62
         1
 48
0.0
100
AcDbBlockBegin
  2
SE409
 70
         0
 10
0.0
 20
0.0
 30
0.0
  3
SE409
  1

  0
ENDBLK
  5
C2
100
AcDbEntity
  8
0
 62
         1
 48
0.0
100
AcDbBlockEnd
  0
BLOCK
  5
AB
100
AcDbEntity
  8
0
 62
         1
 48
0.0
100
AcDbBlockBegin
  2
SE410
 70
         0
 10
0.0
 20
0.0
 30
0.0
  3
SE410
  1

  0
LINE
  5
AC
100
AcDbEntity
  8
0
  6
CONTINUOUS
 62
         7
100
AcDbLine
 10
4.5007628276
 20
6.4562668441
 30
0.0
 11
4.5007628276
 21
6.4862668441
 31
0.0
  0
ARC
  5
AD
100
AcDbEntity
  8
0
  6
CONTINUOUS
 62
         7
100
AcDbCircle
 10
4.4707628276
 20
5.9325789807
 30
0.0
 40
0.5545
100
AcDbArc
 50
93.1013761007
 51
86.8986238993
  0
ARC
  5
AE
100
AcDbEntity
  8
0
  6
CONTINUOUS
 62
         7
100
AcDbCircle
 10
4.4707628276
 20
5.9325789807
 30
0.0
 40
0.4375
100
AcDbArc
 50
93.9319389236
 51
86.0680610764
  0
LINE
  5
AF
100
AcDbEntity
  8
0
  6
CONTINUOUS
 62
         7
100
AcDbLine
 10
4.4407628276
 20
6.3690491974
 30
0.0
 11
4.5007628276
 21
6.3690491974
 31
0.0
  0
LINE
  5
B0
100
AcDbEntity
  8
0
  6
CONTINUOUS
 62
         7
100
AcDbLine
 10
4.5007628276
 20
6.4562668441
 30
0.0
 11
4.4407628276
 21
6.4562668441
 31
0.0
  0
LINE
  5
B1
100
AcDbEntity
  8
0
  6
CONTINUOUS
 62
         7
100
AcDbLine
 10
4.5007628276
 20
6.4862668441
 30
0.0
 11
4.4407628276
 21
6.4862668441
 31
0.0
  0
LINE
  5
B2
100
AcDbEntity
  8
0
  6
CONTINUOUS
 62
         7
100
AcDbLine
 10
4.4407628276
 20
6.3990491974
 30
0.0
 11
4.5007628276
 21
6.3990491974
 31
0.0
  0
LINE
  5
B3
100
AcDbEntity
  8
0
  6
CONTINUOUS
 62
         7
100
AcDbLine
 10
4.5007628276
 20
6.3990491974
 30
0.0
 11
4.5007628276
 21
6.3690491974
 31
0.0
  0
LINE
  5
B4
100
AcDbEntity
  8
0
  6
CONTINUOUS
 62
         7
100
AcDbLine
 10
4.4407628276
 20
6.3990491974
 30
0.0
 11
4.4407628276
 21
6.3690491974
 31
0.0
  0
CIRCLE
  5
B5
100
AcDbEntity
  8
0
  6
CONTINUOUS
 62
         7
100
AcDbCircle
 10
4.4707628276
 20
4.2919539807
 30
0.0
 40
0.078
  0
LINE
  5
B6
100
AcDbEntity
  8
0
  6
CONTINUOUS
 62
         7
100
AcDbLine
 10
3.5645128276
 20
3.7425789807
 30
0.0
 11
3.5645128276
 21
8.1225789807
 31
0.0
  0
LINE
  5
B7
100
AcDbEntity
  8
0
  6
CONTINUOUS
 62
         7
100
AcDbLine
 10
5.3770128276
 20
8.1225789807
 30
0.0
 11
5.3770128276
 21
3.7425789807
 31
0.0
  0
LINE
  5
B8
100
AcDbEntity
  8
0
  6
CONTINUOUS
 62
         7
100
AcDbLine
 10
3.6245128276
 20
8.1825789807
 30
0.0
 11
5.3170128276
 21
8.1825789807
 31
0.0
  0
CIRCLE
  5
B9
100
AcDbEntity
  8
0
  6
CONTINUOUS
 62
         7
100
AcDbCircle
 10
4.4707628276
 20
7.5732039807
 30
0.0
 40
0.078
  0
LINE
  5
BA
100
AcDbEntity
  8
0
  6
CONTINUOUS
 62
         7
100
AcDbLine
 10
5.3170128276
 20
3.6825789807
 30
0.0
 11
3.6245128276
 21
3.6825789807
 31
0.0
  0
ARC
  5
BB
100
AcDbEntity
  8
0
  6
CONTINUOUS
 62
         7
100
AcDbCircle
 10
3.6245128276
 20
3.7425789807
 30
0.0
 40
0.06
100
AcDbArc
 50
180.0
 51
270.0
  0
ARC
  5
BC
100
AcDbEntity
  8
0
  6
CONTINUOUS
 62
         7
100
AcDbCircle
 10
5.3170128276
 20
3.7425789807
 30
0.0
 40
0.06
100
AcDbArc
 50
270.0
 51
360.0
  0
ARC
  5
BD
100
AcDbEntity
  8
0
  6
CONTINUOUS
 62
         7
100
AcDbCircle
 10
5.3170128276
 20
8.1225789807
 30
0.0
 40
0.06
100
AcDbArc
 50
0.0
 51
90.0
  0
ARC
  5
BE
100
AcDbEntity
  8
0
  6
CONTINUOUS
 62
         7
100
AcDbCircle
 10
3.6245128276
 20
8.1225789807
 30
0.0
 40
0.06
100
AcDbArc
 50
90.0
 51
180.0
  0
LINE
  5
BF
100
AcDbEntity
  8
0
  6
CONTINUOUS
 62
         7
100
AcDbLine
 10
4.4407628276
 20
6.4562668441
 30
0.0
 11
4.4407628276
 21
6.4862668441
 31
0.0
  0
ENDBLK
  5
C0
100
AcDbEntity
  8
0
  6
CONTINUOUS
 62
         7
100
AcDbBlockEnd
  0
BLOCK
  5
EA
100
AcDbEntity
  8
0
 62
         1
 48
0.0
100
AcDbBlockBegin
  2
SE411
 70
         0
 10
0.0
 20
0.0
 30
0.0
  3
SE411
  1

  0
ENDBLK
  5
EB
100
AcDbEntity
  8
0
 62
         1
 48
0.0
100
AcDbBlockEnd
  0
BLOCK
  5
C3
100
AcDbEntity
  8
0
 62
         1
 48
0.0
100
AcDbBlockBegin
  2
SE412
 70
         0
 10
0.0
 20
0.0
 30
0.0
  3
SE412
  1

  0
LINE
  5
C4
100
AcDbEntity
  8
0
  6
CONTINUOUS
 62
         7
100
AcDbLine
 10
9.4073439947
 20
7.8271541519
 30
0.0
 11
9.3861307912
 21
7.8394016006
 31
0.0
  0
LINE
  5
C5
100
AcDbEntity
  8
0
  6
CONTINUOUS
 62
         7
100
AcDbLine
 10
9.8169831082
 20
9.63383719
 30
0.0
 11
9.7745567014
 21
9.6583320874
 31
0.0
  0
LINE
  5
C6
100
AcDbEntity
  8
0
  6
CONTINUOUS
 62
         7
100
AcDbLine
 10
8.5177784742
 20
5.2871937829
 30
0.0
 11
8.5602048811
 21
5.2626988855
 31
0.0
  0
LINE
  5
C7
100
AcDbEntity
  8
0
  6
CONTINUOUS
 62
         7
100
AcDbLine
 10
8.9486307912
 20
7.0816293723
 30
0.0
 11
8.9698439947
 21
7.0693819236
 31
0.0
  0
LINE
  5
C8
100
AcDbEntity
  8
0
  6
CONTINUOUS
 62
         7
100
AcDbLine
 10
8.5477784742
 20
8.9644001264
 30
0.0
 11
8.5902048811
 21
8.939905229
 31
0.0
  0
LINE
  5
C9
100
AcDbEntity
  8
0
  6
CONTINUOUS
 62
         7
100
AcDbLine
 10
9.7869831082
 20
9.6308654606
 30
0.0
 11
9.7445567014
 21
9.655360358
 31
0.0
  0
ELLIPSE
  5
CA
100
AcDbEntity
  8
0
  6
CONTINUOUS
 62
         7
100
AcDbEllipse
 10
9.1885939947
 20
7.4482680377
 30
0.0
 11
0.277249999999976
 21
0.4802110863984848
 31
0.0
210
0.0
220
0.0
230
1.0
 40
0.5773502692
 41
0.8395273876966045
 42
0.7312689390981237
  0
ELLIPSE
  5
CB
100
AcDbEntity
  8
0
  6
CONTINUOUS
 62
         7
100
AcDbEllipse
 10
9.1885939947
 20
7.4482680377
 30
0.0
 11
-0.2187499999999811
 21
-0.3788861141557026
 31
0.0
210
0.0
220
0.0
230
1.0
 40
0.5773502692
 41
3.9956160971915726
 42
3.8583655367827445
  0
LINE
  5
CC
100
AcDbEntity
  8
0
  6
CONTINUOUS
 62
         7
100
AcDbLine
 10
9.1673807912
 20
7.7923970286
 30
0.0
 11
9.2098071981
 21
7.816891926
 31
0.0
  0
ELLIPSE
  5
CD
100
AcDbEntity
  8
0
  6
CONTINUOUS
 62
         7
100
AcDbEllipse
 10
9.1673807912
 20
7.4605154864
 30
0.0
 11
0.277249999999976
 21
0.4802110863984849
 31
0.0
210
0.0
220
0.0
230
1.0
 40
0.5773502692
 41
3.1798584449319884
 42
-0.0382657913422078
  0
LINE
  5
CE
100
AcDbEntity
  8
0
  6
CONTINUOUS
 62
         7
100
AcDbLine
 10
9.2098071981
 20
7.9125997338
 30
0.0
 11
9.1673807912
 21
7.8881048363
 31
0.0
  0
ELLIPSE
  5
CF
100
AcDbEntity
  8
0
  6
CONTINUOUS
 62
         7
100
AcDbEllipse
 10
9.1673807912
 20
7.4605154864
 30
0.0
 11
-0.218749999999981
 21
-0.3788861141557026
 31
0.0
210
0.0
220
0.0
230
1.0
 40
0.5773502692
 41
3.9956160971915717
 42
6.2831853071795862
  0
ELLIPSE
  5
D0
100
AcDbEntity
  8
0
  6
CONTINUOUS
 62
         7
100
AcDbEllipse
 10
9.1673807912
 20
7.4605154864
 30
0.0
 11
-0.218749999999981
 21
-0.3788861141557026
 31
0.0
210
0.0
220
0.0
230
1.0
 40
0.5773502692
 41
3.1415926535897931
 42
3.8223869105863795
  0
LINE
  5
D1
100
AcDbEntity
  8
0
  6
CONTINUOUS
 62
         7
100
AcDbLine
 10
9.1461675878
 20
7.8046444773
 30
0.0
 11
9.1461675878
 21
7.8291393747
 31
0.0
  0
LINE
  5
D2
100
AcDbEntity
  8
0
  6
CONTINUOUS
 62
         7
100
AcDbLine
 10
9.1461675878
 20
7.8291393747
 30
0.0
 11
9.1885939947
 21
7.8536342721
 31
0.0
  0
ELLIPSE
  5
D3
100
AcDbEntity
  8
0
  6
CONTINUOUS
 62
         7
100
AcDbEllipse
 10
9.1461675878
 20
6.1331982321
 30
0.0
 11
-0.0389999999999966
 21
-0.0675499814951884
 31
0.0
210
0.0
220
0.0
230
1.0
 40
0.5773502692
 41
0.5751114237012664
 42
2.566481229888447
  0
LINE
  5
D4
100
AcDbEntity
  8
0
  6
CONTINUOUS
 62
         7
100
AcDbLine
 10
9.1885939947
 20
7.8536342721
 30
0.0
 11
9.2098071981
 21
7.816891926
 31
0.0
  0
LINE
  5
D5
100
AcDbEntity
  8
0
  6
CONTINUOUS
 62
         7
100
AcDbLine
 10
9.1461675878
 20
7.8291393747
 30
0.0
 11
9.1673807912
 21
7.7923970286
 31
0.0
  0
LINE
  5
D6
100
AcDbEntity
  8
0
  6
CONTINUOUS
 62
         7
100
AcDbLine
 10
9.1461675878
 20
7.8046444773
 30
0.0
 11
9.1673807912
 21
7.7923970286
 31
0.0
  0
ELLIPSE
  5
D7
100
AcDbEntity
  8
0
  6
CONTINUOUS
 62
         7
100
AcDbEllipse
 10
9.1885939947
 20
6.1087033346
 30
0.0
 11
0.0389999999999967
 21
0.067549981495188
 31
0.0
210
0.0
220
0.0
230
1.0
 40
0.5773502692
 41
0.0
 42
6.2831853071795862
  0
ELLIPSE
  5
D8
100
AcDbEntity
  8
0
  6
CONTINUOUS
 62
         7
100
AcDbEllipse
 10
9.1461675878
 20
8.8123276382
 30
0.0
 11
-0.0389999999999966
 21
-0.0675499814951882
 31
0.0
210
0.0
220
0.0
230
1.0
 40
0.5773502692
 41
0.5751114237016014
 42
2.5664812298882169
  0
LINE
  5
D9
100
AcDbEntity
  8
0
  6
CONTINUOUS
 62
         7
100
AcDbLine
 10
8.5477784742
 20
5.2901655123
 30
0.0
 11
8.5477784742
 21
8.8664205367
 31
0.0
  0
LINE
  5
DA
100
AcDbEntity
  8
0
  6
CONTINUOUS
 62
         7
100
AcDbLine
 10
9.8294095151
 20
9.6063705632
 30
0.0
 11
9.8294095151
 21
6.0301155387
 31
0.0
  0
LINE
  5
DB
100
AcDbEntity
  8
0
  6
CONTINUOUS
 62
         7
100
AcDbLine
 10
8.5902048811
 20
8.939905229
 30
0.0
 11
9.7869831082
 21
9.6308654606
 31
0.0
  0
ELLIPSE
  5
DC
100
AcDbEntity
  8
0
  6
CONTINUOUS
 62
         7
100
AcDbEllipse
 10
9.1885939947
 20
8.7878327408
 30
0.0
 11
0.0389999999999967
 21
0.0675499814951881
 31
0.0
210
0.0
220
0.0
230
1.0
 40
0.5773502692
 41
0.0
 42
6.2831853071795862
  0
LINE
  5
DD
100
AcDbEntity
  8
0
  6
CONTINUOUS
 62
         7
100
AcDbLine
 10
8.5477784742
 20
8.9644001264
 30
0.0
 11
9.7445567014
 21
9.655360358
 31
0.0
  0
LINE
  5
DE
100
AcDbEntity
  8
0
  6
CONTINUOUS
 62
         7
100
AcDbLine
 10
8.5053520673
 20
5.3146604097
 30
0.0
 11
8.5053520673
 21
8.8909154342
 31
0.0
  0
LINE
  5
DF
100
AcDbEntity
  8
0
  6
CONTINUOUS
 62
         7
100
AcDbLine
 10
9.7869831082
 20
5.9566308464
 30
0.0
 11
8.5902048811
 21
5.2656706148
 31
0.0
  0
LINE
  5
E0
100
AcDbEntity
  8
0
  6
CONTINUOUS
 62
         7
100
AcDbLine
 10
8.5053520673
 20
5.3146604097
 30
0.0
 11
8.5477784742
 21
5.2901655123
 31
0.0
  0
ELLIPSE
  5
E1
100
AcDbEntity
  8
0
  6
CONTINUOUS
 62
         7
100
AcDbEllipse
 10
8.5902048811
 20
5.3146604097
 30
0.0
 11
0.0299999999999973
 21
0.0519615242270679
 31
0.0
210
0.0
220
0.0
230
1.0
 40
0.5773502692
 41
2.3561944901922591
 42
3.9269908169871512
  0
ELLIPSE
  5
E2
100
AcDbEntity
  8
0
  6
CONTINUOUS
 62
         7
100
AcDbEllipse
 10
9.7869831082
 20
6.0056206413
 30
0.0
 11
-0.0299999999999973
 21
-0.0519615242270678
 31
0.0
210
0.0
220
0.0
230
1.0
 40
0.5773502692
 41
0.7853981633973778
 42
2.3561944901922591
  0
ELLIPSE
  5
E3
100
AcDbEntity
  8
0
  6
CONTINUOUS
 62
         7
100
AcDbEllipse
 10
9.7869831082
 20
9.5818756658
 30
0.0
 11
-0.0299999999999977
 21
-0.0519615242270679
 31
0.0
210
0.0
220
0.0
230
1.0
 40
0.5773502692
 41
2.3561944901922596
 42
3.9269908169871823
  0
LINE
  5
E4
100
AcDbEntity
  8
0
  6
CONTINUOUS
 62
         7
100
AcDbLine
 10
8.5477784742
 20
8.8664205367
 30
0.0
 11
8.5053520673
 21
8.8909154342
 31
0.0
  0
ELLIPSE
  5
E5
100
AcDbEntity
  8
0
  6
CONTINUOUS
 62
         7
100
AcDbEllipse
 10
8.5902048811
 20
8.8909154342
 30
0.0
 11
0.0299999999999974
 21
0.0519615242270677
 31
0.0
210
0.0
220
0.0
230
1.0
 40
0.5773502692
 41
0.7853981633973823
 42
2.3561944901922627
  0
ELLIPSE
  5
E6
100
AcDbEntity
  8
0
  6
CONTINUOUS
 62
         7
100
AcDbEllipse
 10
8.5477784742
 20
5.3391553071
 30
0.0
 11
0.0299999999999973
 21
0.0519615242270675
 31
0.0
210
0.0
220
0.0
230
1.0
 40
0.5773502692
 41
2.3561944901922831
 42
3.1415926535897931
  0
ELLIPSE
  5
E7
100
AcDbEntity
  8
0
  6
CONTINUOUS
 62
         7
100
AcDbEllipse
 10
9.7445567014
 20
9.6063705632
 30
0.0
 11
-0.0299999999999977
 21
-0.0519615242270679
 31
0.0
210
0.0
220
0.0
230
1.0
 40
0.5773502692
 41
3.1415926535897931
 42
3.9269908169871619
  0
ELLIPSE
  5
E8
100
AcDbEntity
  8
0
  6
CONTINUOUS
 62
         7
100
AcDbEllipse
 10
8.5477784742
 20
8.9154103316
 30
0.0
 11
-0.0299999999999972
 21
-0.0519615242270682
 31
0.0
210
0.0
220
0.0
230
1.0
 40
0.5773502692
 41
3.9269908169871552
 42
5.4977871437820625
  0
ENDBLK
  5
E9
100
AcDbEntity
  8
0
  6
CONTINUOUS
 62
         7
100
AcDbBlockEnd
  0
BLOCK
  5
EC
100
AcDbEntity
  8
DEFAULT
 62
         1
 48
0.0
100
AcDbBlockBegin
  2
SE413
 70
         0
 10
0.0
 20
0.0
 30
0.0
  3
SE413
  1

  0
HATCH
  5
ED
100
AcDbEntity
  8
DEFAULT
  6
CONTINUOUS
 62
         7
100
AcDbHatch
 10
0.0
 20
0.0
 30
0.0
210
0.0
220
0.0
230
1.0
  2
SOLID
 70
         1
 71
         1
 91
        1
 92
        1
 93
        3
 72
         1
 10
10.723408743049475
 20
5.1659852571336744
 11
10.903830699990806
 21
5.3118185887045746
 72
         1
 10
10.903830699990806
 20
5.3118185887045746
 11
10.651239960272946
 21
5.2076519232967957
 72
         1
 10
10.651239960272946
 20
5.2076519232967957
 11
10.723408743049475
 21
5.1659852571336744
 97
        0
 75
         0
 76
         1
 98
        1
 10
0.0
 20
0.0
  0
HATCH
  5
EE
100
AcDbEntity
  8
DEFAULT
  6
CONTINUOUS
 62
         7
100
AcDbHatch
 10
0.0
 20
0.0
 30
0.0
210
0.0
220
0.0
230
1.0
  2
SOLID
 70
         1
 71
         1
 91
        1
 92
        1
 93
        3
 72
         1
 10
9.9596432125504322
 20
4.7250250225023454
 11
9.707052472832574
 21
4.6208583570945656
 72
         1
 10
9.707052472832574
 20
4.6208583570945656
 11
9.8874744297739046
 21
4.7666916886654658
 72
         1
 10
9.8874744297739046
 20
4.7666916886654658
 11
9.9596432125504339
 21
4.7250250225023454
 97
        0
 75
         0
 76
         1
 98
        1
 10
0.0
 20
0.0
  0
LINE
  5
EF
100
AcDbEntity
  8
DEFAULT
  6
CONTINUOUS
 62
         7
100
AcDbLine
 10
9.8952362824
 20
5.8941308472
 30
0.0
 11
11.0120838742
 21
5.2493185895
 31
0.0
  0
LINE
  5
F0
100
AcDbEntity
  8
DEFAULT
  6
CONTINUOUS
 62
         7
100
AcDbLine
 10
8.6984580552
 20
5.2031706156
 30
0.0
 11
9.815305647
 21
4.5583583578
 31
0.0
  0
LINE
  5
F1
100
AcDbEntity
  8
DEFAULT
  6
CONTINUOUS
 62
         7
100
AcDbLine
 10
10.9038307
 20
5.3118185887
 30
0.0
 11
9.7070524503
 21
4.6208583441
 31
0.0
  0
LINE
  5
F2
100
AcDbEntity
  8
DEFAULT
  6
CONTINUOUS
 62
         7
100
AcDbLine
 10
10.3054415751
 20
4.9663384664
 30
0.0
 11
10.4324872698
 21
4.596657047
 31
0.0
  0
TEXT
  5
F3
100
AcDbEntity
  8
DEFAULT
  6
CONTINUOUS
 62
         7
100
AcDbText
 10
9.7400249569
 20
3.889475622
 30
0.0
 40
0.25
  1
1 13/16
  7
arial_ttf
 11
9.7400249569
 21
4.139475622
 31
0.0
100
AcDbText
 73
         3
  0
TEXT
  5
F4
100
AcDbEntity
  8
DEFAULT
  6
CONTINUOUS
 62
         7
100
AcDbText
 10
9.7400249569
 20
3.514475622
 30
0.0
 40
0.25
  1
[46 mm]
  7
arial_ttf
 11
9.7400249569
 21
3.764475622
 31
0.0
100
AcDbText
 73
         3
  0
ENDBLK
  5
F5
100
AcDbEntity
  8
DEFAULT
  6
CONTINUOUS
 62
         7
100
AcDbBlockEnd
  0
BLOCK
  5
F6
100
AcDbEntity
  8
DEFAULT
 62
         1
 48
0.0
100
AcDbBlockBegin
  2
SE414
 70
         0
 10
0.0
 20
0.0
 30
0.0
  3
SE414
  1

  0
HATCH
  5
F7
100
AcDbEntity
  8
DEFAULT
  6
CONTINUOUS
 62
         7
100
AcDbHatch
 10
0.0
 20
0.0
 30
0.0
210
0.0
220
0.0
230
1.0
  2
SOLID
 70
         1
 71
         1
 91
        1
 92
        1
 93
        3
 72
         1
 10
6.9337083826014663
 20
4.6082817073594677
 11
6.969792773989731
 21
4.3791150434623249
 72
         1
 10
6.9697927739897301
 20
4.3791150434623241
 11
7.0058771653779948
 21
4.6499483735225837
 72
         1
 10
7.0058771653779948
 20
4.6499483735225846
 11
6.9337083826014663
 21
4.6082817073594677
 97
        0
 75
         0
 76
         1
 98
        1
 10
0.0
 20
0.0
  0
HATCH
  5
F8
100
AcDbEntity
  8
DEFAULT
  6
CONTINUOUS
 62
         7
100
AcDbHatch
 10
0.0
 20
0.0
 30
0.0
210
0.0
220
0.0
230
1.0
  2
SOLID
 70
         1
 71
         1
 91
        1
 92
        1
 93
        3
 72
         1
 10
6.9337083826014645
 20
7.6845367378657103
 11
6.9697927739897292
 21
7.95537006792597
 72
         1
 10
6.9697927739897292
 20
7.9553700679259709
 11
7.0058771653779939
 21
7.7262034040288281
 72
         1
 10
7.0058771653779939
 20
7.7262034040288272
 11
6.9337083826014654
 21
7.6845367378657103
 97
        0
 75
         0
 76
         1
 98
        1
 10
0.0
 20
0.0
  0
LINE
  5
F9
100
AcDbEntity
  8
DEFAULT
  6
CONTINUOUS
 62
         7
100
AcDbLine
 10
8.4395253
 20
5.227665513
 30
0.0
 11
6.8615395998
 21
4.3166150442
 31
0.0
  0
LINE
  5
FA
100
AcDbEntity
  8
DEFAULT
  6
CONTINUOUS
 62
         7
100
AcDbLine
 10
8.4395253
 20
8.8039205375
 30
0.0
 11
6.8615395998
 21
7.8928700687
 31
0.0
  0
LINE
  5
FB
100
AcDbEntity
  8
DEFAULT
  6
CONTINUOUS
 62
         7
100
AcDbLine
 10
6.969792774
 20
4.3791150435
 30
0.0
 11
6.969792774
 21
5.9304472157
 31
0.0
  0
LINE
  5
FC
100
AcDbEntity
  8
DEFAULT
  6
CONTINUOUS
 62
         7
100
AcDbLine
 10
6.969792774
 20
6.7304471717
 30
0.0
 11
6.969792774
 21
7.9553700679
 31
0.0
  0
TEXT
  5
FD
100
AcDbEntity
  8
DEFAULT
  6
CONTINUOUS
 62
         7
100
AcDbText
 10
6.4909884262
 20
6.3929472022
 30
0.0
 40
0.25
  1
4 1/2
  7
arial_ttf
 11
6.4909884262
 21
6.6429472022
 31
0.0
100
AcDbText
 73
         3
  0
TEXT
  5
FE
100
AcDbEntity
  8
DEFAULT
  6
CONTINUOUS
 62
         7
100
AcDbText
 10
6.4909884262
 20
6.0179472022
 30
0.0
 40
0.25
  1
[114 mm]
  7
arial_ttf
 11
6.4909884262
 21
6.2679472022
 31
0.0
100
AcDbText
 73
         3
  0
ENDBLK
  5
FF
100
AcDbEntity
  8
DEFAULT
  6
CONTINUOUS
 62
         7
100
AcDbBlockEnd
  0
ENDSEC
  0
SECTION
  2
ENTITIES
  0
INSERT
  5
90
100
AcDbEntity
  8
DEFAULT
 62
         0
 48
0.0
100
AcDbBlockReference
  2
SE408
 10
0.0
 20
0.0
 30
0.0
  0
INSERT
  5
93
102
{ACAD_XDICTIONARY
360
94
102
}
100
AcDbEntity
  8
0
 62
         0
 48
0.0
100
AcDbBlockReference
  2
SE410
 10
0.0
 20
0.0
 30
0.0
  0
INSERT
  5
97
100
AcDbEntity
  8
0
 62
         0
 48
0.0
100
AcDbBlockReference
  2
SE409
 10
0.0
 20
0.0
 30
0.0
  0
INSERT
  5
9A
102
{ACAD_XDICTIONARY
360
9B
102
}
100
AcDbEntity
  8
0
 62
         0
 48
0.0
100
AcDbBlockReference
  2
SE412
 10
0.0
 20
0.0
 30
0.0
  0
INSERT
  5
9E
100
AcDbEntity
  8
0
 62
         0
 48
0.0
100
AcDbBlockReference
  2
SE411
 10
0.0
 20
0.0
 30
0.0
  0
INSERT
  5
A2
100
AcDbEntity
  8
DEFAULT
 62
         0
 48
0.0
100
AcDbBlockReference
  2
SE413
 10
0.0
 20
0.0
 30
0.0
  0
INSERT
  5
A6
100
AcDbEntity
  8
DEFAULT
 62
         0
 48
0.0
100
AcDbBlockReference
  2
SE414
 10
0.0
 20
0.0
 30
0.0
  0
ENDSEC
  0
SECTION
  2
OBJECTS
  0
DICTIONARY
  5
19
100
AcDbDictionary
  3
ACAD_GROUP
350
1A
  3
ACAD_MLINESTYLE
350
1B
  0
DICTIONARY
  5
1A
102
{ACAD_REACTORS
330
19
102
}
100
AcDbDictionary
  0
DICTIONARY
  5
1B
102
{ACAD_REACTORS
330
19
102
}
100
AcDbDictionary
  3
STANDARD
350
1C
  0
MLINESTYLE
  5
1C
102
{ACAD_REACTORS
330
1B
102
}
100
AcDbMlineStyle
  2
Standard
 70
         0
  3

 62
         0
 51
90.0
 52
90.0
 71
         2
 49
0.5
 62
       256
  6
ByLayer
 49
-0.5
 62
       256
  6
ByLayer
  0
DICTIONARY
  5
94
100
AcDbDictionary
  3
ACAD_FILTER
350
95
  0
DICTIONARY
  5
95
100
AcDbDictionary
  3
SPATIAL
350
96
  0
SPATIAL_FILTER
  5
96
100
AcDbFilter
100
AcDbSpatialFilter
 70
         2
 10
3.3145128276
 20
3.4325789807
 10
5.6270128276
 20
8.4325789807
210
0.0
220
0.0
230
1.0
 11
0.0
 21
0.0
 31
0.0
 71
         1
 72
         0
 73
         0
 40
1.0
 40
0.0
 40
0.0
 40
0.0
 40
0.0
 40
1.0
 40
0.0
 40
0.0
 40
0.0
 40
0.0
 40
1.0
 40
0.0
 40
1.0
 40
0.0
 40
0.0
 40
0.0
 40
0.0
 40
1.0
 40
0.0
 40
0.0
 40
0.0
 40
0.0
 40
1.0
 40
0.0
  0
DICTIONARY
  5
9B
100
AcDbDictionary
  3
ACAD_FILTER
350
9C
  0
DICTIONARY
  5
9C
100
AcDbDictionary
  3
SPATIAL
350
9D
  0
SPATIAL_FILTER
  5
9D
100
AcDbFilter
100
AcDbSpatialFilter
 70
         2
 10
8.2553520673
 20
5.0098881539
 10
10.0794095151
 20
9.9111428189
210
0.0
220
0.0
230
1.0
 11
0.0
 21
0.0
 31
0.0
 71
         1
 72
         0
 73
         0
 40
1.0
 40
0.0
 40
0.0
 40
0.0
 40
0.0
 40
1.0
 40
0.0
 40
0.0
 40
0.0
 40
0.0
 40
1.0
 40
0.0
 40
1.0
 40
0.0
 40
0.0
 40
0.0
 40
0.0
 40
1.0
 40
0.0
 40
0.0
 40
0.0
 40
0.0
 40
1.0
 40
0.0
  0
ENDSEC
  0
EOF
