999
DXF file: 1734-aent.dxf
999
Pro/ENGINEER 2010140 by Parametric Technology Corporation
  0
SECTION
  2
HEADER
  9
$ACADVER
  1
AC1015
  9
$DWGCODEPAGE
  3
ANSI_1252
  9
$EXTMAX
 10
17.0
 20
11.0
 30
0.0
  9
$EXTMIN
 10
0.0
 20
0.0
 30
0.0
  9
$LIMMIN
 10
0.0
 20
0.0
  9
$LIMMAX
 10
17.0
 20
11.0
  9
$VIEWCTR
 10
8.5
 20
5.5
  9
$VIEWSIZE
 40
11.0
  9
$CLAYER
  8
0
  9
$LTSCALE
 40
0.935
  9
$CELTYPE
  6
BYLAYER
  9
$DIMSCALE
 40
1.0
  9
$DIMASZ
 40
0.1875
  9
$DIMEXO
 40
0.10625
  9
$DIMDLI
 40
0.646
  9
$DIMEXE
 40
0.306
  9
$DIMCEN
 40
0.153
  9
$DIMLFAC
 40
1.0
  9
$DIMBLK
  1
_CLOSED
  9
$DIMTXT
 40
0.15625
  9
$DIMTOL
 70
0
  9
$DIMLIM
 70
0
  9
$DIMTFAC
 40
1.0
  9
$PDMODE
 70
3
  9
$PDSIZE
 40
0.3125
  9
$HANDSEED
  5
833
  9
$TILEMODE
 70
1
  9
$MEASUREMENT
 70
0
  9
$INSUNITS
 70
1
  0
ENDSEC
  0
SECTION
  2
CLASSES
  0
CLASS
  1
ACDBDICTIONARYWDFLT
  2
AcDbDictionaryWithDefault
  3
AutoCAD 2000
 90
0
280
0
281
0
  0
CLASS
  1
ACDBPLACEHOLDER
  2
AcDbPlaceHolder
  3
AutoCAD 2000
 90
0
280
0
281
0
  0
CLASS
  1
LAYOUT
  2
AcDbLayout
  3
AutoCAD 2000
 90
0
280
0
281
0
  0
ENDSEC
  0
SECTION
  2
TABLES
  0
TABLE
  2
VPORT
  5
8
100
AcDbSymbolTable
 70
2
  0
VPORT
  5
1F4
100
AcDbSymbolTableRecord
100
AcDbViewportTableRecord
  2
*ACTIVE
 70
0
 10
0.0
 20
0.0
 11
1.0
 21
1.0
 12
8.5
 22
5.5
 13
0.0
 23
0.0
 14
1.0
 24
1.0
 15
0.0
 25
0.0
 16
0.0
 26
0.0
 36
1.0
 17
0.0
 27
0.0
 37
0.0
 40
11.0
 41
1.5454545455
 42
50.0
 43
0.0
 44
0.0
 50
0.0
 51
0.0
 71
0
 72
100
 73
1
 74
1
 75
0
 76
0
 77
0
 78
0
  0
ENDTAB
  0
TABLE
  2
LTYPE
  5
5
100
AcDbSymbolTable
 70
6
  0
LTYPE
  5
14
100
AcDbSymbolTableRecord
100
AcDbLinetypeTableRecord
  2
BYBLOCK
 70
0
  3

 72
65
 73
0
 40
0.0
  0
LTYPE
  5
15
100
AcDbSymbolTableRecord
100
AcDbLinetypeTableRecord
  2
BYLAYER
 70
0
  3

 72
65
 73
0
 40
0.0
  0
LTYPE
  5
16
100
AcDbSymbolTableRecord
100
AcDbLinetypeTableRecord
  2
CONTINUOUS
 70
64
  3
Solid line
 72
65
 73
0
 40
0.0
  0
LTYPE
  5
1F5
100
AcDbSymbolTableRecord
100
AcDbLinetypeTableRecord
  2
CENTER
 70
64
  3
____ _ ____ _ ____ _ ____ _ ____ _ ____ _ ____
 72
65
 73
4
 40
0.6
 49
0.375
 74
0
 49
-0.075
 74
0
 49
0.075
 74
0
 49
-0.075
 74
0
  0
LTYPE
  5
1F6
100
AcDbSymbolTableRecord
100
AcDbLinetypeTableRecord
  2
HIDDEN
 70
64
  3
- - - - - - - - - - - - - - - - - - - -
 72
65
 73
2
 40
0.2
 49
0.1
 74
0
 49
-0.1
 74
0
  0
LTYPE
  5
1F7
100
AcDbSymbolTableRecord
100
AcDbLinetypeTableRecord
  2
PHANTOM
 70
64
  3
_____ _ _ _____ _ _ _____ _ _ _____
 72
65
 73
6
 40
0.8
 49
0.45
 74
0
 49
-0.05
 74
0
 49
0.1
 74
0
 49
-0.05
 74
0
 49
0.1
 74
0
 49
-0.05
 74
0
  0
LTYPE
  5
1F8
100
AcDbSymbolTableRecord
100
AcDbLinetypeTableRecord
  2
DOT
 70
64
  3
. . . . . . . . . . . . . . . . . . . .
 72
65
 73
2
 40
0.2
 49
0.1
 74
0
 49
-0.1
 74
0
  0
LTYPE
  5
1F9
100
AcDbSymbolTableRecord
100
AcDbLinetypeTableRecord
  2
DASHED
 70
64
  3
- - - - - - - - - - - - - - - - - - - -
 72
65
 73
2
 40
0.2
 49
0.1
 74
0
 49
-0.1
 74
0
  0
ENDTAB
  0
TABLE
  2
LAYER
  5
2
100
AcDbSymbolTable
 70
36
  0
LAYER
  5
10
100
AcDbSymbolTableRecord
100
AcDbLayerTableRecord
  2
0
 70
0
 62
7
  6
CONTINUOUS
370
-3
390
F
  0
LAYER
  5
1FA
100
AcDbSymbolTableRecord
100
AcDbLayerTableRecord
  2
DEFAULT_1
 70
0
 62
7
  6
CENTER
370
-3
390
F
  0
LAYER
  5
1FB
100
AcDbSymbolTableRecord
100
AcDbLayerTableRecord
  2
DEFAULT_2
 70
0
 62
8
  6
HIDDEN
370
-3
390
F
  0
LAYER
  5
1FC
100
AcDbSymbolTableRecord
100
AcDbLayerTableRecord
  2
DEFAULT_3
 70
0
 62
7
  6
PHANTOM
370
-3
390
F
  0
LAYER
  5
1FD
100
AcDbSymbolTableRecord
100
AcDbLayerTableRecord
  2
CSYS_PART
 70
0
 62
7
  6
CONTINUOUS
370
-3
390
F
  0
ENDTAB
  0
TABLE
  2
STYLE
  5
3
100
AcDbSymbolTable
 70
1
  0
STYLE
  5
11
100
AcDbSymbolTableRecord
100
AcDbTextStyleTableRecord
  2
STANDARD
 70
0
 40
0.0
 41
0.8
 50
0.0
 71
0
 42
0.2
  3
txt
  4

  0
STYLE
  5
1FE
100
AcDbSymbolTableRecord
100
AcDbTextStyleTableRecord
  2
TEXTSTYLE_1
 70
0
 40
0.0
 41
0.8
 50
0.0
 71
0
 42
0.2
  3
gdt
  4

  0
ENDTAB
  0
TABLE
  2
VIEW
  5
6
100
AcDbSymbolTable
 70
0
  0
ENDTAB
  0
TABLE
  2
UCS
  5
7
100
AcDbSymbolTable
 70
0
  0
ENDTAB
  0
TABLE
  2
APPID
  5
9
100
AcDbSymbolTable
 70
1
  0
APPID
  5
1FF
100
AcDbSymbolTableRecord
100
AcDbRegAppTableRecord
  2
ACAD
 70
0
  0
ENDTAB
  0
TABLE
  2
BLOCK_RECORD
  5
1
100
AcDbSymbolTable
 70
0
  0
BLOCK_RECORD
  5
200
100
AcDbSymbolTableRecord
100
AcDbBlockTableRecord
  2
*Model_Space
  0
BLOCK_RECORD
  5
201
100
AcDbSymbolTableRecord
100
AcDbBlockTableRecord
  2
*Paper_Space
  0
ENDTAB
  0
TABLE
  2
DIMSTYLE
  5
A
100
AcDbSymbolTable
 70
1
100
AcDbDimStyleTable
 71
0
  0
DIMSTYLE
105
202
100
AcDbSymbolTableRecord
100
AcDbDimStyleTableRecord
  2
STANDARD
 70
0
  3

  4

 40
1.0
 41
0.1875
 42
0.0625
 43
0.38
 44
0.18
 45
0.0
 46
0.0
 47
0.05
 48
0.05
140
0.15625
141
0.09
142
0.0
143
25.4
144
1.0
145
0.0
146
1.0
147
0.09
 71
0.0
 72
0.0
 73
1
 74
1
 75
0
 76
0
 77
0
 78
4
170
0
171
2
172
0
173
0
174
0
175
0
176
0
177
0
178
0
270
2
271
2
272
2
273
2
274
2
275
0
280
0
281
0
282
0
283
1
284
4
285
0
286
0
287
3
288
0
340
11
  0
ENDTAB
  0
ENDSEC
  0
SECTION
  2
BLOCKS
  0
BLOCK
  5
20
100
AcDbEntity
  8
0
100
AcDbBlockBegin
  2
*Model_Space
 70
0
 10
0.0
 20
0.0
 30
0.0
  3
*Model_Space
  1

  0
ENDBLK
  5
21
100
AcDbEntity
  8
0
100
AcDbBlockEnd
  0
BLOCK
  5
1C
100
AcDbEntity
  8
0
100
AcDbBlockBegin
  2
*Paper_Space
 70
0
 10
0.0
 20
0.0
 30
0.0
  3
*Paper_Space
  1

  0
ENDBLK
  5
1D
100
AcDbEntity
  8
0
100
AcDbBlockEnd
  0
ENDSEC
  0
SECTION
  2
ENTITIES
  0
LINE
  5
203
100
AcDbEntity
  8
0
100
AcDbLine
 62
7
  6
CONTINUOUS
 10
0.0
 20
0.0
 11
0.0
 21
11.0
  0
LINE
  5
204
100
AcDbEntity
  8
0
100
AcDbLine
 62
7
  6
CONTINUOUS
 10
0.0
 20
0.0
 11
17.0
 21
0.0
  0
LINE
  5
205
100
AcDbEntity
  8
0
100
AcDbLine
 62
7
  6
CONTINUOUS
 10
0.0
 20
11.0
 11
17.0
 21
11.0
  0
LINE
  5
206
100
AcDbEntity
  8
0
100
AcDbLine
 62
7
  6
CONTINUOUS
 10
17.0
 20
0.0
 11
17.0
 21
11.0
  0
LINE
  5
207
100
AcDbEntity
  8
0
100
AcDbLine
 62
6
  6
CONTINUOUS
 10
10.7430152778
 20
10.0672014901
 11
11.5521713545
 21
10.5343651802
  0
LINE
  5
208
100
AcDbEntity
  8
0
100
AcDbLine
 62
6
  6
CONTINUOUS
 10
11.5645534908
 20
10.5354236004
 11
10.7555437661
 21
10.0683444061
  0
LINE
  5
209
100
AcDbEntity
  8
0
100
AcDbLine
 62
6
  6
CONTINUOUS
 10
10.7347388194
 20
10.04952575
 11
10.7465091302
 21
10.0563213015
  0
LINE
  5
20A
100
AcDbEntity
  8
0
100
AcDbLine
 62
6
  6
CONTINUOUS
 10
10.9412764655
 20
10.0191249132
 11
11.74899241
 21
10.4854571475
  0
LINE
  5
20B
100
AcDbEntity
  8
0
100
AcDbLine
 62
6
  6
CONTINUOUS
 10
10.1014347147
 20
7.9428713204
 11
10.1147728712
 21
7.3546038621
  0
LINE
  5
20C
100
AcDbEntity
  8
0
100
AcDbLine
 62
6
  6
CONTINUOUS
 10
10.1378276701
 20
7.3230708128
 11
10.1244895136
 21
7.9113382703
  0
LINE
  5
20D
100
AcDbEntity
  8
0
100
AcDbLine
 62
6
  6
CONTINUOUS
 10
10.1128545551
 20
8.4477520284
 11
10.1014347147
 21
7.9440901299
  0
LINE
  5
20E
100
AcDbEntity
  8
0
100
AcDbLine
 62
6
  6
CONTINUOUS
 10
10.1244895136
 20
7.9113382703
 11
10.135905729
 21
8.4148402864
  0
LINE
  5
20F
100
AcDbEntity
  8
0
100
AcDbLine
 62
6
  6
CONTINUOUS
 10
10.7289771284
 20
10.0417260321
 11
10.7014732511
 21
8.8286920019
  0
LINE
  5
210
100
AcDbEntity
  8
0
100
AcDbLine
 62
6
  6
CONTINUOUS
 10
10.7347388194
 20
10.04952575
 11
10.7343746118
 21
10.0334626962
  0
LINE
  5
211
100
AcDbEntity
  8
0
100
AcDbLine
 62
6
  6
CONTINUOUS
 10
10.7069583332
 20
8.8242922404
 11
10.7066028831
 21
8.8086154304
  0
LINE
  5
212
100
AcDbEntity
  8
0
100
AcDbLine
 62
6
  6
CONTINUOUS
 10
10.7076240944
 20
8.8375786589
 11
10.7347389318
 21
10.0334544357
  0
LINE
  5
213
100
AcDbEntity
  8
0
100
AcDbLine
 62
6
  6
CONTINUOUS
 10
10.701474012
 20
8.8287279363
 11
10.6993922267
 21
8.8206674646
  0
LINE
  5
214
100
AcDbEntity
  8
0
100
AcDbLine
 62
6
  6
CONTINUOUS
 10
10.6993922267
 20
8.8206674646
 11
10.6948693755
 21
8.8150445965
  0
LINE
  5
215
100
AcDbEntity
  8
0
100
AcDbLine
 62
6
  6
CONTINUOUS
 10
10.6948693755
 20
8.8150445965
 11
10.6923467109
 21
8.8132819269
  0
LINE
  5
216
100
AcDbEntity
  8
0
100
AcDbLine
 62
6
  6
CONTINUOUS
 10
10.1440380564
 20
8.4967177023
 11
10.6923743132
 21
8.8132979189
  0
LINE
  5
217
100
AcDbEntity
  8
0
100
AcDbLine
 62
6
  6
CONTINUOUS
 10
10.7071426046
 20
8.8085095262
 11
10.1637423477
 21
8.4947791143
  0
LINE
  5
218
100
AcDbEntity
  8
0
100
AcDbLine
 62
6
  6
CONTINUOUS
 10
10.1378282408
 20
7.3230704834
 11
11.4827451119
 21
6.5465999319
  0
LINE
  5
219
100
AcDbEntity
  8
0
100
AcDbLine
 62
6
  6
CONTINUOUS
 10
12.5796003549
 20
5.9133445882
 11
13.6252483464
 21
5.3096530962
  0
LINE
  5
21A
100
AcDbEntity
  8
0
100
AcDbLine
 62
6
  6
CONTINUOUS
 10
11.5358720401
 20
6.7380025283
 11
12.5213714208
 21
6.1690370673
  0
LINE
  5
21B
100
AcDbEntity
  8
0
100
AcDbLine
 62
6
  6
CONTINUOUS
 10
11.0787315732
 20
7.8705118458
 11
11.0982269238
 21
7.7195459999
  0
LINE
  5
21C
100
AcDbEntity
  8
0
100
AcDbLine
 62
6
  6
CONTINUOUS
 10
11.1477455499
 20
7.7685143312
 11
11.1339839511
 21
7.8759160581
  0
LINE
  5
21D
100
AcDbEntity
  8
0
100
AcDbLine
 62
6
  6
CONTINUOUS
 10
13.6252489725
 20
5.8902195781
 11
10.1244895136
 21
7.9113382703
  0
LINE
  5
21E
100
AcDbEntity
  8
0
100
AcDbLine
 62
6
  6
CONTINUOUS
 10
11.532678145
 20
6.6472730368
 11
11.5358720401
 21
6.7380025283
  0
LINE
  5
21F
100
AcDbEntity
  8
0
100
AcDbLine
 62
6
  6
CONTINUOUS
 10
13.4505602187
 20
9.5641443262
 11
13.5237065195
 21
9.6063751106
  0
LINE
  5
220
100
AcDbEntity
  8
0
100
AcDbLine
 62
6
  6
CONTINUOUS
 10
13.1896415986
 20
9.4135035122
 11
13.2767073821
 21
9.4637709434
  0
LINE
  5
221
100
AcDbEntity
  8
0
100
AcDbLine
 62
6
  6
CONTINUOUS
 10
13.5431937954
 20
9.5951243812
 11
13.2230483572
 21
9.4102894296
  0
LINE
  5
222
100
AcDbEntity
  8
0
100
AcDbLine
 62
7
  6
CONTINUOUS
 10
13.5501535367
 20
9.5830698224
 11
13.2300080986
 21
9.3982348708
  0
LINE
  5
223
100
AcDbEntity
  8
0
100
AcDbLine
 62
7
  6
CONTINUOUS
 10
13.3822861577
 20
9.4282901928
 11
13.4424178226
 21
9.4630070185
  0
LINE
  5
224
100
AcDbEntity
  8
0
100
AcDbLine
 62
7
  6
CONTINUOUS
 10
13.1896415986
 20
9.3113503399
 11
13.172851508
 21
9.3016566345
  0
LINE
  5
225
100
AcDbEntity
  8
0
100
AcDbLine
 62
6
  6
CONTINUOUS
 10
13.6252489481
 20
6.151178502
 11
11.7743929209
 21
7.2197465533
  0
LINE
  5
226
100
AcDbEntity
  8
0
100
AcDbLine
 62
6
  6
CONTINUOUS
 10
11.8372686008
 20
7.2473131522
 11
13.6530847598
 21
6.1989749206
  0
LINE
  5
227
100
AcDbEntity
  8
0
100
AcDbLine
 62
6
  6
CONTINUOUS
 10
11.7591237837
 20
7.3379856521
 11
11.0982269238
 21
7.7195459999
  0
LINE
  5
228
100
AcDbEntity
  8
0
100
AcDbLine
 62
6
  6
CONTINUOUS
 10
11.7591237837
 20
7.3379856521
 11
11.7743929209
 21
7.2197465533
  0
LINE
  5
229
100
AcDbEntity
  8
0
100
AcDbLine
 62
7
  6
CONTINUOUS
 10
13.4710605448
 20
9.463469671
 11
13.5097870367
 21
9.4858282881
  0
LINE
  5
22A
100
AcDbEntity
  8
0
100
AcDbLine
 62
6
  6
CONTINUOUS
 10
13.1867698208
 20
9.2936210746
 11
13.1927789647
 21
9.2970904347
  0
LINE
  5
22B
100
AcDbEntity
  8
0
100
AcDbLine
 62
6
  6
CONTINUOUS
 10
13.4819491537
 20
9.4401841101
 11
13.6119560403
 21
9.5152431731
  0
LINE
  5
22C
100
AcDbEntity
  8
0
100
AcDbLine
 62
6
  6
CONTINUOUS
 10
13.287077978
 20
9.3276757616
 11
13.4218174888
 21
9.4054672845
  0
LINE
  5
22D
100
AcDbEntity
  8
0
100
AcDbLine
 62
6
  6
CONTINUOUS
 10
13.2874157957
 20
9.3270906407
 11
13.2507271611
 21
9.305908574
  0
LINE
  5
22E
100
AcDbEntity
  8
0
100
AcDbLine
 62
7
  6
CONTINUOUS
 10
13.6442492403
 20
9.4965991071
 11
13.5142423537
 21
9.4215400442
  0
LINE
  5
22F
100
AcDbEntity
  8
0
100
AcDbLine
 62
7
  6
CONTINUOUS
 10
13.4541106888
 20
9.3868232185
 11
13.3241038022
 21
9.3117641556
  0
LINE
  5
230
100
AcDbEntity
  8
0
100
AcDbLine
 62
6
  6
CONTINUOUS
 10
13.3859063058
 20
9.3082290352
 11
13.7130114852
 21
9.4970823102
  0
LINE
  5
231
100
AcDbEntity
  8
0
100
AcDbLine
 62
6
  6
CONTINUOUS
 10
13.3656736369
 20
9.2934470144
 11
13.3859063058
 21
9.3051282815
  0
LINE
  5
232
100
AcDbEntity
  8
0
100
AcDbLine
 62
7
  6
CONTINUOUS
 10
13.2846897723
 20
9.2461184893
 11
13.2768693732
 21
9.2416032506
  0
LINE
  5
233
100
AcDbEntity
  8
0
100
AcDbLine
 62
6
  6
CONTINUOUS
 10
13.3859063058
 20
9.3017995768
 11
13.3705948747
 21
9.2929595707
  0
LINE
  5
234
100
AcDbEntity
  8
0
100
AcDbLine
 62
6
  6
CONTINUOUS
 10
12.790250872
 20
8.9516413993
 11
13.2846760159
 21
9.2370961853
  0
LINE
  5
235
100
AcDbEntity
  8
0
100
AcDbLine
 62
6
  6
CONTINUOUS
 10
13.7324987611
 20
9.4858315807
 11
13.412353323
 21
9.3009966292
  0
LINE
  5
236
100
AcDbEntity
  8
0
100
AcDbLine
 62
6
  6
CONTINUOUS
 10
13.4262728058
 20
9.2768875116
 11
13.7464182439
 21
9.4617224632
  0
LINE
  5
237
100
AcDbEntity
  8
0
100
AcDbLine
 62
7
  6
CONTINUOUS
 10
12.8154205798
 20
8.917538538
 11
12.8039889897
 21
8.9109385457
  0
LINE
  5
238
100
AcDbEntity
  8
0
100
AcDbLine
 62
6
  6
CONTINUOUS
 10
11.106567922
 20
7.9183080627
 11
11.6778050295
 21
8.2481099918
  0
LINE
  5
239
100
AcDbEntity
  8
0
100
AcDbLine
 62
6
  6
CONTINUOUS
 10
13.3128722552
 20
9.18950775
 11
12.8179076231
 21
8.9037414923
  0
LINE
  5
23A
100
AcDbEntity
  8
0
100
AcDbLine
 62
7
  6
CONTINUOUS
 10
13.313418901
 20
9.165398428
 11
13.3405122413
 21
9.1810406819
  0
LINE
  5
23B
100
AcDbEntity
  8
0
100
AcDbLine
 62
6
  6
CONTINUOUS
 10
11.7047693387
 20
8.2054571882
 11
11.1339839511
 21
7.8759160581
  0
LINE
  5
23C
100
AcDbEntity
  8
0
100
AcDbLine
 62
7
  6
CONTINUOUS
 10
13.3119867116
 20
9.1955161045
 11
13.3298692209
 21
9.2058343332
  0
LINE
  5
23D
100
AcDbEntity
  8
0
100
AcDbLine
 62
6
  6
CONTINUOUS
 10
11.1611026038
 20
7.7471125988
 11
11.7869601475
 21
7.3857817519
  0
LINE
  5
23E
100
AcDbEntity
  8
0
100
AcDbLine
 62
7
  6
CONTINUOUS
 10
11.7367927894
 20
7.4821404396
 11
11.3584612475
 21
7.7005653158
  0
LINE
  5
23F
100
AcDbEntity
  8
0
100
AcDbLine
 62
6
  6
CONTINUOUS
 10
11.0787315732
 20
7.8705118458
 11
10.135905729
 21
8.4148402864
  0
LINE
  5
240
100
AcDbEntity
  8
0
100
AcDbLine
 62
6
  6
CONTINUOUS
 10
10.1637425795
 20
8.4626362137
 11
11.106567922
 21
7.9183080627
  0
LINE
  5
241
100
AcDbEntity
  8
0
100
AcDbLine
 62
6
  6
CONTINUOUS
 10
11.7047693387
 20
8.2054571882
 11
11.7186313237
 21
8.0981134189
  0
LINE
  5
242
100
AcDbEntity
  8
0
100
AcDbLine
 62
6
  6
CONTINUOUS
 10
11.7407546635
 20
8.100537692
 11
11.7405608617
 21
8.1020384452
  0
LINE
  5
243
100
AcDbEntity
  8
0
100
AcDbLine
 62
6
  6
CONTINUOUS
 10
11.7462578857
 20
8.1008126364
 11
11.7323959116
 21
8.2081563206
  0
LINE
  5
244
100
AcDbEntity
  8
0
100
AcDbLine
 62
6
  6
CONTINUOUS
 10
11.8143761766
 20
7.3433897473
 11
11.8239367366
 21
7.2687286517
  0
LINE
  5
245
100
AcDbEntity
  8
0
100
AcDbLine
 62
6
  6
CONTINUOUS
 10
13.7464182439
 20
9.3009936409
 11
13.6768214095
 21
9.2608121297
  0
LINE
  5
246
100
AcDbEntity
  8
0
100
AcDbLine
 62
6
  6
CONTINUOUS
 10
13.4958696402
 20
9.1563402006
 11
13.4262728058
 21
9.1161586894
  0
LINE
  5
247
100
AcDbEntity
  8
0
100
AcDbLine
 62
7
  6
CONTINUOUS
 10
11.7186313237
 20
8.0981134189
 11
11.1477455499
 21
7.7685143312
  0
LINE
  5
248
100
AcDbEntity
  8
0
100
AcDbLine
 62
6
  6
CONTINUOUS
 10
11.7407546635
 20
8.100537692
 11
11.1504223142
 21
7.7597111856
  0
LINE
  5
249
100
AcDbEntity
  8
0
100
AcDbLine
 62
7
  6
CONTINUOUS
 10
11.1611026038
 20
7.7471125988
 11
11.7323397113
 21
8.076914528
  0
LINE
  5
24A
100
AcDbEntity
  8
0
100
AcDbLine
 62
7
  6
CONTINUOUS
 10
13.3215115864
 20
8.8748302811
 11
13.4050277877
 21
8.9230480946
  0
LINE
  5
24B
100
AcDbEntity
  8
0
100
AcDbLine
 62
6
  6
CONTINUOUS
 10
13.3489276155
 20
8.8811687362
 11
13.4324438168
 21
8.9293865496
  0
LINE
  5
24C
100
AcDbEntity
  8
0
100
AcDbLine
 62
6
  6
CONTINUOUS
 10
13.6629020427
 20
9.0624408742
 11
13.6829924205
 21
9.07403999
  0
LINE
  5
24D
100
AcDbEntity
  8
0
100
AcDbLine
 62
6
  6
CONTINUOUS
 10
11.3584612475
 20
7.7005653158
 11
11.8180787417
 21
7.9659240158
  0
LINE
  5
24E
100
AcDbEntity
  8
0
100
AcDbLine
 62
6
  6
CONTINUOUS
 10
12.5213714208
 20
6.1690370673
 11
12.5266921235
 21
6.0733917817
  0
LINE
  5
24F
100
AcDbEntity
  8
0
100
AcDbLine
 62
7
  6
CONTINUOUS
 10
13.2522792711
 20
9.3457098376
 11
13.2383597883
 21
9.3259070243
  0
LINE
  5
250
100
AcDbEntity
  8
0
100
AcDbLine
 62
7
  6
CONTINUOUS
 10
13.302077557
 20
8.7374549241
 11
12.8179076647
 21
8.4579209751
  0
LINE
  5
251
100
AcDbEntity
  8
0
100
AcDbLine
 62
6
  6
CONTINUOUS
 10
12.8343412423
 20
8.4191764003
 11
13.2157707318
 21
8.6393935042
  0
LINE
  5
252
100
AcDbEntity
  8
0
100
AcDbLine
 62
6
  6
CONTINUOUS
 10
13.8046549901
 20
8.9790284974
 11
13.7211387888
 21
8.9308106839
  0
LINE
  5
253
100
AcDbEntity
  8
0
100
AcDbLine
 62
6
  6
CONTINUOUS
 10
13.5541063864
 20
8.834375057
 11
13.4705901851
 21
8.7861572436
  0
LINE
  5
254
100
AcDbEntity
  8
0
100
AcDbLine
 62
7
  6
CONTINUOUS
 10
12.8403648207
 20
8.4131085839
 11
13.3254199371
 21
8.6931536144
  0
LINE
  5
255
100
AcDbEntity
  8
0
100
AcDbLine
 62
6
  6
CONTINUOUS
 10
13.8272368336
 20
8.9287517075
 11
13.7437206323
 21
8.880533894
  0
LINE
  5
256
100
AcDbEntity
  8
0
100
AcDbLine
 62
6
  6
CONTINUOUS
 10
13.5766882298
 20
8.7840982671
 11
13.4931720286
 21
8.7358804537
  0
LINE
  5
257
100
AcDbEntity
  8
0
100
AcDbLine
 62
6
  6
CONTINUOUS
 10
13.5756830697
 20
8.7780961397
 11
13.6629020427
 21
8.8284517367
  0
LINE
  5
258
100
AcDbEntity
  8
0
100
AcDbLine
 62
7
  6
CONTINUOUS
 10
13.6629020427
 20
8.8284517367
 11
13.672166758
 21
8.8338006906
  0
LINE
  5
259
100
AcDbEntity
  8
0
100
AcDbLine
 62
6
  6
CONTINUOUS
 10
13.5719802182
 20
8.7559852487
 11
13.6674335791
 21
8.8110949434
  0
LINE
  5
25A
100
AcDbEntity
  8
0
100
AcDbLine
 62
6
  6
CONTINUOUS
 10
13.4762523789
 20
8.6348479038
 11
13.4985233659
 21
8.6477059874
  0
LINE
  5
25B
100
AcDbEntity
  8
0
100
AcDbLine
 62
6
  6
CONTINUOUS
 10
13.7880461968
 20
8.814861074
 11
13.8103171838
 21
8.8277191576
  0
LINE
  5
25C
100
AcDbEntity
  8
0
100
AcDbLine
 62
7
  6
CONTINUOUS
 10
13.5432770384
 20
8.6251214938
 11
13.5480668415
 21
8.6266983936
  0
LINE
  5
25D
100
AcDbEntity
  8
0
100
AcDbLine
 62
7
  6
CONTINUOUS
 10
13.584401082
 20
8.5930059731
 11
13.5796112855
 21
8.5914290681
  0
LINE
  5
25E
100
AcDbEntity
  8
0
100
AcDbLine
 62
6
  6
CONTINUOUS
 10
14.252158985
 20
6.512705446
 11
12.6963637547
 21
7.4109239206
  0
LINE
  5
25F
100
AcDbEntity
  8
0
100
AcDbLine
 62
6
  6
CONTINUOUS
 10
12.5566309279
 20
7.4915968806
 11
12.4085057083
 21
7.5771150814
  0
LINE
  5
260
100
AcDbEntity
  8
0
100
AcDbLine
 62
6
  6
CONTINUOUS
 10
14.2732547302
 20
6.5155517962
 11
14.2614685941
 21
6.5223563712
  0
LINE
  5
261
100
AcDbEntity
  8
0
100
AcDbLine
 62
6
  6
CONTINUOUS
 10
12.4224238827
 20
7.6010131898
 11
12.5784164642
 21
7.5109528683
  0
LINE
  5
262
100
AcDbEntity
  8
0
100
AcDbLine
 62
6
  6
CONTINUOUS
 10
12.7024145671
 20
7.4393641498
 11
14.2660771593
 21
6.5366035544
  0
LINE
  5
263
100
AcDbEntity
  8
0
100
AcDbLine
 62
6
  6
CONTINUOUS
 10
11.8180787417
 20
7.9659240158
 11
12.1964102836
 21
7.7474991396
  0
LINE
  5
264
100
AcDbEntity
  8
0
100
AcDbLine
 62
6
  6
CONTINUOUS
 10
12.358197255
 20
7.715583681
 11
11.7323397113
 21
8.076914528
  0
LINE
  5
265
100
AcDbEntity
  8
0
100
AcDbLine
 62
6
  6
CONTINUOUS
 10
11.7462578857
 20
8.1008126364
 11
12.3721168922
 21
7.7394809449
  0
LINE
  5
266
100
AcDbEntity
  8
0
100
AcDbLine
 62
7
  6
CONTINUOUS
 10
12.3851615643
 20
7.6729308774
 11
12.394797414
 21
7.5983132501
  0
LINE
  5
267
100
AcDbEntity
  8
0
100
AcDbLine
 62
6
  6
CONTINUOUS
 10
12.4070893345
 20
7.6768695924
 11
12.4169206164
 21
7.600738587
  0
LINE
  5
268
100
AcDbEntity
  8
0
100
AcDbLine
 62
7
  6
CONTINUOUS
 10
12.4224238827
 20
7.6010131898
 11
12.4127881371
 21
7.6756300099
  0
LINE
  5
269
100
AcDbEntity
  8
0
100
AcDbLine
 62
6
  6
CONTINUOUS
 10
12.7277190331
 20
8.9558097682
 11
12.7277896369
 21
8.9569413168
  0
LINE
  5
26A
100
AcDbEntity
  8
0
100
AcDbLine
 62
7
  6
CONTINUOUS
 10
13.5585052264
 20
9.5107419758
 11
13.5724247092
 21
9.5305447892
  0
LINE
  5
26B
100
AcDbEntity
  8
0
100
AcDbLine
 62
7
  6
CONTINUOUS
 10
13.5048573771
 20
8.6100162335
 11
13.5148067034
 21
8.6157604454
  0
LINE
  5
26C
100
AcDbEntity
  8
0
100
AcDbLine
 62
7
  6
CONTINUOUS
 10
13.7653553071
 20
8.7604138858
 11
13.7820585474
 21
8.7700574485
  0
LINE
  5
26D
100
AcDbEntity
  8
0
100
AcDbLine
 62
6
  6
CONTINUOUS
 10
13.7190662856
 20
8.7333150356
 11
13.5520338831
 21
8.6368794087
  0
LINE
  5
26E
100
AcDbEntity
  8
0
100
AcDbLine
 62
7
  6
CONTINUOUS
 10
13.5196060192
 20
8.6120124549
 11
13.7641467607
 21
8.7531972751
  0
LINE
  5
26F
100
AcDbEntity
  8
0
100
AcDbLine
 62
6
  6
CONTINUOUS
 10
13.8441899491
 20
8.7523039727
 11
13.8219189621
 21
8.7394458891
  0
LINE
  5
270
100
AcDbEntity
  8
0
100
AcDbLine
 62
6
  6
CONTINUOUS
 10
13.5323961311
 20
8.5722908024
 11
13.5101251441
 21
8.5594327189
  0
LINE
  5
271
100
AcDbEntity
  8
0
100
AcDbLine
 62
7
  6
CONTINUOUS
 10
13.5627847543
 20
8.578292338
 11
13.8133333581
 21
8.7229457783
  0
LINE
  5
272
100
AcDbEntity
  8
0
100
AcDbLine
 62
6
  6
CONTINUOUS
 10
12.1964102836
 20
7.7474991396
 11
11.7367927894
 21
7.4821404396
  0
LINE
  5
273
100
AcDbEntity
  8
0
100
AcDbLine
 62
7
  6
CONTINUOUS
 10
13.1028071202
 20
8.2642939539
 11
13.4912622561
 21
8.4885672925
  0
LINE
  5
274
100
AcDbEntity
  8
0
100
AcDbLine
 62
7
  6
CONTINUOUS
 10
13.5619533184
 20
8.4335402069
 11
13.1731716145
 21
8.2090783254
  0
LINE
  5
275
100
AcDbEntity
  8
0
100
AcDbLine
 62
6
  6
CONTINUOUS
 10
11.7869601475
 20
7.3857817519
 11
12.358197255
 21
7.715583681
  0
LINE
  5
276
100
AcDbEntity
  8
0
100
AcDbLine
 62
6
  6
CONTINUOUS
 10
11.6778050295
 20
8.2481099918
 11
10.7071426046
 21
8.8085095262
  0
LINE
  5
277
100
AcDbEntity
  8
0
100
AcDbLine
 62
6
  6
CONTINUOUS
 10
10.721060779
 20
8.8324076347
 11
11.6917246667
 21
8.2720072558
  0
LINE
  5
278
100
AcDbEntity
  8
0
100
AcDbLine
 62
6
  6
CONTINUOUS
 10
14.8222179011
 20
6.5211256968
 11
14.8359735827
 21
6.51318403
  0
LINE
  5
279
100
AcDbEntity
  8
0
100
AcDbLine
 62
6
  6
CONTINUOUS
 10
12.7900711585
 20
8.9037411143
 11
12.7900712001
 21
8.4579208273
  0
LINE
  5
27A
100
AcDbEntity
  8
0
100
AcDbLine
 62
6
  6
CONTINUOUS
 10
12.8039889907
 20
8.9005011532
 11
12.8039889897
 21
8.9109385457
  0
LINE
  5
27B
100
AcDbEntity
  8
0
100
AcDbLine
 62
6
  6
CONTINUOUS
 10
12.8179076647
 20
8.4579209751
 11
12.8179076231
 21
8.9037414923
  0
LINE
  5
27C
100
AcDbEntity
  8
0
100
AcDbLine
 62
7
  6
CONTINUOUS
 10
13.5402371976
 20
8.6221779736
 11
13.5432770384
 21
8.6251214938
  0
LINE
  5
27D
100
AcDbEntity
  8
0
100
AcDbLine
 62
7
  6
CONTINUOUS
 10
13.5874409293
 20
8.5959494881
 11
13.584401082
 21
8.5930059731
  0
LINE
  5
27E
100
AcDbEntity
  8
0
100
AcDbLine
 62
6
  6
CONTINUOUS
 10
12.3851615643
 20
7.6729308774
 11
11.8143761766
 21
7.3433897473
  0
LINE
  5
27F
100
AcDbEntity
  8
0
100
AcDbLine
 62
6
  6
CONTINUOUS
 10
11.8239367366
 20
7.2687286517
 11
12.394797414
 21
7.5983132501
  0
LINE
  5
280
100
AcDbEntity
  8
0
100
AcDbLine
 62
6
  6
CONTINUOUS
 10
12.4169206605
 20
7.6007382454
 11
12.3977119086
 21
7.5896481335
  0
LINE
  5
281
100
AcDbEntity
  8
0
100
AcDbLine
 62
6
  6
CONTINUOUS
 10
12.4085057083
 20
7.5771150814
 11
11.8372686008
 21
7.2473131522
  0
LINE
  5
282
100
AcDbEntity
  8
0
100
AcDbLine
 62
7
  6
CONTINUOUS
 10
15.0260760938
 20
6.671839761
 11
15.030950156
 21
6.6690257835
  0
LINE
  5
283
100
AcDbEntity
  8
0
100
AcDbLine
 62
6
  6
CONTINUOUS
 10
13.1896415986
 20
9.4135035122
 11
13.1896415986
 21
9.3009933366
  0
LINE
  5
284
100
AcDbEntity
  8
0
100
AcDbLine
 62
7
  6
CONTINUOUS
 10
13.9126110745
 20
8.160582442
 11
13.5222094549
 21
7.9351853072
  0
LINE
  5
285
100
AcDbEntity
  8
0
100
AcDbLine
 62
7
  6
CONTINUOUS
 10
14.7623903617
 20
6.8764254124
 11
14.7508570278
 21
6.8854322851
  0
LINE
  5
286
100
AcDbEntity
  8
0
100
AcDbLine
 62
6
  6
CONTINUOUS
 10
12.8240213464
 20
8.3908565521
 11
14.369008729
 21
7.1784915633
  0
LINE
  5
287
100
AcDbEntity
  8
0
100
AcDbLine
 62
6
  6
CONTINUOUS
 10
14.3853506372
 20
7.2007448241
 11
12.8403648207
 21
8.4131085839
  0
LINE
  5
288
100
AcDbEntity
  8
0
100
AcDbLine
 62
6
  6
CONTINUOUS
 10
13.220561922
 20
8.6326141725
 11
13.2205068751
 21
8.6350419676
  0
LINE
  5
289
100
AcDbEntity
  8
0
100
AcDbLine
 62
6
  6
CONTINUOUS
 10
13.2199879509
 20
8.6900607509
 11
13.2212350519
 21
8.635058478
  0
LINE
  5
28A
100
AcDbEntity
  8
0
100
AcDbLine
 62
7
  6
CONTINUOUS
 10
13.3033706654
 20
8.6804235374
 11
13.302077557
 21
8.7374549241
  0
LINE
  5
28B
100
AcDbEntity
  8
0
100
AcDbLine
 62
7
  6
CONTINUOUS
 10
13.3128722552
 20
9.18950775
 11
13.313418901
 21
9.165398428
  0
LINE
  5
28C
100
AcDbEntity
  8
0
100
AcDbLine
 62
7
  6
CONTINUOUS
 10
13.2300080986
 20
9.3982348708
 11
13.2300080986
 21
9.3741255475
  0
LINE
  5
28D
100
AcDbEntity
  8
0
100
AcDbLine
 62
7
  6
CONTINUOUS
 10
13.2383597883
 20
9.3259070243
 11
13.2383597883
 21
9.3130487185
  0
LINE
  5
28E
100
AcDbEntity
  8
0
100
AcDbLine
 62
7
  6
CONTINUOUS
 10
13.2522792711
 20
9.3532311299
 11
13.2522792711
 21
9.3457098376
  0
LINE
  5
28F
100
AcDbEntity
  8
0
100
AcDbLine
 62
7
  6
CONTINUOUS
 10
13.287077978
 20
9.2849218949
 11
13.287077978
 21
9.3276757616
  0
LINE
  5
290
100
AcDbEntity
  8
0
100
AcDbLine
 62
7
  6
CONTINUOUS
 10
13.3215115864
 20
8.6908971405
 11
13.3215115864
 21
8.7034649287
  0
LINE
  5
291
100
AcDbEntity
  8
0
100
AcDbLine
 62
7
  6
CONTINUOUS
 10
13.3215115864
 20
8.8079182557
 11
13.3215115864
 21
8.8748302811
  0
LINE
  5
292
100
AcDbEntity
  8
0
100
AcDbLine
 62
7
  6
CONTINUOUS
 10
13.3288364264
 20
9.3035670556
 11
13.3288364264
 21
9.2608131889
  0
LINE
  5
293
100
AcDbEntity
  8
0
100
AcDbLine
 62
7
  6
CONTINUOUS
 10
13.3636351333
 20
9.281419955
 11
13.3636351333
 21
9.2889412473
  0
LINE
  5
294
100
AcDbEntity
  8
0
100
AcDbLine
 62
7
  6
CONTINUOUS
 10
13.3775546161
 20
9.2326863652
 11
13.3775546161
 21
9.245544671
  0
LINE
  5
295
100
AcDbEntity
  8
0
100
AcDbLine
 62
7
  6
CONTINUOUS
 10
13.3859063058
 20
9.2841197118
 11
13.3859063058
 21
9.3082290352
  0
LINE
  5
296
100
AcDbEntity
  8
0
100
AcDbLine
 62
7
  6
CONTINUOUS
 10
13.4050277877
 20
8.6627020801
 11
13.4050277877
 21
8.6563224233
  0
LINE
  5
297
100
AcDbEntity
  8
0
100
AcDbLine
 62
7
  6
CONTINUOUS
 10
13.4262721104
 20
8.9279596806
 11
13.4262721104
 21
9.1161586894
  0
LINE
  5
298
100
AcDbEntity
  8
0
100
AcDbLine
 62
6
  6
CONTINUOUS
 10
13.4262728058
 20
9.1161586894
 11
13.4262728058
 21
9.2768875116
  0
LINE
  5
299
100
AcDbEntity
  8
0
100
AcDbLine
 62
7
  6
CONTINUOUS
 10
13.539599783
 20
8.61824454
 11
13.5402371976
 21
8.6221779736
  0
LINE
  5
29A
100
AcDbEntity
  8
0
100
AcDbLine
 62
6
  6
CONTINUOUS
 10
13.4931720286
 20
8.7358804537
 11
13.4762523789
 21
8.6348479038
  0
LINE
  5
29B
100
AcDbEntity
  8
0
100
AcDbLine
 62
6
  6
CONTINUOUS
 10
13.5520338831
 20
8.6368794087
 11
13.5766882298
 21
8.7840982671
  0
LINE
  5
29C
100
AcDbEntity
  8
0
100
AcDbLine
 62
6
  6
CONTINUOUS
 10
11.532678145
 20
6.6472730368
 11
11.6128502471
 21
6.6935601452
  0
LINE
  5
29D
100
AcDbEntity
  8
0
100
AcDbLine
 62
6
  6
CONTINUOUS
 10
11.6750702354
 20
6.6576382309
 11
11.4827451119
 21
6.5465999319
  0
LINE
  5
29E
100
AcDbEntity
  8
0
100
AcDbLine
 62
7
  6
CONTINUOUS
 10
13.3215115864
 20
8.7034649287
 11
13.3295741401
 21
8.7053289526
  0
LINE
  5
29F
100
AcDbEntity
  8
0
100
AcDbLine
 62
7
  6
CONTINUOUS
 10
13.5796112855
 20
8.5914290681
 11
13.5737239903
 21
8.5915954902
  0
LINE
  5
2A0
100
AcDbEntity
  8
0
100
AcDbLine
 62
7
  6
CONTINUOUS
 10
13.5480668415
 20
8.6266983936
 11
13.5539541301
 21
8.6265319767
  0
LINE
  5
2A1
100
AcDbEntity
  8
0
100
AcDbLine
 62
7
  6
CONTINUOUS
 10
14.8441694446
 20
7.3340804603
 11
14.8557706931
 21
7.3277288182
  0
LINE
  5
2A2
100
AcDbEntity
  8
0
100
AcDbLine
 62
6
  6
CONTINUOUS
 10
14.8200829163
 20
6.9195033291
 11
14.8279429321
 21
6.9133651074
  0
LINE
  5
2A3
100
AcDbEntity
  8
0
100
AcDbLine
 62
7
  6
CONTINUOUS
 10
14.3739450284
 20
7.2668210211
 11
14.3036086762
 21
7.3220145662
  0
LINE
  5
2A4
100
AcDbEntity
  8
0
100
AcDbLine
 62
7
  6
CONTINUOUS
 10
14.2202851355
 20
7.3873992707
 11
14.1499206412
 21
7.4426148992
  0
LINE
  5
2A5
100
AcDbEntity
  8
0
100
AcDbLine
 62
7
  6
CONTINUOUS
 10
14.0249353302
 20
7.5406919559
 11
13.9545708359
 21
7.5959075844
  0
LINE
  5
2A6
100
AcDbEntity
  8
0
100
AcDbLine
 62
7
  6
CONTINUOUS
 10
13.8712472952
 20
7.6612922889
 11
13.8008828009
 21
7.7165079174
  0
LINE
  5
2A7
100
AcDbEntity
  8
0
100
AcDbLine
 62
7
  6
CONTINUOUS
 10
13.6758974899
 20
7.8145849742
 11
13.6055329955
 21
7.8698006027
  0
LINE
  5
2A8
100
AcDbEntity
  8
0
100
AcDbLine
 62
7
  6
CONTINUOUS
 10
13.5222094549
 20
7.9351853072
 11
13.4518449605
 21
7.9904009357
  0
LINE
  5
2A9
100
AcDbEntity
  8
0
100
AcDbLine
 62
7
  6
CONTINUOUS
 10
13.3268596495
 20
8.0884779924
 11
13.2564951552
 21
8.1436936209
  0
LINE
  5
2AA
100
AcDbEntity
  8
0
100
AcDbLine
 62
7
  6
CONTINUOUS
 10
13.1731716145
 20
8.2090783254
 11
13.1028071202
 21
8.2642939539
  0
LINE
  5
2AB
100
AcDbEntity
  8
0
100
AcDbLine
 62
7
  6
CONTINUOUS
 10
13.4865538445
 20
9.458504557
 11
13.4863961487
 21
9.4723236332
  0
LINE
  5
2AC
100
AcDbEntity
  8
0
100
AcDbLine
 62
6
  6
CONTINUOUS
 10
13.4710605448
 20
9.463469671
 11
13.4710605448
 21
9.5374057347
  0
LINE
  5
2AD
100
AcDbEntity
  8
0
100
AcDbLine
 62
6
  6
CONTINUOUS
 10
13.5097870367
 20
9.5597643518
 11
13.5097870367
 21
9.4858282881
  0
LINE
  5
2AE
100
AcDbEntity
  8
0
100
AcDbLine
 62
6
  6
CONTINUOUS
 10
13.5097890071
 20
8.8689843898
 11
13.5097890071
 21
9.1483036206
  0
LINE
  5
2AF
100
AcDbEntity
  8
0
100
AcDbLine
 62
7
  6
CONTINUOUS
 10
13.5501535367
 20
9.558960499
 11
13.5501535367
 21
9.5830698224
  0
LINE
  5
2B0
100
AcDbEntity
  8
0
100
AcDbLine
 62
7
  6
CONTINUOUS
 10
13.5585052264
 20
9.4978836701
 11
13.5585052264
 21
9.5107419758
  0
LINE
  5
2B1
100
AcDbEntity
  8
0
100
AcDbLine
 62
7
  6
CONTINUOUS
 10
13.5724247092
 20
9.5305447892
 11
13.5724247092
 21
9.5380660814
  0
LINE
  5
2B2
100
AcDbEntity
  8
0
100
AcDbLine
 62
7
  6
CONTINUOUS
 10
13.6072234161
 20
9.4752223652
 11
13.6072234161
 21
9.4697568464
  0
LINE
  5
2B3
100
AcDbEntity
  8
0
100
AcDbLine
 62
6
  6
CONTINUOUS
 10
13.6252489481
 20
6.151178502
 11
13.625248917
 21
5.3096527668
  0
LINE
  5
2B4
100
AcDbEntity
  8
0
100
AcDbLine
 62
7
  6
CONTINUOUS
 10
13.6489818645
 20
9.4601150121
 11
13.6489818645
 21
9.4884020072
  0
LINE
  5
2B5
100
AcDbEntity
  8
0
100
AcDbLine
 62
7
  6
CONTINUOUS
 10
13.6555763914
 20
8.8042492337
 11
13.6555763914
 21
8.8009998858
  0
LINE
  5
2B6
100
AcDbEntity
  8
0
100
AcDbLine
 62
6
  6
CONTINUOUS
 10
13.6629020427
 20
9.2367029452
 11
13.6629020427
 21
8.8284517367
  0
LINE
  5
2B7
100
AcDbEntity
  8
0
100
AcDbLine
 62
7
  6
CONTINUOUS
 10
13.5880783374
 20
8.5998829269
 11
13.5874409293
 21
8.5959494881
  0
LINE
  5
2B8
100
AcDbEntity
  8
0
100
AcDbLine
 62
7
  6
CONTINUOUS
 10
13.5968372688
 20
8.5290114404
 11
13.595793844
 21
8.5227808229
  0
LINE
  5
2B9
100
AcDbEntity
  8
0
100
AcDbLine
 62
7
  6
CONTINUOUS
 10
13.6180325157
 20
8.5054136952
 11
13.6190759404
 21
8.5116443127
  0
LINE
  5
2BA
100
AcDbEntity
  8
0
100
AcDbLine
 62
6
  6
CONTINUOUS
 10
13.7437206323
 20
8.880533894
 11
13.7190662856
 21
8.7333150356
  0
LINE
  5
2BB
100
AcDbEntity
  8
0
100
AcDbLine
 62
7
  6
CONTINUOUS
 10
13.7080306269
 20
8.4421758018
 11
13.7069872022
 21
8.4359451843
  0
LINE
  5
2BC
100
AcDbEntity
  8
0
100
AcDbLine
 62
7
  6
CONTINUOUS
 10
13.7880461968
 20
8.814861074
 11
13.7803808422
 21
8.7690888307
  0
LINE
  5
2BD
100
AcDbEntity
  8
0
100
AcDbLine
 62
7
  6
CONTINUOUS
 10
13.7773582935
 20
8.7510402415
 11
13.7761497471
 21
8.7438236308
  0
LINE
  5
2BE
100
AcDbEntity
  8
0
100
AcDbLine
 62
6
  6
CONTINUOUS
 10
13.8103171838
 20
8.8277191576
 11
13.8272368336
 21
8.9287517075
  0
LINE
  5
2BF
100
AcDbEntity
  8
0
100
AcDbLine
 62
6
  6
CONTINUOUS
 10
13.3215115864
 20
8.8748302811
 11
13.3489276155
 21
8.8811687362
  0
LINE
  5
2C0
100
AcDbEntity
  8
0
100
AcDbLine
 62
7
  6
CONTINUOUS
 10
13.4050277877
 20
8.9230480946
 11
13.4324438168
 21
8.9293865496
  0
LINE
  5
2C1
100
AcDbEntity
  8
0
100
AcDbLine
 62
6
  6
CONTINUOUS
 10
13.6829924205
 20
9.07403999
 11
13.6629020427
 21
9.0693951905
  0
LINE
  5
2C2
100
AcDbEntity
  8
0
100
AcDbLine
 62
7
  6
CONTINUOUS
 10
13.5737239903
 20
8.5915954902
 11
13.5691416423
 21
8.5925153106
  0
LINE
  5
2C3
100
AcDbEntity
  8
0
100
AcDbLine
 62
7
  6
CONTINUOUS
 10
13.5539541301
 20
8.6265319767
 11
13.5585364846
 21
8.6256121512
  0
LINE
  5
2C4
100
AcDbEntity
  8
0
100
AcDbLine
 62
7
  6
CONTINUOUS
 10
13.5691416423
 20
8.5925153106
 11
13.5643367835
 21
8.5944951427
  0
LINE
  5
2C5
100
AcDbEntity
  8
0
100
AcDbLine
 62
7
  6
CONTINUOUS
 10
13.5585364846
 20
8.6256121512
 11
13.5633413435
 21
8.6236323191
  0
LINE
  5
2C6
100
AcDbEntity
  8
0
100
AcDbLine
 62
7
  6
CONTINUOUS
 10
13.5643367835
 20
8.5944951427
 11
13.5610593761
 21
8.5961683664
  0
LINE
  5
2C7
100
AcDbEntity
  8
0
100
AcDbLine
 62
7
  6
CONTINUOUS
 10
12.8039889897
 20
8.9109385457
 11
12.7799240158
 21
8.9248321505
  0
LINE
  5
2C8
100
AcDbEntity
  8
0
100
AcDbLine
 62
6
  6
CONTINUOUS
 10
12.7763331119
 20
8.9277430516
 11
12.7277190331
 21
8.9558097682
  0
LINE
  5
2C9
100
AcDbEntity
  8
0
100
AcDbLine
 62
6
  6
CONTINUOUS
 10
12.5873778635
 20
9.0368339472
 11
10.9291892736
 21
9.9941679181
  0
LINE
  5
2CA
100
AcDbEntity
  8
0
100
AcDbLine
 62
7
  6
CONTINUOUS
 10
12.7898881244
 20
8.9510130883
 11
12.7948359361
 21
8.9481565325
  0
LINE
  5
2CB
100
AcDbEntity
  8
0
100
AcDbLine
 62
6
  6
CONTINUOUS
 10
12.7476331277
 20
8.9762462088
 11
12.790250872
 21
8.9516413993
  0
LINE
  5
2CC
100
AcDbEntity
  8
0
100
AcDbLine
 62
6
  6
CONTINUOUS
 10
10.9412764655
 20
10.0191249132
 11
12.5953355888
 21
9.0641750369
  0
LINE
  5
2CD
100
AcDbEntity
  8
0
100
AcDbLine
 62
6
  6
CONTINUOUS
 10
13.2205068751
 20
8.6350419676
 11
13.2223210386
 21
8.6336297929
  0
LINE
  5
2CE
100
AcDbEntity
  8
0
100
AcDbLine
 62
7
  6
CONTINUOUS
 10
13.4912622561
 20
8.4885672925
 11
13.5619533184
 21
8.4335402069
  0
LINE
  5
2CF
100
AcDbEntity
  8
0
100
AcDbLine
 62
7
  6
CONTINUOUS
 10
13.645663571
 20
8.3683787694
 11
13.7163546333
 21
8.3133516838
  0
LINE
  5
2D0
100
AcDbEntity
  8
0
100
AcDbLine
 62
7
  6
CONTINUOUS
 10
13.8419200123
 20
8.2156095275
 11
13.9126110745
 21
8.160582442
  0
LINE
  5
2D1
100
AcDbEntity
  8
0
100
AcDbLine
 62
7
  6
CONTINUOUS
 10
13.9963213272
 20
8.0954210044
 11
14.0670123895
 21
8.0403939189
  0
LINE
  5
2D2
100
AcDbEntity
  8
0
100
AcDbLine
 62
7
  6
CONTINUOUS
 10
14.1925777685
 20
7.9426517625
 11
14.2632688307
 21
7.887624677
  0
LINE
  5
2D3
100
AcDbEntity
  8
0
100
AcDbLine
 62
7
  6
CONTINUOUS
 10
14.3469790834
 20
7.8224632394
 11
14.4176701456
 21
7.7674361539
  0
LINE
  5
2D4
100
AcDbEntity
  8
0
100
AcDbLine
 62
7
  6
CONTINUOUS
 10
14.5432355247
 20
7.6696939976
 11
14.6139265869
 21
7.614666912
  0
LINE
  5
2D5
100
AcDbEntity
  8
0
100
AcDbLine
 62
7
  6
CONTINUOUS
 10
14.6976368396
 20
7.5495054745
 11
14.7682996291
 21
7.4945003969
  0
LINE
  5
2D6
100
AcDbEntity
  8
0
100
AcDbLine
 62
7
  6
CONTINUOUS
 10
15.0458563388
 20
6.654591673
 11
15.0260760938
 21
6.6743714451
  0
LINE
  5
2D7
100
AcDbEntity
  8
0
100
AcDbLine
 62
7
  6
CONTINUOUS
 10
13.3271570473
 20
8.7953490582
 11
13.3215115864
 21
8.8079182557
  0
LINE
  5
2D8
100
AcDbEntity
  8
0
100
AcDbLine
 62
7
  6
CONTINUOUS
 10
13.4484429813
 20
8.9168921193
 11
13.4541006881
 21
8.8935672448
  0
LINE
  5
2D9
100
AcDbEntity
  8
0
100
AcDbLine
 62
7
  6
CONTINUOUS
 10
13.5402673156
 20
8.6150645045
 11
13.539599783
 21
8.61824454
  0
LINE
  5
2DA
100
AcDbEntity
  8
0
100
AcDbLine
 62
6
  6
CONTINUOUS
 10
13.7365947755
 20
5.3096530344
 11
13.7365948069
 21
6.1511786614
  0
LINE
  5
2DB
100
AcDbEntity
  8
0
100
AcDbLine
 62
6
  6
CONTINUOUS
 10
13.7464182439
 20
9.4617224632
 11
13.7464182439
 21
9.3009936409
  0
LINE
  5
2DC
100
AcDbEntity
  8
0
100
AcDbLine
 62
7
  6
CONTINUOUS
 10
13.4541006881
 20
8.8935672448
 11
13.4875971286
 21
8.8863149747
  0
LINE
  5
2DD
100
AcDbEntity
  8
0
100
AcDbLine
 62
7
  6
CONTINUOUS
 10
13.5633413435
 20
8.6236323191
 11
13.5666187508
 21
8.6219590954
  0
LINE
  5
2DE
100
AcDbEntity
  8
0
100
AcDbLine
 62
7
  6
CONTINUOUS
 10
13.5610593761
 20
8.5961683664
 11
13.5560320065
 21
8.5992082103
  0
LINE
  5
2DF
100
AcDbEntity
  8
0
100
AcDbLine
 62
7
  6
CONTINUOUS
 10
13.5666187508
 20
8.6219590954
 11
13.5716461205
 21
8.6189192515
  0
LINE
  5
2E0
100
AcDbEntity
  8
0
100
AcDbLine
 62
7
  6
CONTINUOUS
 10
13.3254199371
 20
8.6931536144
 11
14.8775761711
 21
7.4849296722
  0
LINE
  5
2E1
100
AcDbEntity
  8
0
100
AcDbLine
 62
6
  6
CONTINUOUS
 10
14.8918930115
 20
7.4803512238
 11
13.5101251441
 21
8.5594327189
  0
LINE
  5
2E2
100
AcDbEntity
  8
0
100
AcDbLine
 62
7
  6
CONTINUOUS
 10
13.3295741401
 20
8.7053289526
 11
13.3474842352
 21
8.691342195
  0
LINE
  5
2E3
100
AcDbEntity
  8
0
100
AcDbLine
 62
7
  6
CONTINUOUS
 10
13.5323961311
 20
8.5722908024
 11
14.9059391898
 21
7.4996324115
  0
LINE
  5
2E4
100
AcDbEntity
  8
0
100
AcDbLine
 62
7
  6
CONTINUOUS
 10
14.9064648788
 20
7.506267351
 11
13.513067922
 21
8.5944304981
  0
LINE
  5
2E5
100
AcDbEntity
  8
0
100
AcDbLine
 62
7
  6
CONTINUOUS
 10
13.5148067034
 20
8.6157604454
 11
13.5627847543
 21
8.578292338
  0
LINE
  5
2E6
100
AcDbEntity
  8
0
100
AcDbLine
 62
7
  6
CONTINUOUS
 10
13.5560320065
 20
8.5992082103
 11
13.5481571889
 21
8.6053579914
  0
LINE
  5
2E7
100
AcDbEntity
  8
0
100
AcDbLine
 62
7
  6
CONTINUOUS
 10
13.3605365365
 20
8.7692815906
 11
13.3271570473
 21
8.7953490582
  0
LINE
  5
2E8
100
AcDbEntity
  8
0
100
AcDbLine
 62
7
  6
CONTINUOUS
 10
13.5716461205
 20
8.6189192515
 11
13.5795209381
 21
8.6127694704
  0
LINE
  5
2E9
100
AcDbEntity
  8
0
100
AcDbLine
 62
6
  6
CONTINUOUS
 10
13.4705901851
 20
8.7861572436
 11
13.3489276155
 21
8.8811687362
  0
LINE
  5
2EA
100
AcDbEntity
  8
0
100
AcDbLine
 62
7
  6
CONTINUOUS
 10
13.5481571889
 20
8.6053579914
 11
13.5444347598
 21
8.6091512387
  0
LINE
  5
2EB
100
AcDbEntity
  8
0
100
AcDbLine
 62
7
  6
CONTINUOUS
 10
13.5795209381
 20
8.6127694704
 11
13.5832433671
 21
8.6089762231
  0
LINE
  5
2EC
100
AcDbEntity
  8
0
100
AcDbLine
 62
7
  6
CONTINUOUS
 10
13.5444347598
 20
8.6091512387
 11
13.5424622931
 21
8.6115778657
  0
LINE
  5
2ED
100
AcDbEntity
  8
0
100
AcDbLine
 62
7
  6
CONTINUOUS
 10
13.5832433671
 20
8.6089762231
 11
13.5852158338
 21
8.6065495961
  0
LINE
  5
2EE
100
AcDbEntity
  8
0
100
AcDbLine
 62
7
  6
CONTINUOUS
 10
13.5424622931
 20
8.6115778657
 11
13.5402673156
 21
8.6150645045
  0
LINE
  5
2EF
100
AcDbEntity
  8
0
100
AcDbLine
 62
7
  6
CONTINUOUS
 10
13.5852158338
 20
8.6065495961
 11
13.5874108113
 21
8.6030629573
  0
LINE
  5
2F0
100
AcDbEntity
  8
0
100
AcDbLine
 62
6
  6
CONTINUOUS
 10
13.2230483572
 20
9.4102894296
 11
13.2300080986
 21
9.3982348708
  0
LINE
  5
2F1
100
AcDbEntity
  8
0
100
AcDbLine
 62
6
  6
CONTINUOUS
 10
13.4705901851
 20
8.7861572436
 11
13.4931720286
 21
8.7358804537
  0
LINE
  5
2F2
100
AcDbEntity
  8
0
100
AcDbLine
 62
6
  6
CONTINUOUS
 10
13.5766882298
 20
8.7840982671
 11
13.5541063864
 21
8.834375057
  0
LINE
  5
2F3
100
AcDbEntity
  8
0
100
AcDbLine
 62
7
  6
CONTINUOUS
 10
13.3775546161
 20
9.245544671
 11
13.3636351333
 21
9.281419955
  0
LINE
  5
2F4
100
AcDbEntity
  8
0
100
AcDbLine
 62
7
  6
CONTINUOUS
 10
13.5874108113
 20
8.6030629573
 11
13.5880783374
 21
8.5998829269
  0
LINE
  5
2F5
100
AcDbEntity
  8
0
100
AcDbLine
 62
7
  6
CONTINUOUS
 10
15.1904199631
 20
7.6702079167
 11
14.9064648788
 21
7.506267351
  0
LINE
  5
2F6
100
AcDbEntity
  8
0
100
AcDbLine
 62
6
  6
CONTINUOUS
 10
14.3853506372
 20
7.2007448241
 11
14.8775761711
 21
7.4849296722
  0
LINE
  5
2F7
100
AcDbEntity
  8
0
100
AcDbLine
 62
7
  6
CONTINUOUS
 10
14.9059391898
 20
7.4996324115
 11
15.1954620208
 21
7.6667874982
  0
LINE
  5
2F8
100
AcDbEntity
  8
0
100
AcDbLine
 62
6
  6
CONTINUOUS
 10
14.8918930115
 20
7.4803512238
 11
15.2259578165
 21
7.6732224776
  0
LINE
  5
2F9
100
AcDbEntity
  8
0
100
AcDbLine
 62
6
  6
CONTINUOUS
 10
13.3427559091
 20
9.1643761013
 11
13.4262728058
 21
9.1161586894
  0
LINE
  5
2FA
100
AcDbEntity
  8
0
100
AcDbLine
 62
7
  6
CONTINUOUS
 10
13.172851508
 20
9.3016566345
 11
13.2846760159
 21
9.2370961853
  0
LINE
  5
2FB
100
AcDbEntity
  8
0
100
AcDbLine
 62
7
  6
CONTINUOUS
 10
13.3009974608
 20
9.236703454
 11
13.2846897723
 21
9.2461184893
  0
LINE
  5
2FC
100
AcDbEntity
  8
0
100
AcDbLine
 62
7
  6
CONTINUOUS
 10
13.495869462
 20
9.1563398919
 11
13.5097890071
 21
9.1483036206
  0
LINE
  5
2FD
100
AcDbEntity
  8
0
100
AcDbLine
 62
7
  6
CONTINUOUS
 10
13.2383597883
 20
9.3130487185
 11
13.287077978
 21
9.2849218949
  0
LINE
  5
2FE
100
AcDbEntity
  8
0
100
AcDbLine
 62
7
  6
CONTINUOUS
 10
13.3288364264
 20
9.2608131889
 11
13.3775546161
 21
9.2326863652
  0
LINE
  5
2FF
100
AcDbEntity
  8
0
100
AcDbLine
 62
7
  6
CONTINUOUS
 10
13.4324438168
 20
8.9293865496
 11
13.4484429813
 21
8.9168921193
  0
LINE
  5
300
100
AcDbEntity
  8
0
100
AcDbLine
 62
6
  6
CONTINUOUS
 10
13.4875971286
 20
8.8863149747
 11
13.5541063864
 21
8.834375057
  0
LINE
  5
301
100
AcDbEntity
  8
0
100
AcDbLine
 62
6
  6
CONTINUOUS
 10
13.6395598011
 20
8.7954050423
 11
13.7190662856
 21
8.7333150356
  0
LINE
  5
302
100
AcDbEntity
  8
0
100
AcDbLine
 62
7
  6
CONTINUOUS
 10
13.7641467607
 20
8.7531972751
 11
13.8073254958
 21
8.7194771581
  0
LINE
  5
303
100
AcDbEntity
  8
0
100
AcDbLine
 62
7
  6
CONTINUOUS
 10
13.8133333581
 20
8.7229457783
 11
13.7653553071
 21
8.7604138858
  0
LINE
  5
304
100
AcDbEntity
  8
0
100
AcDbLine
 62
7
  6
CONTINUOUS
 10
13.7820585474
 20
8.7700574485
 11
15.1904199631
 21
7.6702079167
  0
LINE
  5
305
100
AcDbEntity
  8
0
100
AcDbLine
 62
7
  6
CONTINUOUS
 10
15.1954620208
 20
7.6667874982
 11
15.1906708255
 21
7.670529147
  0
LINE
  5
306
100
AcDbEntity
  8
0
100
AcDbLine
 62
6
  6
CONTINUOUS
 10
15.2259578165
 20
7.6732224776
 11
13.8441899491
 21
8.7523039727
  0
LINE
  5
307
100
AcDbEntity
  8
0
100
AcDbLine
 62
6
  6
CONTINUOUS
 10
13.7211387888
 20
8.9308106839
 11
13.6629020427
 21
8.9762902443
  0
LINE
  5
308
100
AcDbEntity
  8
0
100
AcDbLine
 62
7
  6
CONTINUOUS
 10
13.2031869273
 20
9.2841428682
 11
13.1896415986
 21
9.3009933366
  0
LINE
  5
309
100
AcDbEntity
  8
0
100
AcDbLine
 62
7
  6
CONTINUOUS
 10
13.3241038022
 20
9.3117641556
 11
13.3288364264
 21
9.3035670556
  0
LINE
  5
30A
100
AcDbEntity
  8
0
100
AcDbLine
 62
6
  6
CONTINUOUS
 10
13.412353323
 20
9.3009966292
 11
13.4262728058
 21
9.2768875116
  0
LINE
  5
30B
100
AcDbEntity
  8
0
100
AcDbLine
 62
6
  6
CONTINUOUS
 10
13.7211387888
 20
8.9308106839
 11
13.7437206323
 21
8.880533894
  0
LINE
  5
30C
100
AcDbEntity
  8
0
100
AcDbLine
 62
6
  6
CONTINUOUS
 10
13.8272368336
 20
8.9287517075
 11
13.8046549901
 21
8.9790284974
  0
LINE
  5
30D
100
AcDbEntity
  8
0
100
AcDbLine
 62
7
  6
CONTINUOUS
 10
14.3451385877
 20
6.6102017807
 11
14.3456884799
 21
6.5613794957
  0
LINE
  5
30E
100
AcDbEntity
  8
0
100
AcDbLine
 62
6
  6
CONTINUOUS
 10
14.2794559513
 20
6.589883271
 11
14.2794559572
 21
6.5262930029
  0
LINE
  5
30F
100
AcDbEntity
  8
0
100
AcDbLine
 62
7
  6
CONTINUOUS
 10
14.3451409923
 20
6.6576515086
 11
14.3451409923
 21
6.610203169
  0
LINE
  5
310
100
AcDbEntity
  8
0
100
AcDbLine
 62
6
  6
CONTINUOUS
 10
14.3072924261
 20
6.4806691186
 11
14.3073094292
 21
6.5883612363
  0
LINE
  5
311
100
AcDbEntity
  8
0
100
AcDbLine
 62
6
  6
CONTINUOUS
 10
14.4048506526
 20
7.1727689051
 11
14.3800355488
 21
7.1584419837
  0
LINE
  5
312
100
AcDbEntity
  8
0
100
AcDbLine
 62
6
  6
CONTINUOUS
 10
14.9005660526
 20
7.4349076238
 11
14.4077073052
 21
7.1503571919
  0
LINE
  5
313
100
AcDbEntity
  8
0
100
AcDbLine
 62
6
  6
CONTINUOUS
 10
15.24853966
 20
7.6229456877
 11
14.914474855
 21
7.4300744339
  0
LINE
  5
314
100
AcDbEntity
  8
0
100
AcDbLine
 62
6
  6
CONTINUOUS
 10
14.4248427621
 20
7.0922022872
 11
14.8443445677
 21
7.3344003218
  0
LINE
  5
315
100
AcDbEntity
  8
0
100
AcDbLine
 62
6
  6
CONTINUOUS
 10
10.7452280896
 20
10.0429140713
 11
10.9291892736
 21
9.9941679181
  0
LINE
  5
316
100
AcDbEntity
  8
0
100
AcDbLine
 62
6
  6
CONTINUOUS
 10
10.7555437661
 20
10.0683444061
 11
10.9412780177
 21
10.0191258094
  0
LINE
  5
317
100
AcDbEntity
  8
0
100
AcDbLine
 62
6
  6
CONTINUOUS
 10
13.3241038022
 20
9.3117641556
 11
13.2918106022
 21
9.3304082215
  0
LINE
  5
318
100
AcDbEntity
  8
0
100
AcDbLine
 62
6
  6
CONTINUOUS
 10
13.3859063058
 20
9.2841197118
 11
13.3705948747
 21
9.2929595707
  0
LINE
  5
319
100
AcDbEntity
  8
0
100
AcDbLine
 62
7
  6
CONTINUOUS
 10
13.2300080986
 20
9.3741255475
 11
13.2453195297
 21
9.3652856886
  0
LINE
  5
31A
100
AcDbEntity
  8
0
100
AcDbLine
 62
6
  6
CONTINUOUS
 10
13.412353323
 20
9.3009966292
 11
13.3928660471
 21
9.3122473586
  0
LINE
  5
31B
100
AcDbEntity
  8
0
100
AcDbLine
 62
6
  6
CONTINUOUS
 10
13.2230483572
 20
9.4102894296
 11
13.2035610814
 21
9.4215401591
  0
LINE
  5
31C
100
AcDbEntity
  8
0
100
AcDbLine
 62
6
  6
CONTINUOUS
 10
13.4282357172
 20
9.3326679253
 11
13.3942727805
 21
9.3522759923
  0
LINE
  5
31D
100
AcDbEntity
  8
0
100
AcDbLine
 62
6
  6
CONTINUOUS
 10
13.4000682382
 20
9.3556219814
 11
13.4340311749
 21
9.3360139143
  0
LINE
  5
31E
100
AcDbEntity
  8
0
100
AcDbLine
 62
7
  6
CONTINUOUS
 10
13.4880736255
 20
9.3672151515
 11
13.4541106888
 21
9.3868232185
  0
LINE
  5
31F
100
AcDbEntity
  8
0
100
AcDbLine
 62
7
  6
CONTINUOUS
 10
13.4218174888
 20
9.4054672845
 11
13.3822861577
 21
9.4282901928
  0
LINE
  5
320
100
AcDbEntity
  8
0
100
AcDbLine
 62
7
  6
CONTINUOUS
 10
13.4424178226
 20
9.4630070185
 11
13.4819491537
 21
9.4401841101
  0
LINE
  5
321
100
AcDbEntity
  8
0
100
AcDbLine
 62
7
  6
CONTINUOUS
 10
13.5142423537
 20
9.4215400442
 11
13.5482052904
 21
9.4019319772
  0
LINE
  5
322
100
AcDbEntity
  8
0
100
AcDbLine
 62
7
  6
CONTINUOUS
 10
13.5001176791
 20
9.4506736506
 11
13.4865538445
 21
9.458504557
  0
LINE
  5
323
100
AcDbEntity
  8
0
100
AcDbLine
 62
6
  6
CONTINUOUS
 10
13.8046549901
 20
8.9790284974
 11
13.6829924205
 21
9.07403999
  0
LINE
  5
324
100
AcDbEntity
  8
0
100
AcDbLine
 62
7
  6
CONTINUOUS
 10
13.5376047556
 20
9.4229712913
 11
13.5306413954
 21
9.4310079788
  0
LINE
  5
325
100
AcDbEntity
  8
0
100
AcDbLine
 62
7
  6
CONTINUOUS
 10
13.5097870367
 20
9.4858282881
 11
13.5260233565
 21
9.4656302111
  0
LINE
  5
326
100
AcDbEntity
  8
0
100
AcDbLine
 62
7
  6
CONTINUOUS
 10
13.5464962954
 20
9.440161755
 11
13.551545485
 21
9.4338805335
  0
LINE
  5
327
100
AcDbEntity
  8
0
100
AcDbLine
 62
6
  6
CONTINUOUS
 10
13.5501535367
 20
9.5830698224
 11
13.5431937954
 21
9.5951243812
  0
LINE
  5
328
100
AcDbEntity
  8
0
100
AcDbLine
 62
7
  6
CONTINUOUS
 10
13.6489818645
 20
9.4884020072
 11
13.6442492403
 21
9.4965991071
  0
LINE
  5
329
100
AcDbEntity
  8
0
100
AcDbLine
 62
6
  6
CONTINUOUS
 10
13.7464182439
 20
9.4617224632
 11
13.7324987611
 21
9.4858315807
  0
LINE
  5
32A
100
AcDbEntity
  8
0
100
AcDbLine
 62
6
  6
CONTINUOUS
 10
14.3311546874
 20
6.6021282203
 11
14.4084969406
 21
7.0694967383
  0
LINE
  5
32B
100
AcDbEntity
  8
0
100
AcDbLine
 62
6
  6
CONTINUOUS
 10
14.3800810571
 20
7.1532368083
 11
14.2794559513
 21
6.589883271
  0
LINE
  5
32C
100
AcDbEntity
  8
0
100
AcDbLine
 62
6
  6
CONTINUOUS
 10
14.3073094292
 20
6.5883612363
 11
14.4077073052
 21
7.1503571919
  0
LINE
  5
32D
100
AcDbEntity
  8
0
100
AcDbLine
 62
6
  6
CONTINUOUS
 10
14.3451409923
 20
6.6576515086
 11
14.7623903617
 21
6.8985491064
  0
LINE
  5
32E
100
AcDbEntity
  8
0
100
AcDbLine
 62
6
  6
CONTINUOUS
 10
14.3507923835
 20
6.6542566342
 11
14.7485849688
 21
6.8839209195
  0
LINE
  5
32F
100
AcDbEntity
  8
0
100
AcDbLine
 62
6
  6
CONTINUOUS
 10
15.1620077371
 20
7.1062363612
 11
14.8279429321
 21
6.9133651074
  0
LINE
  5
330
100
AcDbEntity
  8
0
100
AcDbLine
 62
7
  6
CONTINUOUS
 10
15.017924254
 20
7.0178146118
 11
14.9329434023
 21
6.968751187
  0
LINE
  5
331
100
AcDbEntity
  8
0
100
AcDbLine
 62
7
  6
CONTINUOUS
 10
14.9349540022
 20
6.9518991738
 11
15.017924254
 21
6.9998017851
  0
LINE
  5
332
100
AcDbEntity
  8
0
100
AcDbLine
 62
6
  6
CONTINUOUS
 10
14.3073094292
 20
6.5883612363
 11
14.3451409923
 21
6.610203169
  0
LINE
  5
333
100
AcDbEntity
  8
0
100
AcDbLine
 62
6
  6
CONTINUOUS
 10
14.7623903617
 20
6.8511007668
 11
14.8140597887
 21
6.8809319463
  0
LINE
  5
334
100
AcDbEntity
  8
0
100
AcDbLine
 62
6
  6
CONTINUOUS
 10
15.1700383877
 20
7.0715526256
 11
15.0768235248
 21
7.0177353207
  0
LINE
  5
335
100
AcDbEntity
  8
0
100
AcDbLine
 62
6
  6
CONTINUOUS
 10
14.9291884456
 20
6.9324986768
 11
14.8359735827
 21
6.8786813718
  0
LINE
  5
336
100
AcDbEntity
  8
0
100
AcDbLine
 62
7
  6
CONTINUOUS
 10
14.3458080934
 20
6.5932414062
 11
14.7352294023
 21
6.8180725617
  0
LINE
  5
337
100
AcDbEntity
  8
0
100
AcDbLine
 62
6
  6
CONTINUOUS
 10
11.74899241
 20
10.4854571475
 11
13.4090416051
 21
9.5270489799
  0
LINE
  5
338
100
AcDbEntity
  8
0
100
AcDbLine
 62
7
  6
CONTINUOUS
 10
13.6072234161
 20
9.4697568464
 11
13.6024900704
 21
9.472489583
  0
LINE
  5
339
100
AcDbEntity
  8
0
100
AcDbLine
 62
7
  6
CONTINUOUS
 10
13.5701968703
 20
9.491133649
 11
13.5585052264
 21
9.4978836701
  0
LINE
  5
33A
100
AcDbEntity
  8
0
100
AcDbLine
 62
6
  6
CONTINUOUS
 10
13.6442492403
 20
9.4965991071
 11
13.6119560403
 21
9.5152431731
  0
LINE
  5
33B
100
AcDbEntity
  8
0
100
AcDbLine
 62
7
  6
CONTINUOUS
 10
13.5654649678
 20
9.5501206402
 11
13.5501535367
 21
9.558960499
  0
LINE
  5
33C
100
AcDbEntity
  8
0
100
AcDbLine
 62
6
  6
CONTINUOUS
 10
13.7324987611
 20
9.4858315807
 11
13.7130114852
 21
9.4970823102
  0
LINE
  5
33D
100
AcDbEntity
  8
0
100
AcDbLine
 62
6
  6
CONTINUOUS
 10
13.5431937954
 20
9.5951243812
 11
13.5237065195
 21
9.6063751106
  0
LINE
  5
33E
100
AcDbEntity
  8
0
100
AcDbLine
 62
6
  6
CONTINUOUS
 10
14.7032209125
 20
6.8577301257
 11
14.704522069
 21
6.8003437804
  0
LINE
  5
33F
100
AcDbEntity
  8
0
100
AcDbLine
 62
7
  6
CONTINUOUS
 10
14.8140597887
 20
6.8809319463
 11
14.8223102173
 21
6.5170541746
  0
LINE
  5
340
100
AcDbEntity
  8
0
100
AcDbLine
 62
7
  6
CONTINUOUS
 10
14.7629426586
 20
6.8022798701
 11
14.7623927663
 21
6.8511021551
  0
LINE
  5
341
100
AcDbEntity
  8
0
100
AcDbLine
 62
7
  6
CONTINUOUS
 10
14.7623903617
 20
6.8511007668
 11
14.7623903617
 21
6.8985491064
  0
LINE
  5
342
100
AcDbEntity
  8
0
100
AcDbLine
 62
6
  6
CONTINUOUS
 10
14.7763766667
 20
7.2951592701
 11
14.7763766667
 21
6.8591757156
  0
LINE
  5
343
100
AcDbEntity
  8
0
100
AcDbLine
 62
6
  6
CONTINUOUS
 10
14.8359735827
 20
6.51318403
 11
14.8359735827
 21
6.8786813718
  0
LINE
  5
344
100
AcDbEntity
  8
0
100
AcDbLine
 62
6
  6
CONTINUOUS
 10
13.7087587633
 20
6.1989750544
 11
14.252158985
 21
6.512705446
  0
LINE
  5
345
100
AcDbEntity
  8
0
100
AcDbLine
 62
6
  6
CONTINUOUS
 10
14.7629426586
 20
6.8022798701
 11
14.3456884799
 21
6.5613794957
  0
LINE
  5
346
100
AcDbEntity
  8
0
100
AcDbLine
 62
6
  6
CONTINUOUS
 10
14.3072924261
 20
6.4806691186
 11
13.7365948069
 21
6.1511786614
  0
LINE
  5
347
100
AcDbEntity
  8
0
100
AcDbLine
 62
6
  6
CONTINUOUS
 10
14.9291884456
 20
6.5670013349
 11
14.9291884456
 21
6.9324986768
  0
LINE
  5
348
100
AcDbEntity
  8
0
100
AcDbLine
 62
6
  6
CONTINUOUS
 10
14.9349540022
 20
6.5750375702
 11
14.9349540022
 21
6.9572395664
  0
LINE
  5
349
100
AcDbEntity
  8
0
100
AcDbLine
 62
6
  6
CONTINUOUS
 10
15.017924254
 20
6.9998017851
 11
15.017924254
 21
6.6615053204
  0
LINE
  5
34A
100
AcDbEntity
  8
0
100
AcDbLine
 62
7
  6
CONTINUOUS
 10
15.017924254
 20
6.9998017851
 11
15.017924254
 21
7.02305022
  0
LINE
  5
34B
100
AcDbEntity
  8
0
100
AcDbLine
 62
7
  6
CONTINUOUS
 10
15.0260760938
 20
6.6743714451
 11
15.0260760938
 21
6.6662117592
  0
LINE
  5
34C
100
AcDbEntity
  8
0
100
AcDbLine
 62
6
  6
CONTINUOUS
 10
15.0458563388
 20
6.654591673
 11
15.0458563388
 21
7.0391767204
  0
LINE
  5
34D
100
AcDbEntity
  8
0
100
AcDbLine
 62
6
  6
CONTINUOUS
 10
15.0768235248
 20
7.0177353207
 11
15.0768235248
 21
6.6522379788
  0
LINE
  5
34E
100
AcDbEntity
  8
0
100
AcDbLine
 62
7
  6
CONTINUOUS
 10
14.9005660526
 20
7.4349076238
 11
14.8140597887
 21
6.8809319463
  0
LINE
  5
34F
100
AcDbEntity
  8
0
100
AcDbLine
 62
6
  6
CONTINUOUS
 10
14.8279429321
 20
6.9133651074
 11
14.914474855
 21
7.4300744339
  0
LINE
  5
350
100
AcDbEntity
  8
0
100
AcDbLine
 62
6
  6
CONTINUOUS
 10
14.7763766667
 20
6.8591757156
 11
14.8557706931
 21
7.3277288182
  0
LINE
  5
351
100
AcDbEntity
  8
0
100
AcDbLine
 62
7
  6
CONTINUOUS
 10
14.9349540022
 20
6.6136027091
 11
15.0312492171
 21
6.6691984455
  0
LINE
  5
352
100
AcDbEntity
  8
0
100
AcDbLine
 62
6
  6
CONTINUOUS
 10
15.0534726566
 20
6.6505150745
 11
14.9349540022
 21
6.5820887059
  0
LINE
  5
353
100
AcDbEntity
  8
0
100
AcDbLine
 62
6
  6
CONTINUOUS
 10
14.8257901517
 20
6.5190633036
 11
13.7365954017
 21
5.8902201752
  0
LINE
  5
354
100
AcDbEntity
  8
0
100
AcDbLine
 62
7
  6
CONTINUOUS
 10
15.1700383877
 20
6.7060552838
 11
15.0768235248
 21
6.6522379788
  0
LINE
  5
355
100
AcDbEntity
  8
0
100
AcDbLine
 62
6
  6
CONTINUOUS
 10
14.8359735827
 20
6.51318403
 11
14.9291884456
 21
6.5670013349
  0
LINE
  5
356
100
AcDbEntity
  8
0
100
AcDbLine
 62
6
  6
CONTINUOUS
 10
11.74899241
 20
10.4854571475
 11
11.5645530195
 21
10.535423728
  0
LINE
  5
357
100
AcDbEntity
  8
0
100
AcDbLine
 62
6
  6
CONTINUOUS
 10
15.1700383877
 20
6.7060552838
 11
15.1700383877
 21
7.0715526256
  0
LINE
  5
358
100
AcDbEntity
  8
0
100
AcDbLine
 62
6
  6
CONTINUOUS
 10
15.1430368658
 20
6.1216579068
 11
15.1561048748
 21
6.6980108143
  0
LINE
  5
359
100
AcDbEntity
  8
0
100
AcDbLine
 62
6
  6
CONTINUOUS
 10
15.1620077371
 20
7.1062363612
 11
15.24853966
 21
7.6229456877
  0
LINE
  5
35A
100
AcDbEntity
  8
0
100
AcDbLine
 62
6
  6
CONTINUOUS
 10
15.1430368658
 20
6.1216579068
 11
13.7365947755
 21
5.3096530344
  0
LINE
  5
35B
100
AcDbEntity
  8
0
100
AcDbLine
 62
6
  6
CONTINUOUS
 10
0.5643147315
 20
2.2809057471
 11
0.5737462324
 21
1.5604333062
  0
LINE
  5
35C
100
AcDbEntity
  8
0
100
AcDbLine
 62
6
  6
CONTINUOUS
 10
0.652479644
 20
1.5604333062
 11
0.6430481431
 21
2.2809057471
  0
LINE
  5
35D
100
AcDbEntity
  8
0
100
AcDbLine
 62
7
  6
CONTINUOUS
 10
0.6117539203
 20
2.9364175581
 11
0.6117539203
 21
2.9558449283
  0
LINE
  5
35E
100
AcDbEntity
  8
0
100
AcDbLine
 62
6
  6
CONTINUOUS
 10
0.6511206293
 20
2.9364175581
 11
0.6511206293
 21
2.8975628178
  0
LINE
  5
35F
100
AcDbEntity
  8
0
100
AcDbLine
 62
6
  6
CONTINUOUS
 10
0.592282325
 20
4.4173504756
 11
0.5643147315
 21
2.2809057471
  0
LINE
  5
360
100
AcDbEntity
  8
0
100
AcDbLine
 62
6
  6
CONTINUOUS
 10
0.59279259
 20
2.9527181118
 11
0.6119656754
 21
4.4173502874
  0
LINE
  5
361
100
AcDbEntity
  8
0
100
AcDbLine
 62
6
  6
CONTINUOUS
 10
0.6430481431
 20
2.2809057471
 11
0.6511206265
 21
2.8975628178
  0
LINE
  5
362
100
AcDbEntity
  8
0
100
AcDbLine
 62
6
  6
CONTINUOUS
 10
3.9588956089
 20
1.7792386551
 11
4.0091966212
 21
1.7927167707
  0
LINE
  5
363
100
AcDbEntity
  8
0
100
AcDbLine
 62
6
  6
CONTINUOUS
 10
0.5737462324
 20
1.5604333062
 11
2.5544722118
 21
1.5604333062
  0
LINE
  5
364
100
AcDbEntity
  8
0
100
AcDbLine
 62
6
  6
CONTINUOUS
 10
4.1056533141
 20
1.5604333062
 11
5.6631509471
 21
1.5604333062
  0
LINE
  5
365
100
AcDbEntity
  8
0
100
AcDbLine
 62
6
  6
CONTINUOUS
 10
4.0395974786
 20
1.6509844873
 11
4.0549215053
 21
1.6509844873
  0
LINE
  5
366
100
AcDbEntity
  8
0
100
AcDbLine
 62
6
  6
CONTINUOUS
 10
2.5591496117
 20
1.5676422881
 11
2.5824843161
 21
1.5676237952
  0
LINE
  5
367
100
AcDbEntity
  8
0
100
AcDbLine
 62
6
  6
CONTINUOUS
 10
2.5821870442
 20
1.5681394534
 11
2.5594838613
 21
1.5681574459
  0
LINE
  5
368
100
AcDbEntity
  8
0
100
AcDbLine
 62
6
  6
CONTINUOUS
 10
1.9844721711
 20
2.9558449283
 11
1.9844724168
 21
2.8975628178
  0
LINE
  5
369
100
AcDbEntity
  8
0
100
AcDbLine
 62
7
  6
CONTINUOUS
 10
4.0206302501
 20
1.8173690533
 11
4.0278669993
 21
1.8178234554
  0
LINE
  5
36A
100
AcDbEntity
  8
0
100
AcDbLine
 62
6
  6
CONTINUOUS
 10
3.0358179375
 20
1.7572836999
 11
3.6243075884
 21
1.7572836999
  0
LINE
  5
36B
100
AcDbEntity
  8
0
100
AcDbLine
 62
6
  6
CONTINUOUS
 10
4.0219222215
 20
1.7927167707
 11
4.0091966212
 21
1.7927167707
  0
LINE
  5
36C
100
AcDbEntity
  8
0
100
AcDbLine
 62
6
  6
CONTINUOUS
 10
2.6332123693
 20
1.8360238573
 11
4.0269131567
 21
1.8360238573
  0
LINE
  5
36D
100
AcDbEntity
  8
0
100
AcDbLine
 62
6
  6
CONTINUOUS
 10
2.6294606622
 20
1.7644370216
 11
2.6348708045
 21
1.764432734
  0
LINE
  5
36E
100
AcDbEntity
  8
0
100
AcDbLine
 62
6
  6
CONTINUOUS
 10
1.9844721711
 20
2.8975628178
 11
2.0142536166
 21
2.728665311
  0
LINE
  5
36F
100
AcDbEntity
  8
0
100
AcDbLine
 62
7
  6
CONTINUOUS
 10
2.0638065094
 20
2.7675199203
 11
2.0638065094
 21
2.7869472905
  0
LINE
  5
370
100
AcDbEntity
  8
0
100
AcDbLine
 62
6
  6
CONTINUOUS
 10
2.0444199602
 20
2.7837899202
 11
2.0232441298
 21
2.9038840219
  0
LINE
  5
371
100
AcDbEntity
  8
0
100
AcDbLine
 62
6
  6
CONTINUOUS
 10
2.0638065094
 20
2.7869472905
 11
2.0426306958
 21
2.907041297
  0
LINE
  5
372
100
AcDbEntity
  8
0
100
AcDbLine
 62
6
  6
CONTINUOUS
 10
3.3542012174
 20
4.6644066025
 11
3.3738862567
 21
4.6840916419
  0
LINE
  5
373
100
AcDbEntity
  8
0
100
AcDbLine
 62
6
  6
CONTINUOUS
 10
3.4919964929
 20
4.6281861301
 11
3.4986894063
 21
4.6348790434
  0
LINE
  5
374
100
AcDbEntity
  8
0
100
AcDbLine
 62
6
  6
CONTINUOUS
 10
5.672582448
 20
2.2809057471
 11
0.5643147315
 21
2.2809057471
  0
LINE
  5
375
100
AcDbEntity
  8
0
100
AcDbLine
 62
6
  6
CONTINUOUS
 10
5.672582448
 20
2.2860238573
 11
5.692102133
 21
2.2860238573
  0
LINE
  5
376
100
AcDbEntity
  8
0
100
AcDbLine
 62
6
  6
CONTINUOUS
 10
3.6317602725
 20
4.6742491222
 11
3.6416027922
 21
4.6840916419
  0
LINE
  5
377
100
AcDbEntity
  8
0
100
AcDbLine
 62
7
  6
CONTINUOUS
 10
3.4886190741
 20
4.5266113269
 11
3.4870079825
 21
4.5250002353
  0
LINE
  5
378
100
AcDbEntity
  8
0
100
AcDbLine
 62
6
  6
CONTINUOUS
 10
3.5505352039
 20
4.1077596954
 11
3.5893071627
 21
4.1349081132
  0
LINE
  5
379
100
AcDbEntity
  8
0
100
AcDbLine
 62
6
  6
CONTINUOUS
 10
2.6348708045
 20
1.764432734
 11
2.63492754
 21
1.8360224981
  0
LINE
  5
37A
100
AcDbEntity
  8
0
100
AcDbLine
 62
6
  6
CONTINUOUS
 10
2.635386209
 20
1.7644323256
 11
2.6354429444
 21
1.8360220896
  0
LINE
  5
37B
100
AcDbEntity
  8
0
100
AcDbLine
 62
6
  6
CONTINUOUS
 10
2.6271916645
 20
1.7211419667
 11
2.6332123693
 21
1.8360238573
  0
LINE
  5
37C
100
AcDbEntity
  8
0
100
AcDbLine
 62
7
  6
CONTINUOUS
 10
3.4427838945
 20
4.6256674452
 11
3.4230988551
 21
4.5915719568
  0
LINE
  5
37D
100
AcDbEntity
  8
0
100
AcDbLine
 62
6
  6
CONTINUOUS
 10
5.5897192278
 20
2.5963818464
 11
2.9722244298
 21
2.5963818464
  0
LINE
  5
37E
100
AcDbEntity
  8
0
100
AcDbLine
 62
6
  6
CONTINUOUS
 10
3.0217773226
 20
2.6352364558
 11
5.6290873571
 21
2.6352290639
  0
LINE
  5
37F
100
AcDbEntity
  8
0
100
AcDbLine
 62
6
  6
CONTINUOUS
 10
3.0217773226
 20
2.6546638259
 11
3.2423832286
 21
2.6546638259
  0
LINE
  5
380
100
AcDbEntity
  8
0
100
AcDbLine
 62
6
  6
CONTINUOUS
 10
3.4177422973
 20
2.6546638259
 11
5.6290859355
 21
2.6546638259
  0
LINE
  5
381
100
AcDbEntity
  8
0
100
AcDbLine
 62
6
  6
CONTINUOUS
 10
2.9488990278
 20
2.728665311
 11
2.0142536166
 21
2.728665311
  0
LINE
  5
382
100
AcDbEntity
  8
0
100
AcDbLine
 62
6
  6
CONTINUOUS
 10
3.0217738887
 20
2.6352364557
 11
3.0190459267
 21
2.6354264451
  0
LWPOLYLINE
  5
383
100
AcDbEntity
  8
0
100
AcDbPolyline
 62
6
  6
CONTINUOUS
 90
3
 70
0
 10
2.0638030755
 20
2.7675199203
 10
2.0610748814
 20
2.7677099422
 10
2.055617926
 20
2.7693028344
  0
LINE
  5
384
100
AcDbEntity
  8
0
100
AcDbLine
 62
6
  6
CONTINUOUS
 10
3.0190459267
 20
2.6354264451
 11
3.0135890599
 21
2.6370192232
  0
LINE
  5
385
100
AcDbEntity
  8
0
100
AcDbLine
 62
6
  6
CONTINUOUS
 10
2.9488990509
 20
2.728665311
 11
2.9488990509
 21
2.7869472905
  0
LINE
  5
386
100
AcDbEntity
  8
0
100
AcDbLine
 62
6
  6
CONTINUOUS
 10
2.0638065094
 20
2.7675199203
 11
2.9488990509
 21
2.7675199203
  0
LINE
  5
387
100
AcDbEntity
  8
0
100
AcDbLine
 62
6
  6
CONTINUOUS
 10
2.0638065094
 20
2.7869472905
 11
2.9489011196
 21
2.7869472905
  0
LINE
  5
388
100
AcDbEntity
  8
0
100
AcDbLine
 62
6
  6
CONTINUOUS
 10
1.9844721711
 20
2.8975628178
 11
0.6511206265
 21
2.8975628178
  0
LINE
  5
389
100
AcDbEntity
  8
0
100
AcDbLine
 62
6
  6
CONTINUOUS
 10
0.6117524987
 20
2.9364101668
 11
1.9844721711
 21
2.9364175581
  0
LINE
  5
38A
100
AcDbEntity
  8
0
100
AcDbLine
 62
6
  6
CONTINUOUS
 10
2.9488990278
 20
2.728665311
 11
2.9722244298
 21
2.5963818464
  0
LINE
  5
38B
100
AcDbEntity
  8
0
100
AcDbLine
 62
6
  6
CONTINUOUS
 10
2.9876710097
 20
2.7349863842
 11
3.0023909159
 21
2.6515056476
  0
LINE
  5
38C
100
AcDbEntity
  8
0
100
AcDbLine
 62
7
  6
CONTINUOUS
 10
3.0217773226
 20
2.6546638259
 11
3.0070575755
 21
2.7381436594
  0
LINE
  5
38D
100
AcDbEntity
  8
0
100
AcDbLine
 62
6
  6
CONTINUOUS
 10
3.0347871724
 20
1.8360238573
 11
3.0358179375
 21
1.7572836999
  0
LINE
  5
38E
100
AcDbEntity
  8
0
100
AcDbLine
 62
7
  6
CONTINUOUS
 10
3.0217773226
 20
2.6352364558
 11
3.0217773226
 21
2.6546638259
  0
LINE
  5
38F
100
AcDbEntity
  8
0
100
AcDbLine
 62
6
  6
CONTINUOUS
 10
0.6117539205
 20
2.9558449283
 11
1.9844742398
 21
2.9558449283
  0
LINE
  5
390
100
AcDbEntity
  8
0
100
AcDbLine
 62
6
  6
CONTINUOUS
 10
3.9522775026
 20
1.7610555575
 11
4.0234724384
 21
1.6593786519
  0
LINE
  5
391
100
AcDbEntity
  8
0
100
AcDbLine
 62
6
  6
CONTINUOUS
 10
3.3542012174
 20
4.6644066025
 11
3.3542012174
 21
4.5266113269
  0
LINE
  5
392
100
AcDbEntity
  8
0
100
AcDbLine
 62
7
  6
CONTINUOUS
 10
3.4112878315
 20
4.6742491222
 11
3.4112878315
 21
4.6447215631
  0
LINE
  5
393
100
AcDbEntity
  8
0
100
AcDbLine
 62
6
  6
CONTINUOUS
 10
5.6747177941
 20
2.771756054
 11
5.6809419741
 21
2.7706585631
  0
LINE
  5
394
100
AcDbEntity
  8
0
100
AcDbLine
 62
6
  6
CONTINUOUS
 10
3.5177317178
 20
4.4861451189
 11
3.5247870517
 21
3.9471880943
  0
LINE
  5
395
100
AcDbEntity
  8
0
100
AcDbLine
 62
6
  6
CONTINUOUS
 10
3.5374150658
 20
4.486145495
 11
3.5444704035
 21
3.9471881821
  0
LINE
  5
396
100
AcDbEntity
  8
0
100
AcDbLine
 62
7
  6
CONTINUOUS
 10
3.4230988551
 20
4.5915719568
 11
3.4230988551
 21
4.5758239253
  0
LINE
  5
397
100
AcDbEntity
  8
0
100
AcDbLine
 62
7
  6
CONTINUOUS
 10
3.4427838945
 20
4.6348790434
 11
3.4427838945
 21
4.6256674452
  0
LINE
  5
398
100
AcDbEntity
  8
0
100
AcDbLine
 62
7
  6
CONTINUOUS
 10
3.4919964929
 20
4.5758239253
 11
3.4919964929
 21
4.6281861301
  0
LINE
  5
399
100
AcDbEntity
  8
0
100
AcDbLine
 62
7
  6
CONTINUOUS
 10
3.4980483599
 20
4.5250002353
 11
3.4980483599
 21
4.5055728651
  0
LINE
  5
39A
100
AcDbEntity
  8
0
100
AcDbLine
 62
7
  6
CONTINUOUS
 10
3.5505352039
 20
4.0258101212
 11
3.5505352039
 21
4.1077596954
  0
LINE
  5
39B
100
AcDbEntity
  8
0
100
AcDbLine
 62
7
  6
CONTINUOUS
 10
3.5510516111
 20
4.6281861301
 11
3.5510516111
 21
4.5758239253
  0
LINE
  5
39C
100
AcDbEntity
  8
0
100
AcDbLine
 62
7
  6
CONTINUOUS
 10
3.5707366504
 20
3.9478711694
 11
3.5707366504
 21
4.0122537047
  0
LINE
  5
39D
100
AcDbEntity
  8
0
100
AcDbLine
 62
7
  6
CONTINUOUS
 10
3.5707366504
 20
4.1219049006
 11
3.5707366504
 21
4.4478711694
  0
LINE
  5
39E
100
AcDbEntity
  8
0
100
AcDbLine
 62
7
  6
CONTINUOUS
 10
3.6002642095
 20
4.6256674452
 11
3.6002642095
 21
4.6348790434
  0
LINE
  5
39F
100
AcDbEntity
  8
0
100
AcDbLine
 62
7
  6
CONTINUOUS
 10
3.6199492488
 20
4.5758239253
 11
3.6199492488
 21
4.5915719568
  0
LINE
  5
3A0
100
AcDbEntity
  8
0
100
AcDbLine
 62
7
  6
CONTINUOUS
 10
3.6317602725
 20
4.6447215631
 11
3.6317602725
 21
4.6742491222
  0
LINE
  5
3A1
100
AcDbEntity
  8
0
100
AcDbLine
 62
7
  6
CONTINUOUS
 10
3.6888468866
 20
4.4675562088
 11
3.6888468866
 21
4.4478711694
  0
LINE
  5
3A2
100
AcDbEntity
  8
0
100
AcDbLine
 62
6
  6
CONTINUOUS
 10
3.6888468866
 20
3.9478711694
 11
3.6888468866
 21
3.9690426027
  0
LINE
  5
3A3
100
AcDbEntity
  8
0
100
AcDbLine
 62
6
  6
CONTINUOUS
 10
3.6888468866
 20
4.1173565742
 11
3.6888468866
 21
4.4478711694
  0
LINE
  5
3A4
100
AcDbEntity
  8
0
100
AcDbLine
 62
6
  6
CONTINUOUS
 10
3.6888468866
 20
4.4675562088
 11
3.6888468866
 21
4.6644066025
  0
LINE
  5
3A5
100
AcDbEntity
  8
0
100
AcDbLine
 62
6
  6
CONTINUOUS
 10
3.6243075884
 20
1.7572836999
 11
3.6253383535
 21
1.8360238573
  0
LINE
  5
3A6
100
AcDbEntity
  8
0
100
AcDbLine
 62
6
  6
CONTINUOUS
 10
3.7932987186
 20
4.0589614724
 11
3.7693708201
 21
3.9232596167
  0
LINE
  5
3A7
100
AcDbEntity
  8
0
100
AcDbLine
 62
6
  6
CONTINUOUS
 10
4.0206302501
 20
1.8173690533
 11
4.0291942584
 21
1.65395804
  0
LINE
  5
3A8
100
AcDbEntity
  8
0
100
AcDbLine
 62
6
  6
CONTINUOUS
 10
4.0269131567
 20
1.8360238573
 11
4.0329338614
 21
1.7211419667
  0
LINE
  5
3A9
100
AcDbEntity
  8
0
100
AcDbLine
 62
6
  6
CONTINUOUS
 10
5.7713806672
 20
3.5102851265
 11
5.7651764346
 21
3.5113791001
  0
LINE
  5
3AA
100
AcDbEntity
  8
0
100
AcDbLine
 62
6
  6
CONTINUOUS
 10
3.5735507386
 20
3.8898088348
 11
5.7635539869
 21
3.502490325
  0
LINE
  5
3AB
100
AcDbEntity
  8
0
100
AcDbLine
 62
7
  6
CONTINUOUS
 10
3.558519058
 20
4.0144079959
 11
3.5505352039
 21
4.0258101212
  0
LINE
  5
3AC
100
AcDbEntity
  8
0
100
AcDbLine
 62
7
  6
CONTINUOUS
 10
3.6057245878
 20
4.0060843874
 11
3.558519058
 21
4.0144079959
  0
LINE
  5
3AD
100
AcDbEntity
  8
0
100
AcDbLine
 62
6
  6
CONTINUOUS
 10
5.7669816485
 20
3.5216169771
 11
3.5769806201
 21
3.9089350942
  0
LWPOLYLINE
  5
3AE
100
AcDbEntity
  8
0
100
AcDbPolyline
 62
6
  6
CONTINUOUS
 90
6
 70
0
 10
3.5769808399
 20
3.9089363381
 10
3.5711801789
 20
3.9104234885
 10
3.5586857679
 20
3.9174161345
 10
3.5495146549
 20
3.9284192163
 10
3.5448867653
 20
3.9419703685
 10
3.5444712651
 20
3.9471881939
  0
LINE
  5
3AF
100
AcDbEntity
  8
0
100
AcDbLine
 62
6
  6
CONTINUOUS
 10
3.7613633023
 20
4.1045699736
 11
3.7932987186
 21
4.0589614724
  0
LINE
  5
3B0
100
AcDbEntity
  8
0
100
AcDbLine
 62
6
  6
CONTINUOUS
 10
3.7613633023
 20
4.1045699736
 11
3.5893071627
 21
4.1349081132
  0
LINE
  5
3B1
100
AcDbEntity
  8
0
100
AcDbLine
 62
7
  6
CONTINUOUS
 10
3.6199492488
 20
4.5915719568
 11
3.6002642095
 21
4.6256674452
  0
LINE
  5
3B2
100
AcDbEntity
  8
0
100
AcDbLine
 62
7
  6
CONTINUOUS
 10
3.5707366504
 20
4.4478711694
 11
3.6888468866
 21
4.4478711694
  0
LINE
  5
3B3
100
AcDbEntity
  8
0
100
AcDbLine
 62
6
  6
CONTINUOUS
 10
3.5707366504
 20
4.4675562088
 11
3.6888468866
 21
4.4675562088
  0
LINE
  5
3B4
100
AcDbEntity
  8
0
100
AcDbLine
 62
6
  6
CONTINUOUS
 10
3.4980489459
 20
4.5055728651
 11
0.8858039539
 21
4.5055728651
  0
LINE
  5
3B5
100
AcDbEntity
  8
0
100
AcDbLine
 62
6
  6
CONTINUOUS
 10
0.8832123693
 20
4.5250002353
 11
3.4980483599
 21
4.5250002353
  0
LINE
  5
3B6
100
AcDbEntity
  8
0
100
AcDbLine
 62
7
  6
CONTINUOUS
 10
3.5116815323
 20
4.5266113269
 11
3.4886190741
 21
4.5266113269
  0
LINE
  5
3B7
100
AcDbEntity
  8
0
100
AcDbLine
 62
7
  6
CONTINUOUS
 10
3.3569917099
 20
4.5250002353
 11
3.3542012174
 21
4.5266113269
  0
LINE
  5
3B8
100
AcDbEntity
  8
0
100
AcDbLine
 62
6
  6
CONTINUOUS
 10
3.4014453118
 20
4.6840916419
 11
3.4112878315
 21
4.6742491222
  0
LINE
  5
3B9
100
AcDbEntity
  8
0
100
AcDbLine
 62
7
  6
CONTINUOUS
 10
3.5443586977
 20
4.6348790434
 11
3.5510516111
 21
4.6281861301
  0
LINE
  5
3BA
100
AcDbEntity
  8
0
100
AcDbLine
 62
6
  6
CONTINUOUS
 10
3.6691618473
 20
4.6840916419
 11
3.6888468866
 21
4.6644066025
  0
LINE
  5
3BB
100
AcDbEntity
  8
0
100
AcDbLine
 62
7
  6
CONTINUOUS
 10
3.4230988551
 20
4.5758239253
 11
3.4919964929
 21
4.5758239253
  0
LINE
  5
3BC
100
AcDbEntity
  8
0
100
AcDbLine
 62
7
  6
CONTINUOUS
 10
3.5510516111
 20
4.5758239253
 11
3.6199492488
 21
4.5758239253
  0
LINE
  5
3BD
100
AcDbEntity
  8
0
100
AcDbLine
 62
7
  6
CONTINUOUS
 10
3.6002642095
 20
4.6348790434
 11
3.5443586977
 21
4.6348790434
  0
LINE
  5
3BE
100
AcDbEntity
  8
0
100
AcDbLine
 62
6
  6
CONTINUOUS
 10
3.5443586977
 20
4.6348790434
 11
3.4986894063
 21
4.6348790434
  0
LINE
  5
3BF
100
AcDbEntity
  8
0
100
AcDbLine
 62
7
  6
CONTINUOUS
 10
3.4986894063
 20
4.6348790434
 11
3.4427838945
 21
4.6348790434
  0
LINE
  5
3C0
100
AcDbEntity
  8
0
100
AcDbLine
 62
6
  6
CONTINUOUS
 10
3.6317602725
 20
4.6447215631
 11
3.6101067292
 21
4.6447215631
  0
LINE
  5
3C1
100
AcDbEntity
  8
0
100
AcDbLine
 62
7
  6
CONTINUOUS
 10
3.4112878315
 20
4.6447215631
 11
3.4329413748
 21
4.6447215631
  0
LINE
  5
3C2
100
AcDbEntity
  8
0
100
AcDbLine
 62
6
  6
CONTINUOUS
 10
3.6691618473
 20
4.6840916419
 11
3.6416027922
 21
4.6840916419
  0
LINE
  5
3C3
100
AcDbEntity
  8
0
100
AcDbLine
 62
6
  6
CONTINUOUS
 10
3.4014453118
 20
4.6840916419
 11
3.3738862567
 21
4.6840916419
  0
LINE
  5
3C4
100
AcDbEntity
  8
0
100
AcDbLine
 62
6
  6
CONTINUOUS
 10
0.6265539855
 20
4.4361070455
 11
0.8858039539
 21
4.5055728651
  0
LINE
  5
3C5
100
AcDbEntity
  8
0
100
AcDbLine
 62
6
  6
CONTINUOUS
 10
0.6214593046
 20
4.454863713
 11
0.8832123693
 21
4.5250002353
  0
LINE
  5
3C6
100
AcDbEntity
  8
0
100
AcDbLine
 62
6
  6
CONTINUOUS
 10
5.5897192278
 20
2.5963818464
 11
5.5938490364
 21
2.2809057471
  0
LINE
  5
3C7
100
AcDbEntity
  8
0
100
AcDbLine
 62
6
  6
CONTINUOUS
 10
5.6470409176
 20
2.7284119805
 11
5.6480472661
 21
2.6515370094
  0
LINE
  5
3C8
100
AcDbEntity
  8
0
100
AcDbLine
 62
6
  6
CONTINUOUS
 10
5.5897192293
 20
2.5963818464
 11
5.5897192293
 21
2.6352364557
  0
LINE
  5
3C9
100
AcDbEntity
  8
0
100
AcDbLine
 62
7
  6
CONTINUOUS
 10
5.6290859342
 20
2.6546638259
 11
5.6290859342
 21
2.6352364558
  0
LINE
  5
3CA
100
AcDbEntity
  8
0
100
AcDbLine
 62
6
  6
CONTINUOUS
 10
5.5938490364
 20
2.2809057471
 11
5.5844175355
 21
1.5604333062
  0
LINE
  5
3CB
100
AcDbEntity
  8
0
100
AcDbLine
 62
6
  6
CONTINUOUS
 10
5.672582448
 20
2.2809057471
 11
5.6667485042
 21
2.7265607695
  0
LINE
  5
3CC
100
AcDbEntity
  8
0
100
AcDbLine
 62
6
  6
CONTINUOUS
 10
5.692102133
 20
2.2860238573
 11
5.692102133
 21
2.7336616526
  0
LINE
  5
3CD
100
AcDbEntity
  8
0
100
AcDbLine
 62
6
  6
CONTINUOUS
 10
5.6631509471
 20
1.5604333062
 11
5.672582448
 21
2.2809057471
  0
LINE
  5
3CE
100
AcDbEntity
  8
0
100
AcDbLine
 62
6
  6
CONTINUOUS
 10
5.7795110612
 20
3.4796874974
 11
5.6470409176
 21
2.7284119805
  0
LINE
  5
3CF
100
AcDbEntity
  8
0
100
AcDbLine
 62
6
  6
CONTINUOUS
 10
5.666748514
 20
2.7265600207
 11
5.7988971184
 21
3.4760119983
  0
LINE
  5
3D0
100
AcDbEntity
  8
0
100
AcDbLine
 62
6
  6
CONTINUOUS
 10
5.6809419741
 20
2.7706585631
 11
5.8033160835
 21
3.4646766253
  0
LINE
  5
3D1
100
AcDbEntity
  8
0
100
AcDbLine
 62
7
  6
CONTINUOUS
 10
0.7125537759
 20
8.5101122917
 11
0.7119525267
 21
8.5083084527
  0
LINE
  5
3D2
100
AcDbEntity
  8
0
100
AcDbLine
 62
6
  6
CONTINUOUS
 10
0.6664879423
 20
8.6419806678
 11
0.6665035415
 21
8.6220379592
  0
LINE
  5
3D3
100
AcDbEntity
  8
0
100
AcDbLine
 62
6
  6
CONTINUOUS
 10
0.5643147315
 20
8.5041853922
 11
0.5643147315
 21
6.4963046306
  0
LINE
  5
3D4
100
AcDbEntity
  8
0
100
AcDbLine
 62
6
  6
CONTINUOUS
 10
0.5723872154
 20
6.5043771148
 11
0.5723872154
 21
7.3114687844
  0
LINE
  5
3D5
100
AcDbEntity
  8
0
100
AcDbLine
 62
6
  6
CONTINUOUS
 10
0.592282325
 20
7.3313638977
 11
0.592282325
 21
8.4762177987
  0
LINE
  5
3D6
100
AcDbEntity
  8
0
100
AcDbLine
 62
7
  6
CONTINUOUS
 10
0.6029117364
 20
7.3315329377
 11
0.6029117364
 21
7.3141970577
  0
LINE
  5
3D7
100
AcDbEntity
  8
0
100
AcDbLine
 62
7
  6
CONTINUOUS
 10
0.6029117364
 20
7.2925385851
 11
0.6029117364
 21
7.2728241043
  0
LINE
  5
3D8
100
AcDbEntity
  8
0
100
AcDbLine
 62
7
  6
CONTINUOUS
 10
0.6036915566
 20
7.2728241043
 11
0.6036915566
 21
7.2925402685
  0
LINE
  5
3D9
100
AcDbEntity
  8
0
100
AcDbLine
 62
7
  6
CONTINUOUS
 10
0.6036915566
 20
7.3136759374
 11
0.6036915566
 21
7.3315376719
  0
LINE
  5
3DA
100
AcDbEntity
  8
0
100
AcDbLine
 62
7
  6
CONTINUOUS
 10
0.6044130922
 20
7.3315420523
 11
0.6044130922
 21
7.3131937661
  0
LINE
  5
3DB
100
AcDbEntity
  8
0
100
AcDbLine
 62
7
  6
CONTINUOUS
 10
0.6044130922
 20
7.2925418261
 11
0.6044130922
 21
7.2728241043
  0
LINE
  5
3DC
100
AcDbEntity
  8
0
100
AcDbLine
 62
7
  6
CONTINUOUS
 10
0.6065515137
 20
8.5825889356
 11
0.6065516159
 21
8.5727306633
  0
LINE
  5
3DD
100
AcDbEntity
  8
0
100
AcDbLine
 62
6
  6
CONTINUOUS
 10
0.6117539205
 20
7.2728650362
 11
0.6117539205
 21
6.5043778236
  0
LINE
  5
3DE
100
AcDbEntity
  8
0
100
AcDbLine
 62
7
  6
CONTINUOUS
 10
0.6117539203
 20
7.2728650362
 11
0.6117539203
 21
7.2925483891
  0
LINE
  5
3DF
100
AcDbEntity
  8
0
100
AcDbLine
 62
6
  6
CONTINUOUS
 10
0.6214593046
 20
8.4757267235
 11
0.6214593046
 21
7.3316094353
  0
LINE
  5
3E0
100
AcDbEntity
  8
0
100
AcDbLine
 62
7
  6
CONTINUOUS
 10
0.6272007589
 20
8.5726877398
 11
0.6272008616
 21
8.582590004
  0
LINE
  5
3E1
100
AcDbEntity
  8
0
100
AcDbLine
 62
6
  6
CONTINUOUS
 10
0.6511206293
 20
6.465010408
 11
0.6511206293
 21
6.4256437022
  0
LINE
  5
3E2
100
AcDbEntity
  8
0
100
AcDbLine
 62
7
  6
CONTINUOUS
 10
0.66597819
 20
8.5829255497
 11
0.6659777842
 21
8.5438075416
  0
LINE
  5
3E3
100
AcDbEntity
  8
0
100
AcDbLine
 62
7
  6
CONTINUOUS
 10
0.6731836971
 20
8.5811217107
 11
0.6731836971
 21
8.5441567201
  0
LINE
  5
3E4
100
AcDbEntity
  8
0
100
AcDbLine
 62
7
  6
CONTINUOUS
 10
0.6743003027
 20
8.5452733256
 11
0.6743003027
 21
8.5777717241
  0
LINE
  5
3E5
100
AcDbEntity
  8
0
100
AcDbLine
 62
6
  6
CONTINUOUS
 10
0.7050302034
 20
8.5438075416
 11
0.705030096
 21
8.5334552821
  0
LINE
  5
3E6
100
AcDbEntity
  8
0
100
AcDbLine
 62
7
  6
CONTINUOUS
 10
0.7119525267
 20
8.5083084527
 11
0.7119525267
 21
8.5041853922
  0
LINE
  5
3E7
100
AcDbEntity
  8
0
100
AcDbLine
 62
7
  6
CONTINUOUS
 10
0.7125537759
 20
8.5441567201
 11
0.7125537759
 21
8.5101122917
  0
LINE
  5
3E8
100
AcDbEntity
  8
0
100
AcDbLine
 62
7
  6
CONTINUOUS
 10
0.7136703814
 20
8.4990315666
 11
0.7136703814
 21
8.5452733256
  0
LINE
  5
3E9
100
AcDbEntity
  8
0
100
AcDbLine
 62
7
  6
CONTINUOUS
 10
0.6666314679
 20
8.5334550684
 11
0.6666158691
 21
8.5140285186
  0
LINE
  5
3EA
100
AcDbEntity
  8
0
100
AcDbLine
 62
6
  6
CONTINUOUS
 10
0.7040135247
 20
8.5337878359
 11
0.7037432137
 21
8.5140279119
  0
LINE
  5
3EB
100
AcDbEntity
  8
0
100
AcDbLine
 62
7
  6
CONTINUOUS
 10
0.7046924198
 20
8.5140279119
 11
0.7049665708
 21
8.5337746177
  0
LINE
  5
3EC
100
AcDbEntity
  8
0
100
AcDbLine
 62
7
  6
CONTINUOUS
 10
0.8106783482
 20
8.5059892312
 11
0.8105280359
 21
8.5041853922
  0
LINE
  5
3ED
100
AcDbEntity
  8
0
100
AcDbLine
 62
7
  6
CONTINUOUS
 10
0.7693685309
 20
8.4992678007
 11
0.7708573326
 21
8.5041853922
  0
LINE
  5
3EE
100
AcDbEntity
  8
0
100
AcDbLine
 62
7
  6
CONTINUOUS
 10
0.8677937277
 20
8.4992678007
 11
0.8692825294
 21
8.5041853922
  0
LINE
  5
3EF
100
AcDbEntity
  8
0
100
AcDbLine
 62
7
  6
CONTINUOUS
 10
0.7708573326
 20
8.5041853922
 11
0.7707070203
 21
8.5059892312
  0
LINE
  5
3F0
100
AcDbEntity
  8
0
100
AcDbLine
 62
6
  6
CONTINUOUS
 10
0.7968751964
 20
8.5219019276
 11
0.793677718
 21
8.5829255497
  0
LINE
  5
3F1
100
AcDbEntity
  8
0
100
AcDbLine
 62
7
  6
CONTINUOUS
 10
0.7504295609
 20
8.5811114031
 11
0.7504295609
 21
8.5777717241
  0
LINE
  5
3F2
100
AcDbEntity
  8
0
100
AcDbLine
 62
6
  6
CONTINUOUS
 10
0.7513226055
 20
8.4990315666
 11
0.7513226055
 21
8.5777717241
  0
LINE
  5
3F3
100
AcDbEntity
  8
0
100
AcDbLine
 62
7
  6
CONTINUOUS
 10
0.7693685309
 20
8.5780079582
 11
0.7693685309
 21
8.4992678007
  0
LINE
  5
3F4
100
AcDbEntity
  8
0
100
AcDbLine
 62
7
  6
CONTINUOUS
 10
0.7704063957
 20
8.5059892312
 11
0.7704063957
 21
8.5811217107
  0
LINE
  5
3F5
100
AcDbEntity
  8
0
100
AcDbLine
 62
7
  6
CONTINUOUS
 10
0.7768344165
 20
8.5783901831
 11
0.7768344165
 21
8.5059892312
  0
LINE
  5
3F6
100
AcDbEntity
  8
0
100
AcDbLine
 62
7
  6
CONTINUOUS
 10
0.8043934716
 20
8.5059892312
 11
0.8043934716
 21
8.5219019276
  0
LINE
  5
3F7
100
AcDbEntity
  8
0
100
AcDbLine
 62
7
  6
CONTINUOUS
 10
0.8109789727
 20
8.5219019276
 11
0.8109789727
 21
8.5059892312
  0
LINE
  5
3F8
100
AcDbEntity
  8
0
100
AcDbLine
 62
7
  6
CONTINUOUS
 10
0.830062763
 20
8.4990315666
 11
0.830062763
 21
8.5219019276
  0
LINE
  5
3F9
100
AcDbEntity
  8
0
100
AcDbLine
 62
7
  6
CONTINUOUS
 10
0.8497478023
 20
8.5219019276
 11
0.8497478023
 21
8.4990315666
  0
LINE
  5
3FA
100
AcDbEntity
  8
0
100
AcDbLine
 62
7
  6
CONTINUOUS
 10
0.8688315926
 20
8.5059892312
 11
0.8688315926
 21
8.5219019276
  0
LINE
  5
3FB
100
AcDbEntity
  8
0
100
AcDbLine
 62
7
  6
CONTINUOUS
 10
0.8752596134
 20
8.5219019276
 11
0.8752596134
 21
8.5059892312
  0
LINE
  5
3FC
100
AcDbEntity
  8
0
100
AcDbLine
 62
6
  6
CONTINUOUS
 10
0.8832123693
 20
7.3325209872
 11
0.8832123693
 21
8.4748085862
  0
LINE
  5
3FD
100
AcDbEntity
  8
0
100
AcDbLine
 62
7
  6
CONTINUOUS
 10
0.9028186685
 20
8.5059892312
 11
0.9028186685
 21
8.5219019276
  0
LINE
  5
3FE
100
AcDbEntity
  8
0
100
AcDbLine
 62
7
  6
CONTINUOUS
 10
0.9094041696
 20
8.5219019276
 11
0.9094041696
 21
8.5059892312
  0
LINE
  5
3FF
100
AcDbEntity
  8
0
100
AcDbLine
 62
7
  6
CONTINUOUS
 10
0.9284879598
 20
8.4990315666
 11
0.9284879598
 21
8.5219019276
  0
LINE
  5
400
100
AcDbEntity
  8
0
100
AcDbLine
 62
7
  6
CONTINUOUS
 10
0.909103545
 20
8.5059892312
 11
0.9089532327
 21
8.5041853922
  0
LINE
  5
401
100
AcDbEntity
  8
0
100
AcDbLine
 62
7
  6
CONTINUOUS
 10
0.9662189246
 20
8.4992678007
 11
0.9677077263
 21
8.5041853922
  0
LINE
  5
402
100
AcDbEntity
  8
0
100
AcDbLine
 62
7
  6
CONTINUOUS
 10
1.0646441214
 20
8.4992678007
 11
1.0661329231
 21
8.5041853922
  0
LINE
  5
403
100
AcDbEntity
  8
0
100
AcDbLine
 62
7
  6
CONTINUOUS
 10
0.8692825294
 20
8.5041853922
 11
0.8691322171
 21
8.5059892312
  0
LINE
  5
404
100
AcDbEntity
  8
0
100
AcDbLine
 62
7
  6
CONTINUOUS
 10
0.9677077263
 20
8.5041853922
 11
0.967557414
 21
8.5059892312
  0
LINE
  5
405
100
AcDbEntity
  8
0
100
AcDbLine
 62
7
  6
CONTINUOUS
 10
0.9481729992
 20
8.5219019276
 11
0.9481729992
 21
8.4990315666
  0
LINE
  5
406
100
AcDbEntity
  8
0
100
AcDbLine
 62
7
  6
CONTINUOUS
 10
0.9672567894
 20
8.5059892312
 11
0.9672567894
 21
8.5219019276
  0
LINE
  5
407
100
AcDbEntity
  8
0
100
AcDbLine
 62
7
  6
CONTINUOUS
 10
0.9736848102
 20
8.5219019276
 11
0.9736848102
 21
8.5059892312
  0
LINE
  5
408
100
AcDbEntity
  8
0
100
AcDbLine
 62
7
  6
CONTINUOUS
 10
1.0012438653
 20
8.5059892312
 11
1.0012438653
 21
8.5219019276
  0
LINE
  5
409
100
AcDbEntity
  8
0
100
AcDbLine
 62
7
  6
CONTINUOUS
 10
1.0078293664
 20
8.5219019276
 11
1.0078293664
 21
8.5059892312
  0
LINE
  5
40A
100
AcDbEntity
  8
0
100
AcDbLine
 62
7
  6
CONTINUOUS
 10
1.0269131567
 20
8.4990315666
 11
1.0269131567
 21
8.5219019276
  0
LINE
  5
40B
100
AcDbEntity
  8
0
100
AcDbLine
 62
7
  6
CONTINUOUS
 10
1.046598196
 20
8.5219019276
 11
1.046598196
 21
8.4990315666
  0
LINE
  5
40C
100
AcDbEntity
  8
0
100
AcDbLine
 62
7
  6
CONTINUOUS
 10
1.0656819863
 20
8.5059892312
 11
1.0656819863
 21
8.5219019276
  0
LINE
  5
40D
100
AcDbEntity
  8
0
100
AcDbLine
 62
7
  6
CONTINUOUS
 10
1.0721100071
 20
8.5219019276
 11
1.0721100071
 21
8.5059892312
  0
LINE
  5
40E
100
AcDbEntity
  8
0
100
AcDbLine
 62
7
  6
CONTINUOUS
 10
1.0996690622
 20
8.5059892312
 11
1.0996690622
 21
8.5219019276
  0
LINE
  5
40F
100
AcDbEntity
  8
0
100
AcDbLine
 62
7
  6
CONTINUOUS
 10
1.1062545633
 20
8.5219019276
 11
1.1062545633
 21
8.5059892312
  0
LINE
  5
410
100
AcDbEntity
  8
0
100
AcDbLine
 62
7
  6
CONTINUOUS
 10
1.0075287419
 20
8.5059892312
 11
1.0073784296
 21
8.5041853922
  0
LINE
  5
411
100
AcDbEntity
  8
0
100
AcDbLine
 62
7
  6
CONTINUOUS
 10
1.1059539387
 20
8.5059892312
 11
1.1058036264
 21
8.5041853922
  0
LINE
  5
412
100
AcDbEntity
  8
0
100
AcDbLine
 62
7
  6
CONTINUOUS
 10
1.1630693183
 20
8.4992678007
 11
1.16455812
 21
8.5041853922
  0
LINE
  5
413
100
AcDbEntity
  8
0
100
AcDbLine
 62
7
  6
CONTINUOUS
 10
1.0661329231
 20
8.5041853922
 11
1.0659826108
 21
8.5059892312
  0
LINE
  5
414
100
AcDbEntity
  8
0
100
AcDbLine
 62
7
  6
CONTINUOUS
 10
1.16455812
 20
8.5041853922
 11
1.1644078077
 21
8.5059892312
  0
LINE
  5
415
100
AcDbEntity
  8
0
100
AcDbLine
 62
7
  6
CONTINUOUS
 10
1.1253383535
 20
8.4990315666
 11
1.1253383535
 21
8.5219019276
  0
LINE
  5
416
100
AcDbEntity
  8
0
100
AcDbLine
 62
7
  6
CONTINUOUS
 10
1.1450233929
 20
8.5219019276
 11
1.1450233929
 21
8.4990315666
  0
LINE
  5
417
100
AcDbEntity
  8
0
100
AcDbLine
 62
7
  6
CONTINUOUS
 10
1.1641071831
 20
8.5059892312
 11
1.1641071831
 21
8.5219019276
  0
LINE
  5
418
100
AcDbEntity
  8
0
100
AcDbLine
 62
7
  6
CONTINUOUS
 10
1.1705352039
 20
8.5219019276
 11
1.1705352039
 21
8.5059892312
  0
LINE
  5
419
100
AcDbEntity
  8
0
100
AcDbLine
 62
7
  6
CONTINUOUS
 10
1.198094259
 20
8.5059892312
 11
1.198094259
 21
8.5219019276
  0
LINE
  5
41A
100
AcDbEntity
  8
0
100
AcDbLine
 62
7
  6
CONTINUOUS
 10
1.2046797601
 20
8.5219019276
 11
1.2046797601
 21
8.5059892312
  0
LINE
  5
41B
100
AcDbEntity
  8
0
100
AcDbLine
 62
7
  6
CONTINUOUS
 10
1.2237635504
 20
8.4990315666
 11
1.2237635504
 21
8.5219019276
  0
LINE
  5
41C
100
AcDbEntity
  8
0
100
AcDbLine
 62
7
  6
CONTINUOUS
 10
1.2043791356
 20
8.5059892312
 11
1.2042288233
 21
8.5041853922
  0
LINE
  5
41D
100
AcDbEntity
  8
0
100
AcDbLine
 62
7
  6
CONTINUOUS
 10
0.7119525267
 20
8.5041853922
 11
0.7136703814
 21
8.4990315666
  0
LINE
  5
41E
100
AcDbEntity
  8
0
100
AcDbLine
 62
7
  6
CONTINUOUS
 10
0.8105280359
 20
8.5041853922
 11
0.8120168375
 21
8.4992678007
  0
LINE
  5
41F
100
AcDbEntity
  8
0
100
AcDbLine
 62
7
  6
CONTINUOUS
 10
0.9089532327
 20
8.5041853922
 11
0.9104420344
 21
8.4992678007
  0
LINE
  5
420
100
AcDbEntity
  8
0
100
AcDbLine
 62
7
  6
CONTINUOUS
 10
1.6355102632
 20
8.4992678007
 11
1.6369990649
 21
8.5041853922
  0
LINE
  5
421
100
AcDbEntity
  8
0
100
AcDbLine
 62
6
  6
CONTINUOUS
 10
0.592282325
 20
7.3313638977
 11
0.5723872154
 21
7.3114687844
  0
LINE
  5
422
100
AcDbEntity
  8
0
100
AcDbLine
 62
7
  6
CONTINUOUS
 10
1.0073784296
 20
8.5041853922
 11
1.0088672312
 21
8.4992678007
  0
LINE
  5
423
100
AcDbEntity
  8
0
100
AcDbLine
 62
7
  6
CONTINUOUS
 10
1.1058036264
 20
8.5041853922
 11
1.1072924281
 21
8.4992678007
  0
LINE
  5
424
100
AcDbEntity
  8
0
100
AcDbLine
 62
7
  6
CONTINUOUS
 10
1.6174643378
 20
8.5219019276
 11
1.6174643378
 21
8.4990315666
  0
LINE
  5
425
100
AcDbEntity
  8
0
100
AcDbLine
 62
7
  6
CONTINUOUS
 10
1.636548128
 20
8.5059892312
 11
1.636548128
 21
8.5219019276
  0
LINE
  5
426
100
AcDbEntity
  8
0
100
AcDbLine
 62
7
  6
CONTINUOUS
 10
1.677120705
 20
8.5219019276
 11
1.677120705
 21
8.5059892312
  0
LINE
  5
427
100
AcDbEntity
  8
0
100
AcDbLine
 62
7
  6
CONTINUOUS
 10
1.6768200804
 20
8.5059892312
 11
1.6766697682
 21
8.5041853922
  0
LINE
  5
428
100
AcDbEntity
  8
0
100
AcDbLine
 62
7
  6
CONTINUOUS
 10
1.8717307356
 20
8.4992678007
 11
1.8732195373
 21
8.5041853922
  0
LINE
  5
429
100
AcDbEntity
  8
0
100
AcDbLine
 62
6
  6
CONTINUOUS
 10
0.59279259
 20
7.2925074569
 11
0.6119656754
 21
7.3116805423
  0
LINE
  5
42A
100
AcDbEntity
  8
0
100
AcDbLine
 62
7
  6
CONTINUOUS
 10
1.2042288233
 20
8.5041853922
 11
1.2057176249
 21
8.4992678007
  0
LINE
  5
42B
100
AcDbEntity
  8
0
100
AcDbLine
 62
7
  6
CONTINUOUS
 10
1.6369990649
 20
8.5041853922
 11
1.6368487526
 21
8.5059892312
  0
LINE
  5
42C
100
AcDbEntity
  8
0
100
AcDbLine
 62
7
  6
CONTINUOUS
 10
1.6962044952
 20
8.4990315666
 11
1.6962044952
 21
8.5219019276
  0
LINE
  5
42D
100
AcDbEntity
  8
0
100
AcDbLine
 62
7
  6
CONTINUOUS
 10
1.8536848102
 20
8.5219019276
 11
1.8536848102
 21
8.4990315666
  0
LINE
  5
42E
100
AcDbEntity
  8
0
100
AcDbLine
 62
7
  6
CONTINUOUS
 10
1.8727686004
 20
8.5059892312
 11
1.8727686004
 21
8.5219019276
  0
LINE
  5
42F
100
AcDbEntity
  8
0
100
AcDbLine
 62
7
  6
CONTINUOUS
 10
1.9130405529
 20
8.5059892312
 11
1.9128902406
 21
8.5041853922
  0
LINE
  5
430
100
AcDbEntity
  8
0
100
AcDbLine
 62
7
  6
CONTINUOUS
 10
1.8732195373
 20
8.5041853922
 11
1.873069225
 21
8.5059892312
  0
LINE
  5
431
100
AcDbEntity
  8
0
100
AcDbLine
 62
7
  6
CONTINUOUS
 10
1.9133411774
 20
8.5219019276
 11
1.9133411774
 21
8.5059892312
  0
LINE
  5
432
100
AcDbEntity
  8
0
100
AcDbLine
 62
7
  6
CONTINUOUS
 10
1.9324249677
 20
8.4990315666
 11
1.9324249677
 21
8.5219019276
  0
LINE
  5
433
100
AcDbEntity
  8
0
100
AcDbLine
 62
6
  6
CONTINUOUS
 10
1.9844721711
 20
7.2925483891
 11
1.9844724168
 21
6.4256437022
  0
LINE
  5
434
100
AcDbEntity
  8
0
100
AcDbLine
 62
6
  6
CONTINUOUS
 10
2.0232441298
 20
7.2722262053
 11
2.0232441298
 21
6.465010408
  0
LINE
  5
435
100
AcDbEntity
  8
0
100
AcDbLine
 62
7
  6
CONTINUOUS
 10
2.0444199602
 20
7.2706540873
 11
2.0444199602
 21
6.4632963221
  0
LINE
  5
436
100
AcDbEntity
  8
0
100
AcDbLine
 62
7
  6
CONTINUOUS
 10
2.0638065094
 20
6.4627994169
 11
2.0638065094
 21
7.2903373979
  0
LINE
  5
437
100
AcDbEntity
  8
0
100
AcDbLine
 62
6
  6
CONTINUOUS
 10
0.5723872154
 20
6.5043771148
 11
0.5643147315
 21
6.4963046306
  0
LINE
  5
438
100
AcDbEntity
  8
0
100
AcDbLine
 62
6
  6
CONTINUOUS
 10
1.9844721711
 20
6.4256437022
 11
2.0142536166
 21
6.4234327128
  0
LINE
  5
439
100
AcDbEntity
  8
0
100
AcDbLine
 62
6
  6
CONTINUOUS
 10
2.9488990278
 20
6.4234327128
 11
2.9722244298
 21
6.4217010274
  0
LINE
  5
43A
100
AcDbEntity
  8
0
100
AcDbLine
 62
6
  6
CONTINUOUS
 10
2.0444199602
 20
6.4632963221
 11
2.0232441298
 21
6.465010408
  0
LINE
  5
43B
100
AcDbEntity
  8
0
100
AcDbLine
 62
6
  6
CONTINUOUS
 10
0.5643147315
 20
8.5041853922
 11
0.592282325
 21
8.4762177987
  0
LINE
  5
43C
100
AcDbEntity
  8
0
100
AcDbLine
 62
7
  6
CONTINUOUS
 10
1.6766697682
 20
8.5041853922
 11
1.6781585698
 21
8.4992678007
  0
LINE
  5
43D
100
AcDbEntity
  8
0
100
AcDbLine
 62
6
  6
CONTINUOUS
 10
2.2603698496
 20
6.5453428725
 11
2.2603698496
 21
7.1953428725
  0
LINE
  5
43E
100
AcDbEntity
  8
0
100
AcDbLine
 62
6
  6
CONTINUOUS
 10
0.6430481431
 20
6.417571219
 11
0.6511206265
 21
6.4256437022
  0
LINE
  5
43F
100
AcDbEntity
  8
0
100
AcDbLine
 62
6
  6
CONTINUOUS
 10
5.5938482293
 20
6.417571219
 11
0.64304895
 21
6.417571219
  0
LINE
  5
440
100
AcDbEntity
  8
0
100
AcDbLine
 62
6
  6
CONTINUOUS
 10
5.5897192278
 20
6.4217010274
 11
2.9722244298
 21
6.4217010274
  0
LINE
  5
441
100
AcDbEntity
  8
0
100
AcDbLine
 62
6
  6
CONTINUOUS
 10
2.9488990278
 20
6.4234327128
 11
2.0142536166
 21
6.4234327128
  0
LINE
  5
442
100
AcDbEntity
  8
0
100
AcDbLine
 62
6
  6
CONTINUOUS
 10
1.9844721711
 20
6.4256437022
 11
0.6511206265
 21
6.4256437022
  0
LINE
  5
443
100
AcDbEntity
  8
0
100
AcDbLine
 62
6
  6
CONTINUOUS
 10
3.0217773226
 20
6.4610677314
 11
5.5897184701
 21
6.4610677314
  0
LINE
  5
444
100
AcDbEntity
  8
0
100
AcDbLine
 62
7
  6
CONTINUOUS
 10
3.0217773226
 20
6.4617065624
 11
3.002390916
 21
6.4617065624
  0
LINE
  5
445
100
AcDbEntity
  8
0
100
AcDbLine
 62
6
  6
CONTINUOUS
 10
2.0638065094
 20
6.4627994169
 11
2.9876710097
 21
6.4627994849
  0
LINE
  5
446
100
AcDbEntity
  8
0
100
AcDbLine
 62
6
  6
CONTINUOUS
 10
0.651121336
 20
6.465010408
 11
2.0232441298
 21
6.4650103923
  0
LINE
  5
447
100
AcDbEntity
  8
0
100
AcDbLine
 62
6
  6
CONTINUOUS
 10
2.0638065094
 20
6.4955965873
 11
2.0444199602
 21
6.4955965873
  0
LINE
  5
448
100
AcDbEntity
  8
0
100
AcDbLine
 62
6
  6
CONTINUOUS
 10
5.6290859355
 20
6.5004344392
 11
5.6684526413
 21
6.5004344392
  0
LINE
  5
449
100
AcDbEntity
  8
0
100
AcDbLine
 62
7
  6
CONTINUOUS
 10
2.0638065094
 20
6.501403168
 11
2.0444199602
 21
6.501403168
  0
LINE
  5
44A
100
AcDbEntity
  8
0
100
AcDbLine
 62
6
  6
CONTINUOUS
 10
0.5723872154
 20
6.5043771144
 11
0.6117539205
 21
6.5043771144
  0
LINE
  5
44B
100
AcDbEntity
  8
0
100
AcDbLine
 62
6
  6
CONTINUOUS
 10
2.0638065094
 20
6.5167755615
 11
2.0444199602
 21
6.5167755615
  0
LINE
  5
44C
100
AcDbEntity
  8
0
100
AcDbLine
 62
7
  6
CONTINUOUS
 10
2.0444199602
 20
6.521086521
 11
2.0638065094
 21
6.521086521
  0
LINE
  5
44D
100
AcDbEntity
  8
0
100
AcDbLine
 62
7
  6
CONTINUOUS
 10
2.7954092197
 20
6.5453428725
 11
2.2603698496
 21
6.5453428725
  0
LINE
  5
44E
100
AcDbEntity
  8
0
100
AcDbLine
 62
7
  6
CONTINUOUS
 10
2.0444222089
 20
6.4630122886
 11
2.0638030012
 21
6.4627994169
  0
LINE
  5
44F
100
AcDbEntity
  8
0
100
AcDbLine
 62
7
  6
CONTINUOUS
 10
3.0023908468
 20
6.4612806271
 11
3.0217738144
 21
6.4610677315
  0
LINE
  5
450
100
AcDbEntity
  8
0
100
AcDbLine
 62
6
  6
CONTINUOUS
 10
2.9876710097
 20
6.4627994169
 11
3.0023909159
 21
6.4616001179
  0
LINE
  5
451
100
AcDbEntity
  8
0
100
AcDbLine
 62
7
  6
CONTINUOUS
 10
1.9128902406
 20
8.5041853922
 11
1.9143790423
 21
8.4992678007
  0
LINE
  5
452
100
AcDbEntity
  8
0
100
AcDbLine
 62
6
  6
CONTINUOUS
 10
2.7954092197
 20
7.1953428725
 11
2.7954092197
 21
6.5453428725
  0
LINE
  5
453
100
AcDbEntity
  8
0
100
AcDbLine
 62
6
  6
CONTINUOUS
 10
3.5502028563
 20
8.4881050131
 11
3.5443586977
 21
8.4822608545
  0
LINE
  5
454
100
AcDbEntity
  8
0
100
AcDbLine
 62
6
  6
CONTINUOUS
 10
3.4774863715
 20
8.4153885283
 11
3.460088837
 21
8.3979909938
  0
LINE
  5
455
100
AcDbEntity
  8
0
100
AcDbLine
 62
7
  6
CONTINUOUS
 10
5.7988971184
 20
7.3190892227
 11
5.7994952383
 21
7.3191344288
  0
LINE
  5
456
100
AcDbEntity
  8
0
100
AcDbLine
 62
6
  6
CONTINUOUS
 10
5.7671795417
 20
7.3167286986
 11
5.7988971184
 21
7.3190892227
  0
LINE
  5
457
100
AcDbEntity
  8
0
100
AcDbLine
 62
6
  6
CONTINUOUS
 10
5.7809685679
 20
7.2994582096
 11
5.6470409176
 21
7.2895711288
  0
LINE
  5
458
100
AcDbEntity
  8
0
100
AcDbLine
 62
6
  6
CONTINUOUS
 10
2.9488990509
 20
6.4234327128
 11
2.9488990509
 21
7.2903373979
  0
LINE
  5
459
100
AcDbEntity
  8
0
100
AcDbLine
 62
6
  6
CONTINUOUS
 10
2.9876710097
 20
7.2700152141
 11
2.9876710097
 21
6.4627994169
  0
LINE
  5
45A
100
AcDbEntity
  8
0
100
AcDbLine
 62
6
  6
CONTINUOUS
 10
3.0023909159
 20
6.4616001179
 11
3.0023909159
 21
7.2689223914
  0
LINE
  5
45B
100
AcDbEntity
  8
0
100
AcDbLine
 62
7
  6
CONTINUOUS
 10
3.1905496327
 20
8.4990315666
 11
3.1922674874
 21
8.5041853922
  0
LINE
  5
45C
100
AcDbEntity
  8
0
100
AcDbLine
 62
7
  6
CONTINUOUS
 10
3.4919964929
 20
8.2183586206
 11
3.4986894063
 21
8.2250515339
  0
LINE
  5
45D
100
AcDbEntity
  8
0
100
AcDbLine
 62
7
  6
CONTINUOUS
 10
3.8183051134
 20
8.1137818489
 11
3.8133555023
 21
8.1119363765
  0
LINE
  5
45E
100
AcDbEntity
  8
0
100
AcDbLine
 62
6
  6
CONTINUOUS
 10
5.6485253014
 20
7.2896254698
 11
5.6470409176
 21
7.2895711288
  0
LINE
  5
45F
100
AcDbEntity
  8
0
100
AcDbLine
 62
7
  6
CONTINUOUS
 10
5.779511139
 20
7.2994058698
 11
5.7809685679
 21
7.2994582096
  0
LINE
  5
460
100
AcDbEntity
  8
0
100
AcDbLine
 62
6
  6
CONTINUOUS
 10
0.6265539855
 20
7.3119260817
 11
0.8858039539
 21
7.3128354391
  0
LINE
  5
461
100
AcDbEntity
  8
0
100
AcDbLine
 62
6
  6
CONTINUOUS
 10
0.6214593046
 20
7.3316094353
 11
0.8832123693
 21
7.3325231823
  0
LINE
  5
462
100
AcDbEntity
  8
0
100
AcDbLine
 62
6
  6
CONTINUOUS
 10
2.2603698496
 20
7.1953428725
 11
2.7954092197
 21
7.1953428725
  0
LINE
  5
463
100
AcDbEntity
  8
0
100
AcDbLine
 62
6
  6
CONTINUOUS
 10
5.6290859355
 20
7.2689223596
 11
3.4288683809
 21
7.2689223596
  0
LINE
  5
464
100
AcDbEntity
  8
0
100
AcDbLine
 62
6
  6
CONTINUOUS
 10
3.231257145
 20
7.2689223596
 11
3.0217773226
 21
7.2689223596
  0
LINE
  5
465
100
AcDbEntity
  8
0
100
AcDbLine
 62
7
  6
CONTINUOUS
 10
3.002390916
 20
7.2689223596
 11
3.0217773226
 21
7.2689223596
  0
LINE
  5
466
100
AcDbEntity
  8
0
100
AcDbLine
 62
6
  6
CONTINUOUS
 10
2.9488990509
 20
7.270654045
 11
2.0638065094
 21
7.270654045
  0
LINE
  5
467
100
AcDbEntity
  8
0
100
AcDbLine
 62
6
  6
CONTINUOUS
 10
1.9844721711
 20
7.2728650362
 11
0.6117539205
 21
7.2728650362
  0
LINE
  5
468
100
AcDbEntity
  8
0
100
AcDbLine
 62
6
  6
CONTINUOUS
 10
3.0217773226
 20
7.2886057125
 11
3.2423832286
 21
7.2886057125
  0
LINE
  5
469
100
AcDbEntity
  8
0
100
AcDbLine
 62
6
  6
CONTINUOUS
 10
3.4177422973
 20
7.2886057125
 11
5.6290859355
 21
7.2886057125
  0
LINE
  5
46A
100
AcDbEntity
  8
0
100
AcDbLine
 62
6
  6
CONTINUOUS
 10
2.0638065094
 20
7.2903373979
 11
2.9489011196
 21
7.2903373979
  0
LINE
  5
46B
100
AcDbEntity
  8
0
100
AcDbLine
 62
6
  6
CONTINUOUS
 10
0.6117539205
 20
7.2925483891
 11
1.9844742398
 21
7.2925483891
  0
LINE
  5
46C
100
AcDbEntity
  8
0
100
AcDbLine
 62
6
  6
CONTINUOUS
 10
3.4980489459
 20
7.3128354391
 11
3.4292985425
 21
7.3128354391
  0
LINE
  5
46D
100
AcDbEntity
  8
0
100
AcDbLine
 62
6
  6
CONTINUOUS
 10
3.2308269834
 20
7.3128354391
 11
0.8858039539
 21
7.3128354391
  0
LINE
  5
46E
100
AcDbEntity
  8
0
100
AcDbLine
 62
6
  6
CONTINUOUS
 10
3.4377780189
 20
7.332518792
 11
3.4980483599
 21
7.332518792
  0
LINE
  5
46F
100
AcDbEntity
  8
0
100
AcDbLine
 62
6
  6
CONTINUOUS
 10
0.8832123693
 20
7.3325209872
 11
3.2223954755
 21
7.3325209872
  0
LINE
  5
470
100
AcDbEntity
  8
0
100
AcDbLine
 62
6
  6
CONTINUOUS
 10
3.5735507386
 20
7.3047746464
 11
5.7635539869
 21
7.2997043694
  0
LINE
  5
471
100
AcDbEntity
  8
0
100
AcDbLine
 62
6
  6
CONTINUOUS
 10
5.7669816485
 20
7.3193877236
 11
3.5769806201
 21
7.3244579955
  0
LINE
  5
472
100
AcDbEntity
  8
0
100
AcDbLine
 62
6
  6
CONTINUOUS
 10
2.0232441298
 20
7.2722262053
 11
2.0444199602
 21
7.2706540873
  0
LINE
  5
473
100
AcDbEntity
  8
0
100
AcDbLine
 62
6
  6
CONTINUOUS
 10
2.0638065094
 20
7.2903373979
 11
2.0426306958
 21
7.2919095146
  0
LINE
  5
474
100
AcDbEntity
  8
0
100
AcDbLine
 62
7
  6
CONTINUOUS
 10
2.9876710097
 20
7.2700152141
 11
3.0023909159
 21
7.2689223914
  0
LINE
  5
475
100
AcDbEntity
  8
0
100
AcDbLine
 62
7
  6
CONTINUOUS
 10
3.0217773226
 20
7.2886057125
 11
3.0070575755
 21
7.2896985234
  0
LINE
  5
476
100
AcDbEntity
  8
0
100
AcDbLine
 62
6
  6
CONTINUOUS
 10
3.0217773226
 20
7.2689223596
 11
3.0217773226
 21
6.4610677314
  0
LINE
  5
477
100
AcDbEntity
  8
0
100
AcDbLine
 62
7
  6
CONTINUOUS
 10
3.0217773226
 20
7.2689223596
 11
3.0217773226
 21
7.2886057125
  0
LINE
  5
478
100
AcDbEntity
  8
0
100
AcDbLine
 62
7
  6
CONTINUOUS
 10
3.1905496327
 20
8.5452733256
 11
3.1905496327
 21
8.4990315666
  0
LINE
  5
479
100
AcDbEntity
  8
0
100
AcDbLine
 62
7
  6
CONTINUOUS
 10
3.1922674874
 20
8.543555471
 11
3.1922674874
 21
8.5041853922
  0
LINE
  5
47A
100
AcDbEntity
  8
0
100
AcDbLine
 62
6
  6
CONTINUOUS
 10
3.1165116342
 20
8.5829255497
 11
3.1133128896
 21
8.5219019276
  0
LINE
  5
47B
100
AcDbEntity
  8
0
100
AcDbLine
 62
7
  6
CONTINUOUS
 10
3.5562332754
 20
8.0216944874
 11
3.5444704033
 21
8.0099316153
  0
LINE
  5
47C
100
AcDbEntity
  8
0
100
AcDbLine
 62
7
  6
CONTINUOUS
 10
3.8220173195
 20
8.1165500576
 11
3.8183051134
 21
8.1137818489
  0
LINE
  5
47D
100
AcDbEntity
  8
0
100
AcDbLine
 62
6
  6
CONTINUOUS
 10
3.5769806201
 20
7.3660675331
 11
3.5444704033
 21
7.3660675331
  0
LINE
  5
47E
100
AcDbEntity
  8
0
100
AcDbLine
 62
6
  6
CONTINUOUS
 10
3.5769806201
 20
7.3827251653
 11
3.5444704033
 21
7.3828004327
  0
LINE
  5
47F
100
AcDbEntity
  8
0
100
AcDbLine
 62
7
  6
CONTINUOUS
 10
5.691363242
 20
7.378876726
 11
5.5916622078
 21
7.379107553
  0
LINE
  5
480
100
AcDbEntity
  8
0
100
AcDbLine
 62
7
  6
CONTINUOUS
 10
5.4735519716
 20
7.3793810008
 11
5.3738110463
 21
7.3796119201
  0
LINE
  5
481
100
AcDbEntity
  8
0
100
AcDbLine
 62
7
  6
CONTINUOUS
 10
5.196645692
 20
7.3800220919
 11
5.0969047667
 21
7.3802530112
  0
LINE
  5
482
100
AcDbEntity
  8
0
100
AcDbLine
 62
7
  6
CONTINUOUS
 10
4.9787945304
 20
7.380526459
 11
4.8790536051
 21
7.3807573784
  0
LINE
  5
483
100
AcDbEntity
  8
0
100
AcDbLine
 62
7
  6
CONTINUOUS
 10
4.7018882508
 20
7.3811675501
 11
4.6021473255
 21
7.3813984695
  0
LINE
  5
484
100
AcDbEntity
  8
0
100
AcDbLine
 62
7
  6
CONTINUOUS
 10
4.4840370893
 20
7.3816719173
 11
4.3842961639
 21
7.3819028366
  0
LINE
  5
485
100
AcDbEntity
  8
0
100
AcDbLine
 62
7
  6
CONTINUOUS
 10
4.2071308096
 20
7.3823130084
 11
4.1073898843
 21
7.3825439277
  0
LINE
  5
486
100
AcDbEntity
  8
0
100
AcDbLine
 62
7
  6
CONTINUOUS
 10
3.9892796481
 20
7.3828173755
 11
3.8895387228
 21
7.3830482949
  0
LINE
  5
487
100
AcDbEntity
  8
0
100
AcDbLine
 62
6
  6
CONTINUOUS
 10
3.2050905281
 20
8.5438072459
 11
3.2052218624
 21
8.5337746177
  0
LINE
  5
488
100
AcDbEntity
  8
0
100
AcDbLine
 62
6
  6
CONTINUOUS
 10
3.2047339035
 20
8.5140279119
 11
3.2044121288
 21
8.5397820323
  0
LINE
  5
489
100
AcDbEntity
  8
0
100
AcDbLine
 62
7
  6
CONTINUOUS
 10
3.2052218624
 20
8.5337746177
 11
3.2054647083
 21
8.5140279119
  0
LINE
  5
48A
100
AcDbEntity
  8
0
100
AcDbLine
 62
6
  6
CONTINUOUS
 10
3.2436866224
 20
8.6220379592
 11
3.2436710232
 21
8.6419806678
  0
LINE
  5
48B
100
AcDbEntity
  8
0
100
AcDbLine
 62
7
  6
CONTINUOUS
 10
3.2299197115
 20
8.5777717241
 11
3.2299197115
 21
8.5452733256
  0
LINE
  5
48C
100
AcDbEntity
  8
0
100
AcDbLine
 62
7
  6
CONTINUOUS
 10
3.2316375661
 20
8.5829255497
 11
3.2316375661
 21
8.543555471
  0
LINE
  5
48D
100
AcDbEntity
  8
0
100
AcDbLine
 62
7
  6
CONTINUOUS
 10
3.2442107564
 20
8.5438075416
 11
3.2442111622
 21
8.5829255497
  0
LINE
  5
48E
100
AcDbEntity
  8
0
100
AcDbLine
 62
7
  6
CONTINUOUS
 10
3.2829884837
 20
8.5825902879
 11
3.282988381
 21
8.5726878245
  0
LINE
  5
48F
100
AcDbEntity
  8
0
100
AcDbLine
 62
7
  6
CONTINUOUS
 10
3.3019243391
 20
8.5727255196
 11
3.3019242368
 21
8.5825888752
  0
LINE
  5
490
100
AcDbEntity
  8
0
100
AcDbLine
 62
7
  6
CONTINUOUS
 10
3.3399052826
 20
8.4748085862
 11
3.3399052826
 21
8.0317444473
  0
LINE
  5
491
100
AcDbEntity
  8
0
100
AcDbLine
 62
6
  6
CONTINUOUS
 10
3.3542012174
 20
8.0411932662
 11
3.3542012174
 21
8.0959610244
  0
LINE
  5
492
100
AcDbEntity
  8
0
100
AcDbLine
 62
6
  6
CONTINUOUS
 10
3.3542012174
 20
8.4391814136
 11
3.3542012174
 21
8.4939491717
  0
LINE
  5
493
100
AcDbEntity
  8
0
100
AcDbLine
 62
6
  6
CONTINUOUS
 10
3.3738862567
 20
8.0411932662
 11
3.3738862567
 21
8.1446381875
  0
LINE
  5
494
100
AcDbEntity
  8
0
100
AcDbLine
 62
6
  6
CONTINUOUS
 10
3.3738862567
 20
8.3905042505
 11
3.3738862567
 21
8.4939491717
  0
LINE
  5
495
100
AcDbEntity
  8
0
100
AcDbLine
 62
7
  6
CONTINUOUS
 10
3.2435412583
 20
8.5140286126
 11
3.2435568566
 21
8.5334552859
  0
LINE
  5
496
100
AcDbEntity
  8
0
100
AcDbLine
 62
7
  6
CONTINUOUS
 10
3.8257295348
 20
8.1211637387
 11
3.8220173195
 21
8.1165500576
  0
LINE
  5
497
100
AcDbEntity
  8
0
100
AcDbLine
 62
7
  6
CONTINUOUS
 10
5.3549906134
 20
8.0313507465
 11
5.3262028118
 21
8.0270432974
  0
LINE
  5
498
100
AcDbEntity
  8
0
100
AcDbLine
 62
6
  6
CONTINUOUS
 10
3.5177317178
 20
7.312581116
 11
3.5247870517
 21
7.3055257821
  0
LINE
  5
499
100
AcDbEntity
  8
0
100
AcDbLine
 62
6
  6
CONTINUOUS
 10
3.5444704033
 20
7.3252091362
 11
3.5374150658
 21
7.3322644738
  0
LINE
  5
49A
100
AcDbEntity
  8
0
100
AcDbLine
 62
6
  6
CONTINUOUS
 10
3.4014453118
 20
8.4939491717
 11
3.4014453118
 21
8.0411932662
  0
LINE
  5
49B
100
AcDbEntity
  8
0
100
AcDbLine
 62
7
  6
CONTINUOUS
 10
3.4112878315
 20
8.4939491717
 11
3.4112878315
 21
8.0411932662
  0
LINE
  5
49C
100
AcDbEntity
  8
0
100
AcDbLine
 62
7
  6
CONTINUOUS
 10
3.4427838945
 20
8.2250515339
 11
3.4427838945
 21
8.310090904
  0
LINE
  5
49D
100
AcDbEntity
  8
0
100
AcDbLine
 62
7
  6
CONTINUOUS
 10
3.4544252026
 20
8.4261600239
 11
3.4544252026
 21
8.4640937779
  0
LINE
  5
49E
100
AcDbEntity
  8
0
100
AcDbLine
 62
7
  6
CONTINUOUS
 10
3.4546657023
 20
8.4648153135
 11
3.4546657023
 21
8.4751951231
  0
LINE
  5
49F
100
AcDbEntity
  8
0
100
AcDbLine
 62
7
  6
CONTINUOUS
 10
3.460088837
 20
8.3979909938
 11
3.460088837
 21
8.310090904
  0
LINE
  5
4A0
100
AcDbEntity
  8
0
100
AcDbLine
 62
7
  6
CONTINUOUS
 10
3.460088837
 20
8.2250515339
 11
3.460088837
 21
8.0317444473
  0
LINE
  5
4A1
100
AcDbEntity
  8
0
100
AcDbLine
 62
7
  6
CONTINUOUS
 10
3.4676926842
 20
8.5039885418
 11
3.4676926842
 21
8.4939491717
  0
LINE
  5
4A2
100
AcDbEntity
  8
0
100
AcDbLine
 62
7
  6
CONTINUOUS
 10
3.4676926842
 20
8.4751951231
 11
3.4676926842
 21
8.4153885283
  0
LINE
  5
4A3
100
AcDbEntity
  8
0
100
AcDbLine
 62
7
  6
CONTINUOUS
 10
3.4774863715
 20
8.0315475969
 11
3.4774863715
 21
8.2250515339
  0
LINE
  5
4A4
100
AcDbEntity
  8
0
100
AcDbLine
 62
7
  6
CONTINUOUS
 10
3.4774863715
 20
8.310090904
 11
3.4774863715
 21
8.4153885283
  0
LINE
  5
4A5
100
AcDbEntity
  8
0
100
AcDbLine
 62
7
  6
CONTINUOUS
 10
3.4919964929
 20
8.0411932662
 11
3.4919964929
 21
8.2183586206
  0
LINE
  5
4A6
100
AcDbEntity
  8
0
100
AcDbLine
 62
7
  6
CONTINUOUS
 10
3.4919964929
 20
8.3167838174
 11
3.4919964929
 21
8.4939491717
  0
LINE
  5
4A7
100
AcDbEntity
  8
0
100
AcDbLine
 62
7
  6
CONTINUOUS
 10
3.4980483599
 20
7.332518792
 11
3.4980483599
 21
7.3128354391
  0
LINE
  5
4A8
100
AcDbEntity
  8
0
100
AcDbLine
 62
6
  6
CONTINUOUS
 10
3.4980483599
 20
7.332518792
 11
3.4980483599
 21
8.0317444473
  0
LINE
  5
4A9
100
AcDbEntity
  8
0
100
AcDbLine
 62
6
  6
CONTINUOUS
 10
3.4986894063
 20
8.0411932662
 11
3.4986894063
 21
8.2250515339
  0
LINE
  5
4AA
100
AcDbEntity
  8
0
100
AcDbLine
 62
6
  6
CONTINUOUS
 10
3.4986894063
 20
8.310090904
 11
3.4986894063
 21
8.4939491717
  0
LINE
  5
4AB
100
AcDbEntity
  8
0
100
AcDbLine
 62
6
  6
CONTINUOUS
 10
3.5374150658
 20
8.0322530837
 11
3.5374150658
 21
7.3322644738
  0
LINE
  5
4AC
100
AcDbEntity
  8
0
100
AcDbLine
 62
7
  6
CONTINUOUS
 10
3.5378016027
 20
8.0326396207
 11
3.5378016027
 21
8.0411932662
  0
LINE
  5
4AD
100
AcDbEntity
  8
0
100
AcDbLine
 62
7
  6
CONTINUOUS
 10
3.5443586977
 20
8.4939491717
 11
3.5443586977
 21
8.310090904
  0
LINE
  5
4AE
100
AcDbEntity
  8
0
100
AcDbLine
 62
7
  6
CONTINUOUS
 10
3.5443586977
 20
8.2250515339
 11
3.5443586977
 21
8.0411932662
  0
LINE
  5
4AF
100
AcDbEntity
  8
0
100
AcDbLine
 62
7
  6
CONTINUOUS
 10
3.5444704033
 20
8.0099316153
 11
3.5444704033
 21
7.3252091362
  0
LINE
  5
4B0
100
AcDbEntity
  8
0
100
AcDbLine
 62
7
  6
CONTINUOUS
 10
3.5505352039
 20
8.0313507465
 11
3.5505352039
 21
8.1494609828
  0
LINE
  5
4B1
100
AcDbEntity
  8
0
100
AcDbLine
 62
7
  6
CONTINUOUS
 10
3.5505352039
 20
8.3856814552
 11
3.5505352039
 21
8.5037916914
  0
LINE
  5
4B2
100
AcDbEntity
  8
0
100
AcDbLine
 62
7
  6
CONTINUOUS
 10
3.5562332754
 20
8.3856814552
 11
3.5562332754
 21
8.310090904
  0
LINE
  5
4B3
100
AcDbEntity
  8
0
100
AcDbLine
 62
7
  6
CONTINUOUS
 10
3.5562332754
 20
8.2250515339
 11
3.5562332754
 21
8.1494609828
  0
LINE
  5
4B4
100
AcDbEntity
  8
0
100
AcDbLine
 62
7
  6
CONTINUOUS
 10
3.5562332754
 20
8.0315475969
 11
3.5562332754
 21
8.0216944874
  0
LINE
  5
4B5
100
AcDbEntity
  8
0
100
AcDbLine
 62
7
  6
CONTINUOUS
 10
3.5707366504
 20
8.4939491717
 11
3.5707366504
 21
8.3955239749
  0
LINE
  5
4B6
100
AcDbEntity
  8
0
100
AcDbLine
 62
7
  6
CONTINUOUS
 10
3.5707366504
 20
8.3856814552
 11
3.5707366504
 21
8.310090904
  0
LINE
  5
4B7
100
AcDbEntity
  8
0
100
AcDbLine
 62
7
  6
CONTINUOUS
 10
3.5707366504
 20
8.2250515339
 11
3.5707366504
 21
8.1494609828
  0
LINE
  5
4B8
100
AcDbEntity
  8
0
100
AcDbLine
 62
7
  6
CONTINUOUS
 10
3.5707366504
 20
8.1396184631
 11
3.5707366504
 21
8.0411932662
  0
LINE
  5
4B9
100
AcDbEntity
  8
0
100
AcDbLine
 62
7
  6
CONTINUOUS
 10
3.5769806201
 20
7.3244579955
 11
3.5769806201
 21
8.0104323757
  0
LINE
  5
4BA
100
AcDbEntity
  8
0
100
AcDbLine
 62
7
  6
CONTINUOUS
 10
3.4403017098
 20
8.0317444473
 11
3.4404054714
 21
8.3782652545
  0
LINE
  5
4BB
100
AcDbEntity
  8
0
100
AcDbLine
 62
7
  6
CONTINUOUS
 10
3.8895387228
 20
7.9324091037
 11
3.9892796481
 21
7.9326400231
  0
LINE
  5
4BC
100
AcDbEntity
  8
0
100
AcDbLine
 62
7
  6
CONTINUOUS
 10
4.1073898843
 20
7.9329134709
 11
4.2071308096
 21
7.9331443902
  0
LINE
  5
4BD
100
AcDbEntity
  8
0
100
AcDbLine
 62
7
  6
CONTINUOUS
 10
4.3842961639
 20
7.933554562
 11
4.4840370893
 21
7.9337854813
  0
LINE
  5
4BE
100
AcDbEntity
  8
0
100
AcDbLine
 62
7
  6
CONTINUOUS
 10
4.6021473255
 20
7.9340589291
 11
4.7018882508
 21
7.9342898485
  0
LINE
  5
4BF
100
AcDbEntity
  8
0
100
AcDbLine
 62
7
  6
CONTINUOUS
 10
4.8790536051
 20
7.9347000202
 11
4.9787945304
 21
7.9349309396
  0
LINE
  5
4C0
100
AcDbEntity
  8
0
100
AcDbLine
 62
7
  6
CONTINUOUS
 10
5.0969047667
 20
7.9352043874
 11
5.196645692
 21
7.9354353067
  0
LINE
  5
4C1
100
AcDbEntity
  8
0
100
AcDbLine
 62
7
  6
CONTINUOUS
 10
5.3738110463
 20
7.9358454785
 11
5.4735519716
 21
7.9360763978
  0
LINE
  5
4C2
100
AcDbEntity
  8
0
100
AcDbLine
 62
7
  6
CONTINUOUS
 10
5.5916622078
 20
7.9363498456
 11
5.691363242
 21
7.9365806726
  0
LINE
  5
4C3
100
AcDbEntity
  8
0
100
AcDbLine
 62
6
  6
CONTINUOUS
 10
3.5444704033
 20
7.9326569659
 11
3.5769806201
 21
7.9327322333
  0
LINE
  5
4C4
100
AcDbEntity
  8
0
100
AcDbLine
 62
6
  6
CONTINUOUS
 10
3.5893071627
 20
8.0313507465
 11
3.5893071627
 21
8.0411932662
  0
LINE
  5
4C5
100
AcDbEntity
  8
0
100
AcDbLine
 62
6
  6
CONTINUOUS
 10
3.5893071627
 20
8.1396184631
 11
3.5893071627
 21
8.1494609828
  0
LINE
  5
4C6
100
AcDbEntity
  8
0
100
AcDbLine
 62
6
  6
CONTINUOUS
 10
3.5893071627
 20
8.3856814552
 11
3.5893071627
 21
8.3955239749
  0
LINE
  5
4C7
100
AcDbEntity
  8
0
100
AcDbLine
 62
6
  6
CONTINUOUS
 10
3.5893071627
 20
8.4939491717
 11
3.5893071627
 21
8.5037916914
  0
LINE
  5
4C8
100
AcDbEntity
  8
0
100
AcDbLine
 62
7
  6
CONTINUOUS
 10
3.6002642095
 20
8.0411932662
 11
3.6002642095
 21
8.2250515339
  0
LINE
  5
4C9
100
AcDbEntity
  8
0
100
AcDbLine
 62
6
  6
CONTINUOUS
 10
3.6002642095
 20
8.2250515339
 11
3.6002642095
 21
8.310090904
  0
LINE
  5
4CA
100
AcDbEntity
  8
0
100
AcDbLine
 62
7
  6
CONTINUOUS
 10
3.6002642095
 20
8.310090904
 11
3.6002642095
 21
8.4939491717
  0
LINE
  5
4CB
100
AcDbEntity
  8
0
100
AcDbLine
 62
6
  6
CONTINUOUS
 10
3.6101067292
 20
8.4939491717
 11
3.6101067292
 21
8.0411932662
  0
LINE
  5
4CC
100
AcDbEntity
  8
0
100
AcDbLine
 62
7
  6
CONTINUOUS
 10
3.6317602725
 20
8.0411932662
 11
3.6317602725
 21
8.4939491717
  0
LINE
  5
4CD
100
AcDbEntity
  8
0
100
AcDbLine
 62
6
  6
CONTINUOUS
 10
3.6416027922
 20
8.4939491717
 11
3.6416027922
 21
8.0411932662
  0
LINE
  5
4CE
100
AcDbEntity
  8
0
100
AcDbLine
 62
6
  6
CONTINUOUS
 10
3.6691618473
 20
8.4939491717
 11
3.6691618473
 21
8.0411932662
  0
LINE
  5
4CF
100
AcDbEntity
  8
0
100
AcDbLine
 62
6
  6
CONTINUOUS
 10
3.6888468866
 20
8.0411932662
 11
3.6888468866
 21
8.4939491717
  0
LINE
  5
4D0
100
AcDbEntity
  8
0
100
AcDbLine
 62
6
  6
CONTINUOUS
 10
3.7584323523
 20
8.3856814552
 11
3.7584323523
 21
8.1494609828
  0
LINE
  5
4D1
100
AcDbEntity
  8
0
100
AcDbLine
 62
6
  6
CONTINUOUS
 10
3.7613633023
 20
8.5037916914
 11
3.7613633023
 21
8.3856814552
  0
LINE
  5
4D2
100
AcDbEntity
  8
0
100
AcDbLine
 62
6
  6
CONTINUOUS
 10
3.7613633023
 20
8.1494609828
 11
3.7613633023
 21
8.0313507465
  0
LINE
  5
4D3
100
AcDbEntity
  8
0
100
AcDbLine
 62
7
  6
CONTINUOUS
 10
3.7631308798
 20
8.1494609828
 11
3.7631308798
 21
8.3856814552
  0
LINE
  5
4D4
100
AcDbEntity
  8
0
100
AcDbLine
 62
7
  6
CONTINUOUS
 10
3.8269669307
 20
8.126700156
 11
3.8257295348
 21
8.1211637387
  0
LINE
  5
4D5
100
AcDbEntity
  8
0
100
AcDbLine
 62
7
  6
CONTINUOUS
 10
3.8133555023
 20
8.1119363765
 11
3.8096432962
 21
8.1110136402
  0
LINE
  5
4D6
100
AcDbEntity
  8
0
100
AcDbLine
 62
7
  6
CONTINUOUS
 10
3.8096432962
 20
8.1110136402
 11
3.8034562799
 21
8.110090904
  0
LINE
  5
4D7
100
AcDbEntity
  8
0
100
AcDbLine
 62
6
  6
CONTINUOUS
 10
3.5444704033
 20
7.9441713417
 11
3.5769806201
 21
7.9442466091
  0
LINE
  5
4D8
100
AcDbEntity
  8
0
100
AcDbLine
 62
7
  6
CONTINUOUS
 10
3.5769806201
 20
8.0104323757
 11
5.7669816485
 21
8.0155026476
  0
LINE
  5
4D9
100
AcDbEntity
  8
0
100
AcDbLine
 62
7
  6
CONTINUOUS
 10
5.3262028118
 20
8.0270432974
 11
3.5562303792
 21
8.0229454722
  0
LINE
  5
4DA
100
AcDbEntity
  8
0
100
AcDbLine
 62
6
  6
CONTINUOUS
 10
3.5505352039
 20
8.0313507465
 11
5.8039031645
 21
8.0313507465
  0
LINE
  5
4DB
100
AcDbEntity
  8
0
100
AcDbLine
 62
7
  6
CONTINUOUS
 10
3.3399052826
 20
8.0317444473
 11
3.4980483599
 21
8.0317444473
  0
LINE
  5
4DC
100
AcDbEntity
  8
0
100
AcDbLine
 62
7
  6
CONTINUOUS
 10
3.4919964929
 20
8.0411932662
 11
3.4112878315
 21
8.0411932662
  0
LINE
  5
4DD
100
AcDbEntity
  8
0
100
AcDbLine
 62
6
  6
CONTINUOUS
 10
3.3542012174
 20
8.0411932662
 11
3.4112878315
 21
8.0411932662
  0
LINE
  5
4DE
100
AcDbEntity
  8
0
100
AcDbLine
 62
6
  6
CONTINUOUS
 10
3.4919964929
 20
8.0411932662
 11
3.5443586977
 21
8.0411932662
  0
LINE
  5
4DF
100
AcDbEntity
  8
0
100
AcDbLine
 62
7
  6
CONTINUOUS
 10
3.5443586977
 20
8.0411932662
 11
3.6002642095
 21
8.0411932662
  0
LINE
  5
4E0
100
AcDbEntity
  8
0
100
AcDbLine
 62
6
  6
CONTINUOUS
 10
3.6002642095
 20
8.0411932662
 11
3.6888468866
 21
8.0411932662
  0
LINE
  5
4E1
100
AcDbEntity
  8
0
100
AcDbLine
 62
7
  6
CONTINUOUS
 10
3.7932987186
 20
8.0628468095
 11
5.7597490795
 21
8.0628468095
  0
LINE
  5
4E2
100
AcDbEntity
  8
0
100
AcDbLine
 62
7
  6
CONTINUOUS
 10
5.7565555379
 20
8.0667838174
 11
3.7932987186
 21
8.0667838174
  0
LINE
  5
4E3
100
AcDbEntity
  8
0
100
AcDbLine
 62
6
  6
CONTINUOUS
 10
3.4919964929
 20
8.0748546836
 11
3.4774863715
 21
8.0748546836
  0
LINE
  5
4E4
100
AcDbEntity
  8
0
100
AcDbLine
 62
7
  6
CONTINUOUS
 10
3.7932987186
 20
8.0904058647
 11
3.8326909432
 21
8.0904058647
  0
LINE
  5
4E5
100
AcDbEntity
  8
0
100
AcDbLine
 62
7
  6
CONTINUOUS
 10
3.8034562799
 20
8.110090904
 11
3.7932987186
 21
8.110090904
  0
LINE
  5
4E6
100
AcDbEntity
  8
0
100
AcDbLine
 62
6
  6
CONTINUOUS
 10
3.8326909432
 20
8.1142247623
 11
3.8309818076
 21
8.1142247623
  0
LINE
  5
4E7
100
AcDbEntity
  8
0
100
AcDbLine
 62
6
  6
CONTINUOUS
 10
3.4919964929
 20
8.1142247623
 11
3.4774863715
 21
8.1142247623
  0
LINE
  5
4E8
100
AcDbEntity
  8
0
100
AcDbLine
 62
7
  6
CONTINUOUS
 10
3.4580155189
 20
8.4153885283
 11
3.4544252026
 21
8.4261600239
  0
LINE
  5
4E9
100
AcDbEntity
  8
0
100
AcDbLine
 62
7
  6
CONTINUOUS
 10
3.4546657023
 20
8.5041853922
 11
3.4580155189
 21
8.4941354322
  0
LINE
  5
4EA
100
AcDbEntity
  8
0
100
AcDbLine
 62
6
  6
CONTINUOUS
 10
3.7932987186
 20
8.5037916914
 11
3.7932987186
 21
8.3856814552
  0
LINE
  5
4EB
100
AcDbEntity
  8
0
100
AcDbLine
 62
6
  6
CONTINUOUS
 10
3.7932987186
 20
8.1494609828
 11
3.7932987186
 21
8.0313507465
  0
LINE
  5
4EC
100
AcDbEntity
  8
0
100
AcDbLine
 62
6
  6
CONTINUOUS
 10
3.8172739447
 20
8.5037916914
 11
3.8172739447
 21
8.4722956284
  0
LINE
  5
4ED
100
AcDbEntity
  8
0
100
AcDbLine
 62
6
  6
CONTINUOUS
 10
3.8172739447
 20
8.0628468095
 11
3.8172739447
 21
8.0313507465
  0
LINE
  5
4EE
100
AcDbEntity
  8
0
100
AcDbLine
 62
7
  6
CONTINUOUS
 10
3.8309818076
 20
8.4447365733
 11
3.8309818076
 21
8.0904058647
  0
LINE
  5
4EF
100
AcDbEntity
  8
0
100
AcDbLine
 62
7
  6
CONTINUOUS
 10
3.8326909432
 20
8.0904058647
 11
3.8326909432
 21
8.4447365733
  0
LINE
  5
4F0
100
AcDbEntity
  8
0
100
AcDbLine
 62
7
  6
CONTINUOUS
 10
3.8895387228
 20
7.3830482949
 11
3.8895387228
 21
7.9324091037
  0
LINE
  5
4F1
100
AcDbEntity
  8
0
100
AcDbLine
 62
7
  6
CONTINUOUS
 10
3.6002642095
 20
8.1396184631
 11
3.5707366504
 21
8.1396184631
  0
LINE
  5
4F2
100
AcDbEntity
  8
0
100
AcDbLine
 62
7
  6
CONTINUOUS
 10
3.8326909432
 20
8.1417838174
 11
3.8309818076
 21
8.1417838174
  0
LINE
  5
4F3
100
AcDbEntity
  8
0
100
AcDbLine
 62
7
  6
CONTINUOUS
 10
3.7932987186
 20
8.143309408
 11
3.8034562799
 21
8.143309408
  0
LINE
  5
4F4
100
AcDbEntity
  8
0
100
AcDbLine
 62
7
  6
CONTINUOUS
 10
3.5505352039
 20
8.1494609828
 11
3.6002642095
 21
8.1494609828
  0
LINE
  5
4F5
100
AcDbEntity
  8
0
100
AcDbLine
 62
6
  6
CONTINUOUS
 10
3.6888468866
 20
8.1494609828
 11
3.7932987186
 21
8.1494609828
  0
LINE
  5
4F6
100
AcDbEntity
  8
0
100
AcDbLine
 62
7
  6
CONTINUOUS
 10
3.6002642095
 20
8.1593035025
 11
3.5707366504
 21
8.1593035025
  0
LINE
  5
4F7
100
AcDbEntity
  8
0
100
AcDbLine
 62
7
  6
CONTINUOUS
 10
3.8309818076
 20
8.1969019276
 11
3.8326909432
 21
8.1969019276
  0
LINE
  5
4F8
100
AcDbEntity
  8
0
100
AcDbLine
 62
7
  6
CONTINUOUS
 10
3.6002642095
 20
8.2250515339
 11
3.5443586977
 21
8.2250515339
  0
LINE
  5
4F9
100
AcDbEntity
  8
0
100
AcDbLine
 62
7
  6
CONTINUOUS
 10
3.4986894063
 20
8.2250515339
 11
3.4427838945
 21
8.2250515339
  0
LINE
  5
4FA
100
AcDbEntity
  8
0
100
AcDbLine
 62
7
  6
CONTINUOUS
 10
3.4427838945
 20
8.310090904
 11
3.4986894063
 21
8.310090904
  0
LINE
  5
4FB
100
AcDbEntity
  8
0
100
AcDbLine
 62
7
  6
CONTINUOUS
 10
3.5443586977
 20
8.310090904
 11
3.6002642095
 21
8.310090904
  0
LINE
  5
4FC
100
AcDbEntity
  8
0
100
AcDbLine
 62
7
  6
CONTINUOUS
 10
5.7988971184
 20
8.0160996495
 11
5.666748514
 21
8.0259105133
  0
LINE
  5
4FD
100
AcDbEntity
  8
0
100
AcDbLine
 62
7
  6
CONTINUOUS
 10
3.8034562799
 20
8.143309408
 11
3.8096432962
 21
8.1423866717
  0
LINE
  5
4FE
100
AcDbEntity
  8
0
100
AcDbLine
 62
7
  6
CONTINUOUS
 10
3.8096432962
 20
8.1423866717
 11
3.8133555023
 21
8.1414639355
  0
LINE
  5
4FF
100
AcDbEntity
  8
0
100
AcDbLine
 62
7
  6
CONTINUOUS
 10
3.4986894063
 20
8.310090904
 11
3.4919964929
 21
8.3167838174
  0
LINE
  5
500
100
AcDbEntity
  8
0
100
AcDbLine
 62
7
  6
CONTINUOUS
 10
3.8257295348
 20
8.1322365733
 11
3.8269669307
 21
8.126700156
  0
LINE
  5
501
100
AcDbEntity
  8
0
100
AcDbLine
 62
7
  6
CONTINUOUS
 10
3.9892796481
 20
7.9326400231
 11
3.9892796481
 21
7.3828173755
  0
LINE
  5
502
100
AcDbEntity
  8
0
100
AcDbLine
 62
6
  6
CONTINUOUS
 10
4.0613192081
 20
8.0241148496
 11
4.0613192081
 21
8.0315475969
  0
LINE
  5
503
100
AcDbEntity
  8
0
100
AcDbLine
 62
6
  6
CONTINUOUS
 10
4.120063652
 20
8.0315475969
 11
4.120063652
 21
8.0242508542
  0
LINE
  5
504
100
AcDbEntity
  8
0
100
AcDbLine
 62
7
  6
CONTINUOUS
 10
4.1411661832
 20
8.0315475969
 11
4.1411661832
 21
8.0242997106
  0
LINE
  5
505
100
AcDbEntity
  8
0
100
AcDbLine
 62
7
  6
CONTINUOUS
 10
3.4121967009
 20
8.4752935645
 11
3.4112878315
 21
8.4752875023
  0
LINE
  5
506
100
AcDbEntity
  8
0
100
AcDbLine
 62
7
  6
CONTINUOUS
 10
3.8326909432
 20
8.3386342111
 11
3.8309818076
 21
8.3386342111
  0
LINE
  5
507
100
AcDbEntity
  8
0
100
AcDbLine
 62
7
  6
CONTINUOUS
 10
3.6002642095
 20
8.3758389355
 11
3.5707366504
 21
8.3758389355
  0
LINE
  5
508
100
AcDbEntity
  8
0
100
AcDbLine
 62
6
  6
CONTINUOUS
 10
3.4404054714
 20
8.3782652545
 11
3.4112878315
 21
8.3782652545
  0
LINE
  5
509
100
AcDbEntity
  8
0
100
AcDbLine
 62
6
  6
CONTINUOUS
 10
3.3769785967
 20
8.3782652545
 11
3.3399052826
 21
8.3782652545
  0
LINE
  5
50A
100
AcDbEntity
  8
0
100
AcDbLine
 62
7
  6
CONTINUOUS
 10
3.6002642095
 20
8.3856814552
 11
3.5505352039
 21
8.3856814552
  0
LINE
  5
50B
100
AcDbEntity
  8
0
100
AcDbLine
 62
6
  6
CONTINUOUS
 10
3.6888468866
 20
8.3856814552
 11
3.7932987186
 21
8.3856814552
  0
LINE
  5
50C
100
AcDbEntity
  8
0
100
AcDbLine
 62
6
  6
CONTINUOUS
 10
3.8326909432
 20
8.3911583475
 11
3.8309818076
 21
8.3911583475
  0
LINE
  5
50D
100
AcDbEntity
  8
0
100
AcDbLine
 62
6
  6
CONTINUOUS
 10
3.460088837
 20
8.3911583475
 11
3.4532569425
 21
8.3911583475
  0
LINE
  5
50E
100
AcDbEntity
  8
0
100
AcDbLine
 62
7
  6
CONTINUOUS
 10
3.8309818076
 20
8.3937523213
 11
3.8326909432
 21
8.3937523213
  0
LINE
  5
50F
100
AcDbEntity
  8
0
100
AcDbLine
 62
7
  6
CONTINUOUS
 10
3.5707366504
 20
8.3955239749
 11
3.6002642095
 21
8.3955239749
  0
LINE
  5
510
100
AcDbEntity
  8
0
100
AcDbLine
 62
6
  6
CONTINUOUS
 10
3.460088837
 20
8.3979909938
 11
3.4112878315
 21
8.3979909938
  0
LINE
  5
511
100
AcDbEntity
  8
0
100
AcDbLine
 62
6
  6
CONTINUOUS
 10
3.3712415914
 20
8.3979909938
 11
3.3399052826
 21
8.3979909938
  0
LINE
  5
512
100
AcDbEntity
  8
0
100
AcDbLine
 62
7
  6
CONTINUOUS
 10
3.4774863715
 20
8.4153885283
 11
3.4580155189
 21
8.4153885283
  0
LINE
  5
513
100
AcDbEntity
  8
0
100
AcDbLine
 62
7
  6
CONTINUOUS
 10
3.4676926842
 20
8.4213113765
 11
3.4919964929
 21
8.4213113765
  0
LINE
  5
514
100
AcDbEntity
  8
0
100
AcDbLine
 62
7
  6
CONTINUOUS
 10
3.8309818076
 20
8.4213113765
 11
3.8326909432
 21
8.4213113765
  0
LINE
  5
515
100
AcDbEntity
  8
0
100
AcDbLine
 62
6
  6
CONTINUOUS
 10
3.3399052826
 20
8.4261600239
 11
3.3601519749
 21
8.4261600239
  0
LINE
  5
516
100
AcDbEntity
  8
0
100
AcDbLine
 62
6
  6
CONTINUOUS
 10
3.4112878315
 20
8.4261600239
 11
3.4544252026
 21
8.4261600239
  0
LINE
  5
517
100
AcDbEntity
  8
0
100
AcDbLine
 62
6
  6
CONTINUOUS
 10
3.4544252026
 20
8.4306847276
 11
3.4676926842
 21
8.4306847276
  0
LINE
  5
518
100
AcDbEntity
  8
0
100
AcDbLine
 62
7
  6
CONTINUOUS
 10
3.4544252026
 20
8.4325401048
 11
3.4676926842
 21
8.4325401048
  0
LINE
  5
519
100
AcDbEntity
  8
0
100
AcDbLine
 62
7
  6
CONTINUOUS
 10
3.8326909432
 20
8.4447365733
 11
3.7932987186
 21
8.4447365733
  0
LINE
  5
51A
100
AcDbEntity
  8
0
100
AcDbLine
 62
7
  6
CONTINUOUS
 10
3.4919964929
 20
8.4606814552
 11
3.4676926842
 21
8.4606814552
  0
LINE
  5
51B
100
AcDbEntity
  8
0
100
AcDbLine
 62
7
  6
CONTINUOUS
 10
3.4544252026
 20
8.4640937779
 11
3.4112878315
 21
8.4640937779
  0
LINE
  5
51C
100
AcDbEntity
  8
0
100
AcDbLine
 62
7
  6
CONTINUOUS
 10
3.3542012174
 20
8.4640937779
 11
3.3399052826
 21
8.4640937779
  0
LINE
  5
51D
100
AcDbEntity
  8
0
100
AcDbLine
 62
7
  6
CONTINUOUS
 10
3.3399052826
 20
8.4648153135
 11
3.3542012174
 21
8.4648153135
  0
LINE
  5
51E
100
AcDbEntity
  8
0
100
AcDbLine
 62
7
  6
CONTINUOUS
 10
3.4112878315
 20
8.4648153135
 11
3.4546657023
 21
8.4648153135
  0
LINE
  5
51F
100
AcDbEntity
  8
0
100
AcDbLine
 62
7
  6
CONTINUOUS
 10
3.4919964929
 20
8.4655883873
 11
3.4112878315
 21
8.4655883873
  0
LINE
  5
520
100
AcDbEntity
  8
0
100
AcDbLine
 62
7
  6
CONTINUOUS
 10
3.3542012174
 20
8.4655883873
 11
3.3399052826
 21
8.4655883873
  0
LINE
  5
521
100
AcDbEntity
  8
0
100
AcDbLine
 62
7
  6
CONTINUOUS
 10
3.7932987186
 20
8.4683586206
 11
5.7565555379
 21
8.4683586206
  0
LINE
  5
522
100
AcDbEntity
  8
0
100
AcDbLine
 62
7
  6
CONTINUOUS
 10
5.7597490795
 20
8.4722956284
 11
3.7932987186
 21
8.4722956284
  0
LINE
  5
523
100
AcDbEntity
  8
0
100
AcDbLine
 62
6
  6
CONTINUOUS
 10
0.8832123693
 20
8.4748085862
 11
3.3399052826
 21
8.4748085862
  0
LINE
  5
524
100
AcDbEntity
  8
0
100
AcDbLine
 62
7
  6
CONTINUOUS
 10
3.4919964929
 20
8.4751951231
 11
3.4581862025
 21
8.4751951231
  0
LINE
  5
525
100
AcDbEntity
  8
0
100
AcDbLine
 62
7
  6
CONTINUOUS
 10
3.3542012174
 20
8.4751951231
 11
3.3400985511
 21
8.4751951231
  0
LINE
  5
526
100
AcDbEntity
  8
0
100
AcDbLine
 62
6
  6
CONTINUOUS
 10
3.6888468866
 20
8.4939491717
 11
3.6002642095
 21
8.4939491717
  0
LINE
  5
527
100
AcDbEntity
  8
0
100
AcDbLine
 62
7
  6
CONTINUOUS
 10
3.6002642095
 20
8.4939491717
 11
3.5443586977
 21
8.4939491717
  0
LINE
  5
528
100
AcDbEntity
  8
0
100
AcDbLine
 62
6
  6
CONTINUOUS
 10
3.5443586977
 20
8.4939491717
 11
3.4919964929
 21
8.4939491717
  0
LINE
  5
529
100
AcDbEntity
  8
0
100
AcDbLine
 62
7
  6
CONTINUOUS
 10
3.4919964929
 20
8.4939491717
 11
3.4112878315
 21
8.4939491717
  0
LINE
  5
52A
100
AcDbEntity
  8
0
100
AcDbLine
 62
6
  6
CONTINUOUS
 10
3.4112878315
 20
8.4939491717
 11
3.3542012174
 21
8.4939491717
  0
LINE
  5
52B
100
AcDbEntity
  8
0
100
AcDbLine
 62
6
  6
CONTINUOUS
 10
3.1905496327
 20
8.4990315666
 11
1.9324249677
 21
8.4990315666
  0
LINE
  5
52C
100
AcDbEntity
  8
0
100
AcDbLine
 62
6
  6
CONTINUOUS
 10
1.8536848102
 20
8.4990315666
 11
1.6962044952
 21
8.4990315666
  0
LINE
  5
52D
100
AcDbEntity
  8
0
100
AcDbLine
 62
6
  6
CONTINUOUS
 10
1.6174643378
 20
8.4990315666
 11
1.2237635504
 21
8.4990315666
  0
LINE
  5
52E
100
AcDbEntity
  8
0
100
AcDbLine
 62
6
  6
CONTINUOUS
 10
1.1450233929
 20
8.4990315666
 11
1.1253383535
 21
8.4990315666
  0
LINE
  5
52F
100
AcDbEntity
  8
0
100
AcDbLine
 62
6
  6
CONTINUOUS
 10
1.046598196
 20
8.4990315666
 11
1.0269131567
 21
8.4990315666
  0
LINE
  5
530
100
AcDbEntity
  8
0
100
AcDbLine
 62
6
  6
CONTINUOUS
 10
0.9481729992
 20
8.4990315666
 11
0.9284879598
 21
8.4990315666
  0
LINE
  5
531
100
AcDbEntity
  8
0
100
AcDbLine
 62
6
  6
CONTINUOUS
 10
0.8497478023
 20
8.4990315666
 11
0.830062763
 21
8.4990315666
  0
LINE
  5
532
100
AcDbEntity
  8
0
100
AcDbLine
 62
6
  6
CONTINUOUS
 10
0.7513226055
 20
8.4990315666
 11
0.7136703814
 21
8.4990315666
  0
LINE
  5
533
100
AcDbEntity
  8
0
100
AcDbLine
 62
6
  6
CONTINUOUS
 10
5.8039031169
 20
8.5037916914
 11
3.5505352039
 21
8.5037916914
  0
LINE
  5
534
100
AcDbEntity
  8
0
100
AcDbLine
 62
6
  6
CONTINUOUS
 10
0.8832123693
 20
8.4748085862
 11
0.6214586358
 21
8.4757267259
  0
LINE
  5
535
100
AcDbEntity
  8
0
100
AcDbLine
 62
7
  6
CONTINUOUS
 10
0.8120168375
 20
8.4992678007
 11
0.830062763
 21
8.4990315666
  0
LINE
  5
536
100
AcDbEntity
  8
0
100
AcDbLine
 62
7
  6
CONTINUOUS
 10
0.9104420344
 20
8.4992678007
 11
0.9284879598
 21
8.4990315666
  0
LINE
  5
537
100
AcDbEntity
  8
0
100
AcDbLine
 62
7
  6
CONTINUOUS
 10
1.0088672312
 20
8.4992678007
 11
1.0269131567
 21
8.4990315666
  0
LINE
  5
538
100
AcDbEntity
  8
0
100
AcDbLine
 62
7
  6
CONTINUOUS
 10
1.1072924281
 20
8.4992678007
 11
1.1253383535
 21
8.4990315666
  0
LINE
  5
539
100
AcDbEntity
  8
0
100
AcDbLine
 62
7
  6
CONTINUOUS
 10
1.2057176249
 20
8.4992678007
 11
1.2237635504
 21
8.4990315666
  0
LINE
  5
53A
100
AcDbEntity
  8
0
100
AcDbLine
 62
7
  6
CONTINUOUS
 10
1.6781585698
 20
8.4992678007
 11
1.6962044952
 21
8.4990315666
  0
LINE
  5
53B
100
AcDbEntity
  8
0
100
AcDbLine
 62
7
  6
CONTINUOUS
 10
1.9143790423
 20
8.4992678007
 11
1.9324249677
 21
8.4990315666
  0
LINE
  5
53C
100
AcDbEntity
  8
0
100
AcDbLine
 62
7
  6
CONTINUOUS
 10
5.7994952383
 20
8.0160092326
 11
5.7988971184
 21
8.0160996491
  0
LINE
  5
53D
100
AcDbEntity
  8
0
100
AcDbLine
 62
7
  6
CONTINUOUS
 10
3.8133555023
 20
8.1414639355
 11
3.8183051134
 21
8.1396184631
  0
LINE
  5
53E
100
AcDbEntity
  8
0
100
AcDbLine
 62
7
  6
CONTINUOUS
 10
3.8183051134
 20
8.1396184631
 11
3.8220173195
 21
8.1368502544
  0
LINE
  5
53F
100
AcDbEntity
  8
0
100
AcDbLine
 62
6
  6
CONTINUOUS
 10
5.5897192278
 20
6.4217010274
 11
5.5938490364
 21
6.417571219
  0
LINE
  5
540
100
AcDbEntity
  8
0
100
AcDbLine
 62
7
  6
CONTINUOUS
 10
3.8220173195
 20
8.1368502544
 11
3.8257295348
 21
8.1322365733
  0
LINE
  5
541
100
AcDbEntity
  8
0
100
AcDbLine
 62
7
  6
CONTINUOUS
 10
4.1607476645
 20
8.0243450455
 11
4.1607476645
 21
8.0315475969
  0
LINE
  5
542
100
AcDbEntity
  8
0
100
AcDbLine
 62
7
  6
CONTINUOUS
 10
1.8536848102
 20
8.4990315666
 11
1.8717307356
 21
8.4992678007
  0
LINE
  5
543
100
AcDbEntity
  8
0
100
AcDbLine
 62
7
  6
CONTINUOUS
 10
1.6174643378
 20
8.4990315666
 11
1.6355102632
 21
8.4992678007
  0
LINE
  5
544
100
AcDbEntity
  8
0
100
AcDbLine
 62
7
  6
CONTINUOUS
 10
1.1450233929
 20
8.4990315666
 11
1.1630693183
 21
8.4992678007
  0
LINE
  5
545
100
AcDbEntity
  8
0
100
AcDbLine
 62
7
  6
CONTINUOUS
 10
1.046598196
 20
8.4990315666
 11
1.0646441214
 21
8.4992678007
  0
LINE
  5
546
100
AcDbEntity
  8
0
100
AcDbLine
 62
7
  6
CONTINUOUS
 10
0.9481729992
 20
8.4990315666
 11
0.9662189246
 21
8.4992678007
  0
LINE
  5
547
100
AcDbEntity
  8
0
100
AcDbLine
 62
7
  6
CONTINUOUS
 10
0.8497478023
 20
8.4990315666
 11
0.8677937277
 21
8.4992678007
  0
LINE
  5
548
100
AcDbEntity
  8
0
100
AcDbLine
 62
6
  6
CONTINUOUS
 10
0.7513226055
 20
8.4990315666
 11
0.7693685309
 21
8.4992678007
  0
LINE
  5
549
100
AcDbEntity
  8
0
100
AcDbLine
 62
7
  6
CONTINUOUS
 10
0.7513226055
 20
8.5777717241
 11
0.7693685309
 21
8.5780079582
  0
LINE
  5
54A
100
AcDbEntity
  8
0
100
AcDbLine
 62
7
  6
CONTINUOUS
 10
3.5505352039
 20
8.5039885418
 11
3.4676926842
 21
8.5039885418
  0
LINE
  5
54B
100
AcDbEntity
  8
0
100
AcDbLine
 62
6
  6
CONTINUOUS
 10
0.7119525267
 20
8.5041853922
 11
0.5643147315
 21
8.5041853922
  0
LINE
  5
54C
100
AcDbEntity
  8
0
100
AcDbLine
 62
6
  6
CONTINUOUS
 10
3.1922674874
 20
8.5041853922
 11
3.4676926842
 21
8.5041853922
  0
LINE
  5
54D
100
AcDbEntity
  8
0
100
AcDbLine
 62
6
  6
CONTINUOUS
 10
0.7707070203
 20
8.5059892312
 11
0.8106783482
 21
8.5059892312
  0
LINE
  5
54E
100
AcDbEntity
  8
0
100
AcDbLine
 62
6
  6
CONTINUOUS
 10
0.8691322171
 20
8.5059892312
 11
0.909103545
 21
8.5059892312
  0
LINE
  5
54F
100
AcDbEntity
  8
0
100
AcDbLine
 62
6
  6
CONTINUOUS
 10
0.967557414
 20
8.5059892312
 11
1.0075287419
 21
8.5059892312
  0
LINE
  5
550
100
AcDbEntity
  8
0
100
AcDbLine
 62
6
  6
CONTINUOUS
 10
1.0659826108
 20
8.5059892312
 11
1.1059539387
 21
8.5059892312
  0
LINE
  5
551
100
AcDbEntity
  8
0
100
AcDbLine
 62
6
  6
CONTINUOUS
 10
1.1644078077
 20
8.5059892312
 11
1.2043791356
 21
8.5059892312
  0
LINE
  5
552
100
AcDbEntity
  8
0
100
AcDbLine
 62
6
  6
CONTINUOUS
 10
1.6368487526
 20
8.5059892312
 11
1.6768200804
 21
8.5059892312
  0
LINE
  5
553
100
AcDbEntity
  8
0
100
AcDbLine
 62
6
  6
CONTINUOUS
 10
1.873069225
 20
8.5059892312
 11
1.9130405529
 21
8.5059892312
  0
LINE
  5
554
100
AcDbEntity
  8
0
100
AcDbLine
 62
6
  6
CONTINUOUS
 10
0.7119525267
 20
8.5083084527
 11
0.7136703814
 21
8.5083084527
  0
LINE
  5
555
100
AcDbEntity
  8
0
100
AcDbLine
 62
6
  6
CONTINUOUS
 10
0.7125537759
 20
8.5101122917
 11
0.7136703814
 21
8.5101122917
  0
LINE
  5
556
100
AcDbEntity
  8
0
100
AcDbLine
 62
7
  6
CONTINUOUS
 10
0.6656666879
 20
8.5140279119
 11
0.7037432385
 21
8.5140279119
  0
LINE
  5
557
100
AcDbEntity
  8
0
100
AcDbLine
 62
7
  6
CONTINUOUS
 10
3.2047339035
 20
8.5140279119
 11
3.2435412585
 21
8.5140279119
  0
LINE
  5
558
100
AcDbEntity
  8
0
100
AcDbLine
 62
6
  6
CONTINUOUS
 10
0.6666158689
 20
8.5188103579
 11
0.7038057945
 21
8.5188103579
  0
LINE
  5
559
100
AcDbEntity
  8
0
100
AcDbLine
 62
6
  6
CONTINUOUS
 10
3.2054647083
 20
8.5200127875
 11
3.2435412583
 21
8.5200127875
  0
LINE
  5
55A
100
AcDbEntity
  8
0
100
AcDbLine
 62
7
  6
CONTINUOUS
 10
3.1133128896
 20
8.5219019276
 11
0.7968751964
 21
8.5219019276
  0
LINE
  5
55B
100
AcDbEntity
  8
0
100
AcDbLine
 62
7
  6
CONTINUOUS
 10
3.2435581213
 20
8.5334552821
 11
3.2051582298
 21
8.5334552821
  0
LINE
  5
55C
100
AcDbEntity
  8
0
100
AcDbLine
 62
7
  6
CONTINUOUS
 10
0.705030096
 20
8.5334552821
 11
0.6666300993
 21
8.5334552821
  0
LINE
  5
55D
100
AcDbEntity
  8
0
100
AcDbLine
 62
7
  6
CONTINUOUS
 10
3.2051583372
 20
8.543555471
 11
3.1922674874
 21
8.543555471
  0
LINE
  5
55E
100
AcDbEntity
  8
0
100
AcDbLine
 62
7
  6
CONTINUOUS
 10
0.6659777842
 20
8.5438075416
 11
0.7050302034
 21
8.5438075416
  0
LINE
  5
55F
100
AcDbEntity
  8
0
100
AcDbLine
 62
7
  6
CONTINUOUS
 10
3.2051583372
 20
8.5438075416
 11
3.2442107564
 21
8.5438075416
  0
LINE
  5
560
100
AcDbEntity
  8
0
100
AcDbLine
 62
7
  6
CONTINUOUS
 10
0.705097905
 20
8.5441567201
 11
0.7125537759
 21
8.5441567201
  0
LINE
  5
561
100
AcDbEntity
  8
0
100
AcDbLine
 62
7
  6
CONTINUOUS
 10
3.2299197115
 20
8.5452733256
 11
3.1905496327
 21
8.5452733256
  0
LINE
  5
562
100
AcDbEntity
  8
0
100
AcDbLine
 62
7
  6
CONTINUOUS
 10
0.7136703814
 20
8.5452733256
 11
0.6743003027
 21
8.5452733256
  0
LINE
  5
563
100
AcDbEntity
  8
0
100
AcDbLine
 62
7
  6
CONTINUOUS
 10
0.6066160431
 20
8.5723100224
 11
0.6075662318
 21
8.5723100224
  0
LINE
  5
564
100
AcDbEntity
  8
0
100
AcDbLine
 62
7
  6
CONTINUOUS
 10
0.6743003027
 20
8.5777717241
 11
0.7513226055
 21
8.5777717241
  0
LINE
  5
565
100
AcDbEntity
  8
0
100
AcDbLine
 62
7
  6
CONTINUOUS
 10
3.1165116342
 20
8.5777717241
 11
3.2299197115
 21
8.5777717241
  0
LINE
  5
566
100
AcDbEntity
  8
0
100
AcDbLine
 62
7
  6
CONTINUOUS
 10
0.7704063957
 20
8.5783901831
 11
0.7768344165
 21
8.5783901831
  0
LINE
  5
567
100
AcDbEntity
  8
0
100
AcDbLine
 62
7
  6
CONTINUOUS
 10
0.7704063957
 20
8.5811217107
 11
0.6731871328
 21
8.5811114031
  0
LINE
  5
568
100
AcDbEntity
  8
0
100
AcDbLine
 62
7
  6
CONTINUOUS
 10
0.6074374883
 20
8.582152542
 11
0.6064870954
 21
8.582152542
  0
LINE
  5
569
100
AcDbEntity
  8
0
100
AcDbLine
 62
6
  6
CONTINUOUS
 10
0.6659793072
 20
8.5829255497
 11
0.793677718
 21
8.5829255497
  0
LINE
  5
56A
100
AcDbEntity
  8
0
100
AcDbLine
 62
6
  6
CONTINUOUS
 10
3.1165116342
 20
8.5829255497
 11
3.244210045
 21
8.5829255497
  0
LINE
  5
56B
100
AcDbEntity
  8
0
100
AcDbLine
 62
6
  6
CONTINUOUS
 10
3.243687927
 20
8.6220379592
 11
0.6665022446
 21
8.6220379592
  0
LINE
  5
56C
100
AcDbEntity
  8
0
100
AcDbLine
 62
6
  6
CONTINUOUS
 10
0.6664879423
 20
8.6419806678
 11
3.2436710232
 21
8.6419806678
  0
LINE
  5
56D
100
AcDbEntity
  8
0
100
AcDbLine
 62
6
  6
CONTINUOUS
 10
5.672582448
 20
6.4963046306
 11
5.6684526413
 21
6.5004344375
  0
LINE
  5
56E
100
AcDbEntity
  8
0
100
AcDbLine
 62
7
  6
CONTINUOUS
 10
4.4840370893
 20
7.9337854813
 11
4.4840370893
 21
7.3816719173
  0
LINE
  5
56F
100
AcDbEntity
  8
0
100
AcDbLine
 62
7
  6
CONTINUOUS
 10
5.666748514
 20
8.0259105133
 11
5.6721887472
 21
8.0313507465
  0
LINE
  5
570
100
AcDbEntity
  8
0
100
AcDbLine
 62
7
  6
CONTINUOUS
 10
4.9048659126
 20
8.0260678218
 11
4.9048659126
 21
8.0315475969
  0
LINE
  5
571
100
AcDbEntity
  8
0
100
AcDbLine
 62
6
  6
CONTINUOUS
 10
5.6470409176
 20
7.2895711288
 11
5.6480472661
 21
7.2885647803
  0
LINE
  5
572
100
AcDbEntity
  8
0
100
AcDbLine
 62
6
  6
CONTINUOUS
 10
5.3262028118
 20
8.0270432974
 11
5.3262028118
 21
8.0144821602
  0
LINE
  5
573
100
AcDbEntity
  8
0
100
AcDbLine
 62
6
  6
CONTINUOUS
 10
5.3576218181
 20
8.0145549012
 11
5.3576218181
 21
8.0317444473
  0
LINE
  5
574
100
AcDbEntity
  8
0
100
AcDbLine
 62
6
  6
CONTINUOUS
 10
5.5897192293
 20
6.4217010274
 11
5.5897192293
 21
6.4610677314
  0
LINE
  5
575
100
AcDbEntity
  8
0
100
AcDbLine
 62
7
  6
CONTINUOUS
 10
5.5936769362
 20
8.0628468095
 11
5.5936769362
 21
8.0667838174
  0
LINE
  5
576
100
AcDbEntity
  8
0
100
AcDbLine
 62
6
  6
CONTINUOUS
 10
5.5938355441
 20
8.0317444473
 11
5.5938355441
 21
8.0151017812
  0
LINE
  5
577
100
AcDbEntity
  8
0
100
AcDbLine
 62
6
  6
CONTINUOUS
 10
5.5945570797
 20
8.0310229117
 11
5.5945570797
 21
8.0151034517
  0
LINE
  5
578
100
AcDbEntity
  8
0
100
AcDbLine
 62
6
  6
CONTINUOUS
 10
5.5990817834
 20
8.0667838174
 11
5.5990817834
 21
8.0628468095
  0
LINE
  5
579
100
AcDbEntity
  8
0
100
AcDbLine
 62
7
  6
CONTINUOUS
 10
5.6009371606
 20
8.0667838174
 11
5.6009371606
 21
8.0628468095
  0
LINE
  5
57A
100
AcDbEntity
  8
0
100
AcDbLine
 62
7
  6
CONTINUOUS
 10
5.6056563838
 20
8.4722956284
 11
5.6056563838
 21
8.4683586206
  0
LINE
  5
57B
100
AcDbEntity
  8
0
100
AcDbLine
 62
7
  6
CONTINUOUS
 10
5.6056563838
 20
8.0667838174
 11
5.6056563838
 21
8.0628468095
  0
LINE
  5
57C
100
AcDbEntity
  8
0
100
AcDbLine
 62
7
  6
CONTINUOUS
 10
5.6290859342
 20
7.2886057125
 11
5.6290859342
 21
7.2689223596
  0
LINE
  5
57D
100
AcDbEntity
  8
0
100
AcDbLine
 62
6
  6
CONTINUOUS
 10
5.6290859355
 20
6.5004351968
 11
5.6290859355
 21
7.2689223596
  0
LINE
  5
57E
100
AcDbEntity
  8
0
100
AcDbLine
 62
7
  6
CONTINUOUS
 10
5.6324908337
 20
7.2689223596
 11
5.6324908337
 21
7.2886057125
  0
LINE
  5
57F
100
AcDbEntity
  8
0
100
AcDbLine
 62
7
  6
CONTINUOUS
 10
5.6324908337
 20
8.0151912756
 11
5.6324908337
 21
8.0310229117
  0
LINE
  5
580
100
AcDbEntity
  8
0
100
AcDbLine
 62
7
  6
CONTINUOUS
 10
5.6332123693
 20
8.0317444473
 11
5.6332123693
 21
8.0151929461
  0
LINE
  5
581
100
AcDbEntity
  8
0
100
AcDbLine
 62
7
  6
CONTINUOUS
 10
5.6332123693
 20
7.2886057125
 11
5.6332123693
 21
7.2689223596
  0
LINE
  5
582
100
AcDbEntity
  8
0
100
AcDbLine
 62
7
  6
CONTINUOUS
 10
5.6339854431
 20
7.2689223596
 11
5.6339854431
 21
7.2886057125
  0
LINE
  5
583
100
AcDbEntity
  8
0
100
AcDbLine
 62
7
  6
CONTINUOUS
 10
5.6339854431
 20
8.0151947359
 11
5.6339854431
 21
8.0315475969
  0
LINE
  5
584
100
AcDbEntity
  8
0
100
AcDbLine
 62
6
  6
CONTINUOUS
 10
5.651863005
 20
8.0628468095
 11
5.651863005
 21
8.0667838174
  0
LINE
  5
585
100
AcDbEntity
  8
0
100
AcDbLine
 62
6
  6
CONTINUOUS
 10
5.651863005
 20
8.4683586206
 11
5.651863005
 21
8.4722956284
  0
LINE
  5
586
100
AcDbEntity
  8
0
100
AcDbLine
 62
6
  6
CONTINUOUS
 10
5.666748514
 20
8.0152705887
 11
5.666748514
 21
8.0259105133
  0
LINE
  5
587
100
AcDbEntity
  8
0
100
AcDbLine
 62
6
  6
CONTINUOUS
 10
5.6684526413
 20
7.2911048983
 11
5.6684526413
 21
6.5004344375
  0
LINE
  5
588
100
AcDbEntity
  8
0
100
AcDbLine
 62
6
  6
CONTINUOUS
 10
5.672582448
 20
8.0315475969
 11
5.672582448
 21
8.0259105133
  0
LINE
  5
589
100
AcDbEntity
  8
0
100
AcDbLine
 62
6
  6
CONTINUOUS
 10
5.672582448
 20
7.2914114998
 11
5.672582448
 21
6.4963054376
  0
LINE
  5
58A
100
AcDbEntity
  8
0
100
AcDbLine
 62
6
  6
CONTINUOUS
 10
5.6809419741
 20
8.4722956284
 11
5.6809419741
 21
8.4683586206
  0
LINE
  5
58B
100
AcDbEntity
  8
0
100
AcDbLine
 62
6
  6
CONTINUOUS
 10
5.6809419741
 20
8.0667838174
 11
5.6809419741
 21
8.0628468095
  0
LINE
  5
58C
100
AcDbEntity
  8
0
100
AcDbLine
 62
7
  6
CONTINUOUS
 10
5.7565555379
 20
8.4683586206
 11
5.7565555379
 21
8.0667838174
  0
LINE
  5
58D
100
AcDbEntity
  8
0
100
AcDbLine
 62
7
  6
CONTINUOUS
 10
5.7597490795
 20
8.0628468095
 11
5.7597490795
 21
8.4722956284
  0
LINE
  5
58E
100
AcDbEntity
  8
0
100
AcDbLine
 62
6
  6
CONTINUOUS
 10
5.7669816485
 20
7.3193877236
 11
5.7669816485
 21
8.0155026476
  0
LINE
  5
58F
100
AcDbEntity
  8
0
100
AcDbLine
 62
6
  6
CONTINUOUS
 10
5.7713806672
 20
8.0313507465
 11
5.7713806672
 21
8.5037916914
  0
LINE
  5
590
100
AcDbEntity
  8
0
100
AcDbLine
 62
6
  6
CONTINUOUS
 10
5.7988971184
 20
8.0160996495
 11
5.7988971184
 21
7.3190892227
  0
LINE
  5
591
100
AcDbEntity
  8
0
100
AcDbLine
 62
6
  6
CONTINUOUS
 10
5.7994952383
 20
7.3191339983
 11
5.7994952383
 21
8.0160100943
  0
LINE
  5
592
100
AcDbEntity
  8
0
100
AcDbLine
 62
6
  6
CONTINUOUS
 10
5.8033160835
 20
8.5037916914
 11
5.8033160835
 21
8.0313507465
  0
LINE
  5
593
100
AcDbEntity
  8
0
100
AcDbLine
 62
6
  6
CONTINUOUS
 10
5.8039142035
 20
8.5037916914
 11
5.8039142035
 21
8.0313507465
  0
LINE
  5
594
100
AcDbEntity
  8
0
100
AcDbLine
 62
6
  6
CONTINUOUS
 10
7.9191691619
 20
1.5604333062
 11
10.0656604909
 21
1.5604333062
  0
LINE
  5
595
100
AcDbEntity
  8
0
100
AcDbLine
 62
6
  6
CONTINUOUS
 10
10.0947753442
 20
1.5681393177
 11
10.1341471099
 21
1.5676239132
  0
LINE
  5
596
100
AcDbEntity
  8
0
100
AcDbLine
 62
6
  6
CONTINUOUS
 10
10.0932370023
 20
1.5696987651
 11
10.0657864837
 21
1.5700581107
  0
LINE
  5
597
100
AcDbEntity
  8
0
100
AcDbLine
 62
7
  6
CONTINUOUS
 10
10.0660439356
 20
1.5897252844
 11
10.0750918187
 21
1.5896068416
  0
LINE
  5
598
100
AcDbEntity
  8
0
100
AcDbLine
 62
6
  6
CONTINUOUS
 10
9.989024125
 20
1.7211419667
 11
10.0677642825
 21
1.7211419667
  0
LINE
  5
599
100
AcDbEntity
  8
0
100
AcDbLine
 62
7
  6
CONTINUOUS
 10
9.9905280113
 20
1.8360238573
 11
10.0692681688
 21
1.8360238573
  0
LINE
  5
59A
100
AcDbEntity
  8
0
100
AcDbLine
 62
6
  6
CONTINUOUS
 10
10.0750919917
 20
1.7644485388
 11
10.1341471099
 21
1.7644323256
  0
LINE
  5
59B
100
AcDbEntity
  8
0
100
AcDbLine
 62
6
  6
CONTINUOUS
 10
10.0747553172
 20
1.8434217527
 11
10.1341471099
 21
1.8426910166
  0
LINE
  5
59C
100
AcDbEntity
  8
0
100
AcDbLine
 62
7
  6
CONTINUOUS
 10
10.0648919617
 20
1.843550871
 11
10.0747553172
 21
1.8434217527
  0
LINE
  5
59D
100
AcDbEntity
  8
0
100
AcDbLine
 62
6
  6
CONTINUOUS
 10
10.0061943539
 20
1.8443661108
 11
10.0648919617
 21
1.843550871
  0
LINE
  5
59E
100
AcDbEntity
  8
0
100
AcDbLine
 62
6
  6
CONTINUOUS
 10
10.0644764645
 20
1.9344490542
 11
10.0705566252
 21
1.9344490542
  0
LINE
  5
59F
100
AcDbEntity
  8
0
100
AcDbLine
 62
7
  6
CONTINUOUS
 10
10.0750918187
 20
1.8631466971
 11
10.0644764645
 21
1.8632856601
  0
LINE
  5
5A0
100
AcDbEntity
  8
0
100
AcDbLine
 62
6
  6
CONTINUOUS
 10
7.909737661
 20
2.2809057471
 11
7.9191691619
 21
1.5604333062
  0
LINE
  5
5A1
100
AcDbEntity
  8
0
100
AcDbLine
 62
6
  6
CONTINUOUS
 10
7.9979025735
 20
1.5604333062
 11
7.9884710727
 21
2.2809057471
  0
LINE
  5
5A2
100
AcDbEntity
  8
0
100
AcDbLine
 62
7
  6
CONTINUOUS
 10
7.9538730045
 20
2.6352364558
 11
7.9538730045
 21
2.6515056476
  0
LINE
  5
5A3
100
AcDbEntity
  8
0
100
AcDbLine
 62
6
  6
CONTINUOUS
 10
7.954965927
 20
2.7675199203
 11
7.954965927
 21
2.7349863842
  0
LINE
  5
5A4
100
AcDbEntity
  8
0
100
AcDbLine
 62
6
  6
CONTINUOUS
 10
7.9571768344
 20
2.9364175581
 11
7.9571768344
 21
2.9038840219
  0
LINE
  5
5A5
100
AcDbEntity
  8
0
100
AcDbLine
 62
6
  6
CONTINUOUS
 10
7.9926008813
 20
2.6352364557
 11
7.9926008813
 21
2.5963817155
  0
LINE
  5
5A6
100
AcDbEntity
  8
0
100
AcDbLine
 62
6
  6
CONTINUOUS
 10
7.9178101443
 20
2.8975628178
 11
7.909737661
 21
2.2809057471
  0
LINE
  5
5A7
100
AcDbEntity
  8
0
100
AcDbLine
 62
6
  6
CONTINUOUS
 10
7.9884710727
 20
2.2809057471
 11
7.9926008795
 21
2.5963817155
  0
LINE
  5
5A8
100
AcDbEntity
  8
0
100
AcDbLine
 62
7
  6
CONTINUOUS
 10
7.9948546934
 20
2.7675199203
 11
7.9950676794
 21
2.7837899202
  0
LINE
  5
5A9
100
AcDbEntity
  8
0
100
AcDbLine
 62
6
  6
CONTINUOUS
 10
7.9554627642
 20
2.7837899202
 11
7.9571768501
 21
2.9038840219
  0
LINE
  5
5AA
100
AcDbEntity
  8
0
100
AcDbLine
 62
6
  6
CONTINUOUS
 10
7.9549658589
 20
2.7349863842
 11
7.95376656
 21
2.6515056476
  0
LINE
  5
5AB
100
AcDbEntity
  8
0
100
AcDbLine
 62
6
  6
CONTINUOUS
 10
10.0015973989
 20
2.0801183455
 11
9.9937233832
 21
2.0801183455
  0
LINE
  5
5AC
100
AcDbEntity
  8
0
100
AcDbLine
 62
7
  6
CONTINUOUS
 10
8.0147096577
 20
2.7837899202
 11
8.0144966718
 21
2.7675199203
  0
LINE
  5
5AD
100
AcDbEntity
  8
0
100
AcDbLine
 62
7
  6
CONTINUOUS
 10
10.0732778451
 20
2.1423230699
 11
10.0644764645
 21
2.1423230699
  0
LINE
  5
5AE
100
AcDbEntity
  8
0
100
AcDbLine
 62
7
  6
CONTINUOUS
 10
10.0732881528
 20
2.1431104715
 11
10.0644764645
 21
2.1431104715
  0
LINE
  5
5AF
100
AcDbEntity
  8
0
100
AcDbLine
 62
7
  6
CONTINUOUS
 10
10.0034527762
 20
2.221850629
 11
10.0061943539
 21
2.221850629
  0
LINE
  5
5B0
100
AcDbEntity
  8
0
100
AcDbLine
 62
7
  6
CONTINUOUS
 10
10.0750919917
 20
2.2809057471
 11
10.0644764645
 21
2.2809057471
  0
LINE
  5
5B1
100
AcDbEntity
  8
0
100
AcDbLine
 62
7
  6
CONTINUOUS
 10
10.0061943539
 20
2.2809057471
 11
9.9963518343
 21
2.2809057471
  0
LINE
  5
5B2
100
AcDbEntity
  8
0
100
AcDbLine
 62
6
  6
CONTINUOUS
 10
9.9963518343
 20
2.2809057471
 11
7.909737661
 21
2.2809057471
  0
LINE
  5
5B3
100
AcDbEntity
  8
0
100
AcDbLine
 62
7
  6
CONTINUOUS
 10
9.9961549839
 20
2.2860238573
 11
9.844751509
 21
2.2860238573
  0
LINE
  5
5B4
100
AcDbEntity
  8
0
100
AcDbLine
 62
6
  6
CONTINUOUS
 10
9.523714039
 20
2.2860238573
 11
9.675219593
 21
2.2860238573
  0
LINE
  5
5B5
100
AcDbEntity
  8
0
100
AcDbLine
 62
7
  6
CONTINUOUS
 10
10.0061943539
 20
2.3596459046
 11
9.9994441296
 21
2.3596459046
  0
LINE
  5
5B6
100
AcDbEntity
  8
0
100
AcDbLine
 62
6
  6
CONTINUOUS
 10
10.0008331477
 20
2.4594450974
 11
9.9981376866
 21
2.4594450974
  0
LINE
  5
5B7
100
AcDbEntity
  8
0
100
AcDbLine
 62
6
  6
CONTINUOUS
 10
8.7996925529
 20
2.5963817155
 11
7.9926008795
 21
2.5963817155
  0
LINE
  5
5B8
100
AcDbEntity
  8
0
100
AcDbLine
 62
7
  6
CONTINUOUS
 10
9.6041028185
 20
3.8609924799
 11
9.605948291
 21
3.8618652298
  0
LINE
  5
5B9
100
AcDbEntity
  8
0
100
AcDbLine
 62
6
  6
CONTINUOUS
 10
7.9532327902
 20
2.6352289733
 11
8.7696292189
 21
2.6352364558
  0
LINE
  5
5BA
100
AcDbEntity
  8
0
100
AcDbLine
 62
6
  6
CONTINUOUS
 10
7.95376656
 20
2.6515056476
 11
8.7610888334
 21
2.6515056476
  0
LINE
  5
5BB
100
AcDbEntity
  8
0
100
AcDbLine
 62
7
  6
CONTINUOUS
 10
10.0701744002
 20
2.6565606091
 11
10.0644764645
 21
2.6565606091
  0
LINE
  5
5BC
100
AcDbEntity
  8
0
100
AcDbLine
 62
7
  6
CONTINUOUS
 10
10.0061943539
 20
2.6565606091
 11
9.9961549839
 21
2.6565606091
  0
LINE
  5
5BD
100
AcDbEntity
  8
0
100
AcDbLine
 62
6
  6
CONTINUOUS
 10
9.4450084475
 20
2.6671544259
 11
8.8549194723
 21
2.6671544259
  0
LINE
  5
5BE
100
AcDbEntity
  8
0
100
AcDbLine
 62
6
  6
CONTINUOUS
 10
8.7613638346
 20
2.6725129947
 11
8.781005813
 21
2.6725129947
  0
LINE
  5
5BF
100
AcDbEntity
  8
0
100
AcDbLine
 62
6
  6
CONTINUOUS
 10
8.8549194723
 20
2.6725129947
 11
8.8597527169
 21
2.6725129947
  0
LINE
  5
5C0
100
AcDbEntity
  8
0
100
AcDbLine
 62
7
  6
CONTINUOUS
 10
10.0699381661
 20
2.6746065345
 11
10.0644764645
 21
2.6746065345
  0
LINE
  5
5C1
100
AcDbEntity
  8
0
100
AcDbLine
 62
7
  6
CONTINUOUS
 10
10.0061943539
 20
2.6746065345
 11
9.9961549839
 21
2.6746065345
  0
LINE
  5
5C2
100
AcDbEntity
  8
0
100
AcDbLine
 62
7
  6
CONTINUOUS
 10
9.6752253505
 20
2.6746065345
 11
9.8446436723
 21
2.6746065345
  0
LINE
  5
5C3
100
AcDbEntity
  8
0
100
AcDbLine
 62
7
  6
CONTINUOUS
 10
9.8446436723
 20
2.6779382237
 11
9.6752253505
 21
2.6779382237
  0
LINE
  5
5C4
100
AcDbEntity
  8
0
100
AcDbLine
 62
7
  6
CONTINUOUS
 10
8.8746003652
 20
2.6865810465
 11
9.4253275546
 21
2.6865810465
  0
LINE
  5
5C5
100
AcDbEntity
  8
0
100
AcDbLine
 62
6
  6
CONTINUOUS
 10
8.8599656606
 20
2.6887797629
 11
8.8549194723
 21
2.6887797629
  0
LINE
  5
5C6
100
AcDbEntity
  8
0
100
AcDbLine
 62
6
  6
CONTINUOUS
 10
8.7812187567
 20
2.6887797629
 11
8.7615767783
 21
2.6887797629
  0
LINE
  5
5C7
100
AcDbEntity
  8
0
100
AcDbLine
 62
6
  6
CONTINUOUS
 10
8.8601786042
 20
2.705046531
 11
8.8549194723
 21
2.705046531
  0
LINE
  5
5C8
100
AcDbEntity
  8
0
100
AcDbLine
 62
6
  6
CONTINUOUS
 10
8.7814317003
 20
2.705046531
 11
8.761789722
 21
2.705046531
  0
LINE
  5
5C9
100
AcDbEntity
  8
0
100
AcDbLine
 62
6
  6
CONTINUOUS
 10
8.8014207406
 20
2.7265600207
 11
8.8549228729
 21
2.7265600207
  0
LINE
  5
5CA
100
AcDbEntity
  8
0
100
AcDbLine
 62
6
  6
CONTINUOUS
 10
9.4450050468
 20
2.7265600207
 11
9.5180769554
 21
2.7265600207
  0
LINE
  5
5CB
100
AcDbEntity
  8
0
100
AcDbLine
 62
6
  6
CONTINUOUS
 10
9.9961549839
 20
2.7336616526
 11
9.8643287117
 21
2.7336616526
  0
LINE
  5
5CC
100
AcDbEntity
  8
0
100
AcDbLine
 62
6
  6
CONTINUOUS
 10
9.6555403112
 20
2.7336616526
 11
9.523714039
 21
2.7336616526
  0
LINE
  5
5CD
100
AcDbEntity
  8
0
100
AcDbLine
 62
6
  6
CONTINUOUS
 10
8.7621816561
 20
2.7349863842
 11
7.9549658589
 21
2.7349863842
  0
LINE
  5
5CE
100
AcDbEntity
  8
0
100
AcDbLine
 62
6
  6
CONTINUOUS
 10
9.8446436723
 20
2.7438505536
 11
9.6752253505
 21
2.7438505536
  0
LINE
  5
5CF
100
AcDbEntity
  8
0
100
AcDbLine
 62
7
  6
CONTINUOUS
 10
10.0750919917
 20
2.7286182986
 11
10.0644764645
 21
2.7287577043
  0
LINE
  5
5D0
100
AcDbEntity
  8
0
100
AcDbLine
 62
7
  6
CONTINUOUS
 10
8.7610888017
 20
2.6515056476
 11
8.7610888017
 21
2.6352364558
  0
LINE
  5
5D1
100
AcDbEntity
  8
0
100
AcDbLine
 62
6
  6
CONTINUOUS
 10
8.7643926473
 20
2.9038840219
 11
8.7628205294
 21
2.7837899202
  0
LINE
  5
5D2
100
AcDbEntity
  8
0
100
AcDbLine
 62
7
  6
CONTINUOUS
 10
8.7621816561
 20
2.7349863842
 11
8.7610888334
 21
2.6515056476
  0
LINE
  5
5D3
100
AcDbEntity
  8
0
100
AcDbLine
 62
6
  6
CONTINUOUS
 10
8.7650314823
 20
2.9364175581
 11
8.7643926465
 21
2.9038840219
  0
LINE
  5
5D4
100
AcDbEntity
  8
0
100
AcDbLine
 62
6
  6
CONTINUOUS
 10
8.762820491
 20
2.7675199203
 11
8.7621816554
 21
2.7349863842
  0
LINE
  5
5D5
100
AcDbEntity
  8
0
100
AcDbLine
 62
7
  6
CONTINUOUS
 10
9.6031800823
 20
3.8603379178
 11
9.6041028185
 21
3.8609924799
  0
LINE
  5
5D6
100
AcDbEntity
  8
0
100
AcDbLine
 62
7
  6
CONTINUOUS
 10
10.0359739836
 20
2.7862870391
 11
10.0750919917
 21
2.7867991217
  0
LINE
  5
5D7
100
AcDbEntity
  8
0
100
AcDbLine
 62
6
  6
CONTINUOUS
 10
10.1142044013
 20
2.787311546
 11
10.0750919917
 21
2.7867991217
  0
LINE
  5
5D8
100
AcDbEntity
  8
0
100
AcDbLine
 62
6
  6
CONTINUOUS
 10
10.0359739836
 20
2.7862870391
 11
10.0140683697
 21
2.7861040164
  0
LINE
  5
5D9
100
AcDbEntity
  8
0
100
AcDbLine
 62
6
  6
CONTINUOUS
 10
10.0140683697
 20
2.7879398111
 11
10.1142044013
 21
2.7893539855
  0
LINE
  5
5DA
100
AcDbEntity
  8
0
100
AcDbLine
 62
7
  6
CONTINUOUS
 10
9.4253207533
 20
2.764987426
 11
8.8746071664
 21
2.764987426
  0
LINE
  5
5DB
100
AcDbEntity
  8
0
100
AcDbLine
 62
6
  6
CONTINUOUS
 10
7.9549658589
 20
2.7675199203
 11
8.7628204871
 21
2.7675199203
  0
LINE
  5
5DC
100
AcDbEntity
  8
0
100
AcDbLine
 62
6
  6
CONTINUOUS
 10
9.9959581335
 20
2.7706585631
 11
9.5235171886
 21
2.7706585631
  0
LINE
  5
5DD
100
AcDbEntity
  8
0
100
AcDbLine
 62
7
  6
CONTINUOUS
 10
8.7628205294
 20
2.7837899202
 11
7.9554627642
 21
2.7837899202
  0
LINE
  5
5DE
100
AcDbEntity
  8
0
100
AcDbLine
 62
6
  6
CONTINUOUS
 10
8.8549228729
 20
2.7846717158
 11
9.4450050468
 21
2.7846717158
  0
LINE
  5
5DF
100
AcDbEntity
  8
0
100
AcDbLine
 62
6
  6
CONTINUOUS
 10
10.0750919917
 20
1.5880914307
 11
10.094775327
 21
1.5681394534
  0
LINE
  5
5E0
100
AcDbEntity
  8
0
100
AcDbLine
 62
6
  6
CONTINUOUS
 10
8.8351431684
 20
2.7265600207
 11
8.8336923397
 21
3.3551015199
  0
LINE
  5
5E1
100
AcDbEntity
  8
0
100
AcDbLine
 62
6
  6
CONTINUOUS
 10
8.8351431684
 20
2.7265600207
 11
8.8351431684
 21
3.3536505452
  0
LINE
  5
5E2
100
AcDbEntity
  8
0
100
AcDbLine
 62
7
  6
CONTINUOUS
 10
8.8549228729
 20
2.7846717158
 11
8.8549194723
 21
2.6671544259
  0
LINE
  5
5E3
100
AcDbEntity
  8
0
100
AcDbLine
 62
7
  6
CONTINUOUS
 10
8.8050018812
 20
4.5055728651
 11
8.804747558
 21
4.4861451189
  0
LINE
  5
5E4
100
AcDbEntity
  8
0
100
AcDbLine
 62
7
  6
CONTINUOUS
 10
8.7918708114
 20
3.502490325
 11
8.7915723061
 21
3.4796874974
  0
LINE
  5
5E5
100
AcDbEntity
  8
0
100
AcDbLine
 62
6
  6
CONTINUOUS
 10
8.7915723061
 20
3.4796874974
 11
8.7807312223
 21
2.6515370094
  0
LINE
  5
5E6
100
AcDbEntity
  8
0
100
AcDbLine
 62
6
  6
CONTINUOUS
 10
8.7918708114
 20
3.502490325
 11
8.804747558
 21
4.4861451189
  0
LINE
  5
5E7
100
AcDbEntity
  8
0
100
AcDbLine
 62
6
  6
CONTINUOUS
 10
8.8115541657
 20
3.5216169771
 11
8.8166244376
 21
3.9089350942
  0
LINE
  5
5E8
100
AcDbEntity
  8
0
100
AcDbLine
 62
6
  6
CONTINUOUS
 10
8.8173755783
 20
3.9471881921
 11
8.8244309159
 21
4.486145495
  0
LINE
  5
5E9
100
AcDbEntity
  8
0
100
AcDbLine
 62
6
  6
CONTINUOUS
 10
8.8345154006
 20
3.3550907454
 11
8.83457388
 21
3.359557985
  0
LINE
  5
5EA
100
AcDbEntity
  8
0
100
AcDbLine
 62
6
  6
CONTINUOUS
 10
8.8417656203
 20
3.9089350942
 11
8.8422663808
 21
3.9471881921
  0
LINE
  5
5EB
100
AcDbEntity
  8
0
100
AcDbLine
 62
6
  6
CONTINUOUS
 10
8.8611395653
 20
2.7784543586
 11
8.8597456538
 21
2.6719734398
  0
LINE
  5
5EC
100
AcDbEntity
  8
0
100
AcDbLine
 62
7
  6
CONTINUOUS
 10
8.871043168
 20
3.5349906598
 11
8.871273995
 21
3.5526235359
  0
LINE
  5
5ED
100
AcDbEntity
  8
0
100
AcDbLine
 62
7
  6
CONTINUOUS
 10
8.8715474428
 20
3.5735122176
 11
8.8717783622
 21
3.5911521487
  0
LINE
  5
5EE
100
AcDbEntity
  8
0
100
AcDbLine
 62
7
  6
CONTINUOUS
 10
8.8721885339
 20
3.6224851712
 11
8.8724194533
 21
3.6401251024
  0
LINE
  5
5EF
100
AcDbEntity
  8
0
100
AcDbLine
 62
7
  6
CONTINUOUS
 10
8.8726929011
 20
3.661013784
 11
8.8729238204
 21
3.6786537152
  0
LINE
  5
5F0
100
AcDbEntity
  8
0
100
AcDbLine
 62
7
  6
CONTINUOUS
 10
8.8733339922
 20
3.7099867377
 11
8.8735649115
 21
3.7276266688
  0
LINE
  5
5F1
100
AcDbEntity
  8
0
100
AcDbLine
 62
7
  6
CONTINUOUS
 10
8.8738383593
 20
3.7485153505
 11
8.8740692787
 21
3.7661552816
  0
LINE
  5
5F2
100
AcDbEntity
  8
0
100
AcDbLine
 62
7
  6
CONTINUOUS
 10
8.8744794504
 20
3.7974883041
 11
8.8747103698
 21
3.8151282353
  0
LINE
  5
5F3
100
AcDbEntity
  8
0
100
AcDbLine
 62
7
  6
CONTINUOUS
 10
8.8749838176
 20
3.8360169169
 11
8.8752147369
 21
3.8536568481
  0
LINE
  5
5F4
100
AcDbEntity
  8
0
100
AcDbLine
 62
6
  6
CONTINUOUS
 10
8.8759383688
 20
3.9089350942
 11
8.8764391293
 21
3.9471881921
  0
LINE
  5
5F5
100
AcDbEntity
  8
0
100
AcDbLine
 62
6
  6
CONTINUOUS
 10
8.7996925529
 20
2.5963817155
 11
8.8112556647
 21
3.4760119983
  0
LINE
  5
5F6
100
AcDbEntity
  8
0
100
AcDbLine
 62
7
  6
CONTINUOUS
 10
8.8173755829
 20
3.9471881941
 11
8.8166244665
 21
3.9089363381
  0
LINE
  5
5F7
100
AcDbEntity
  8
0
100
AcDbLine
 62
6
  6
CONTINUOUS
 10
8.7643926473
 20
2.9038840219
 11
7.9571768501
 21
2.9038840219
  0
LINE
  5
5F8
100
AcDbEntity
  8
0
100
AcDbLine
 62
6
  6
CONTINUOUS
 10
7.9571768501
 20
2.9364175581
 11
8.7650314783
 21
2.9364175581
  0
LINE
  5
5F9
100
AcDbEntity
  8
0
100
AcDbLine
 62
7
  6
CONTINUOUS
 10
9.6022573461
 20
3.8592469799
 11
9.6031800823
 21
3.8603379178
  0
LINE
  5
5FA
100
AcDbEntity
  8
0
100
AcDbLine
 62
7
  6
CONTINUOUS
 10
9.63547585
 20
3.857283292
 11
9.6345531138
 21
3.8561923541
  0
LINE
  5
5FB
100
AcDbEntity
  8
0
100
AcDbLine
 62
7
  6
CONTINUOUS
 10
9.5235171886
 20
3.0486222825
 11
9.5138609294
 21
3.0486222825
  0
LINE
  5
5FC
100
AcDbEntity
  8
0
100
AcDbLine
 62
7
  6
CONTINUOUS
 10
9.4465977663
 20
3.3748304119
 11
9.4451013984
 21
3.373334044
  0
LINE
  5
5FD
100
AcDbEntity
  8
0
100
AcDbLine
 62
7
  6
CONTINUOUS
 10
8.8336923397
 20
3.3551015199
 11
8.8351431684
 21
3.3536506911
  0
LINE
  5
5FE
100
AcDbEntity
  8
0
100
AcDbLine
 62
7
  6
CONTINUOUS
 10
8.8548265214
 20
3.373334044
 11
8.8533301534
 21
3.3748304119
  0
LINE
  5
5FF
100
AcDbEntity
  8
0
100
AcDbLine
 62
7
  6
CONTINUOUS
 10
9.4647847513
 20
3.3536506911
 11
9.4662355801
 21
3.3551015199
  0
LINE
  5
600
100
AcDbEntity
  8
0
100
AcDbLine
 62
6
  6
CONTINUOUS
 10
9.4451013984
 20
3.373334044
 11
8.8548265214
 21
3.373334044
  0
LINE
  5
601
100
AcDbEntity
  8
0
100
AcDbLine
 62
6
  6
CONTINUOUS
 10
8.8533301534
 20
3.3748304119
 11
9.4465977663
 21
3.3748304119
  0
LINE
  5
602
100
AcDbEntity
  8
0
100
AcDbLine
 62
6
  6
CONTINUOUS
 10
9.9959581335
 20
3.4646766253
 11
9.5235171886
 21
3.4646766253
  0
LINE
  5
603
100
AcDbEntity
  8
0
100
AcDbLine
 62
6
  6
CONTINUOUS
 10
9.5082660916
 20
3.4760119983
 11
8.8112556647
 21
3.4760119983
  0
LINE
  5
604
100
AcDbEntity
  8
0
100
AcDbLine
 62
6
  6
CONTINUOUS
 10
9.5235171886
 20
3.5102851265
 11
9.9959581335
 21
3.5102851265
  0
LINE
  5
605
100
AcDbEntity
  8
0
100
AcDbLine
 62
7
  6
CONTINUOUS
 10
9.5550132516
 20
3.5123360892
 11
9.9644620705
 21
3.5123360892
  0
LINE
  5
606
100
AcDbEntity
  8
0
100
AcDbLine
 62
7
  6
CONTINUOUS
 10
9.9605250626
 20
3.5168969394
 11
9.5589502595
 21
3.5168969394
  0
LINE
  5
607
100
AcDbEntity
  8
0
100
AcDbLine
 62
6
  6
CONTINUOUS
 10
8.8115541657
 20
3.5216169771
 11
9.5076690897
 21
3.5216169771
  0
LINE
  5
608
100
AcDbEntity
  8
0
100
AcDbLine
 62
7
  6
CONTINUOUS
 10
9.4245755458
 20
3.8536568481
 11
9.4248064651
 21
3.8360169169
  0
LINE
  5
609
100
AcDbEntity
  8
0
100
AcDbLine
 62
7
  6
CONTINUOUS
 10
9.4250799129
 20
3.8151282353
 11
9.4253108323
 21
3.7974883041
  0
LINE
  5
60A
100
AcDbEntity
  8
0
100
AcDbLine
 62
7
  6
CONTINUOUS
 10
9.425721004
 20
3.7661552816
 11
9.4259519234
 21
3.7485153505
  0
LINE
  5
60B
100
AcDbEntity
  8
0
100
AcDbLine
 62
7
  6
CONTINUOUS
 10
9.4262253712
 20
3.7276266688
 11
9.4264562905
 21
3.7099867377
  0
LINE
  5
60C
100
AcDbEntity
  8
0
100
AcDbLine
 62
7
  6
CONTINUOUS
 10
9.4268664623
 20
3.6786537152
 11
9.4270973816
 21
3.661013784
  0
LINE
  5
60D
100
AcDbEntity
  8
0
100
AcDbLine
 62
7
  6
CONTINUOUS
 10
9.4273708294
 20
3.6401251024
 11
9.4276017488
 21
3.6224851712
  0
LINE
  5
60E
100
AcDbEntity
  8
0
100
AcDbLine
 62
7
  6
CONTINUOUS
 10
9.4280119205
 20
3.5911521487
 11
9.4282428399
 21
3.5735122176
  0
LINE
  5
60F
100
AcDbEntity
  8
0
100
AcDbLine
 62
7
  6
CONTINUOUS
 10
9.4285162877
 20
3.5526235359
 11
9.4287471147
 21
3.5349906598
  0
LINE
  5
610
100
AcDbEntity
  8
0
100
AcDbLine
 62
6
  6
CONTINUOUS
 10
9.4386524959
 20
2.7783184948
 11
9.4400428152
 21
2.6721119889
  0
LINE
  5
611
100
AcDbEntity
  8
0
100
AcDbLine
 62
7
  6
CONTINUOUS
 10
9.5082660916
 20
3.4760119983
 11
9.523714039
 21
2.2959431505
  0
LINE
  5
612
100
AcDbEntity
  8
0
100
AcDbLine
 62
7
  6
CONTINUOUS
 10
9.5238438674
 20
2.2860255569
 11
9.5239108894
 21
2.2809057471
  0
LINE
  5
613
100
AcDbEntity
  8
0
100
AcDbLine
 62
7
  6
CONTINUOUS
 10
9.5076690897
 20
3.5216169771
 11
9.5020980573
 21
3.9471881921
  0
LINE
  5
614
100
AcDbEntity
  8
0
100
AcDbLine
 62
7
  6
CONTINUOUS
 10
9.5244195258
 20
4.486145495
 11
9.5248060627
 21
4.4566179359
  0
LINE
  5
615
100
AcDbEntity
  8
0
100
AcDbLine
 62
7
  6
CONTINUOUS
 10
9.4450084475
 20
2.6671544259
 11
9.4450050468
 21
2.7846717158
  0
LINE
  5
616
100
AcDbEntity
  8
0
100
AcDbLine
 62
6
  6
CONTINUOUS
 10
9.4647847513
 20
3.3536505452
 11
9.4647847513
 21
2.7265600207
  0
LINE
  5
617
100
AcDbEntity
  8
0
100
AcDbLine
 62
6
  6
CONTINUOUS
 10
9.523714039
 20
2.2860238573
 11
9.5235171886
 21
4.1349081132
  0
LINE
  5
618
100
AcDbEntity
  8
0
100
AcDbLine
 62
6
  6
CONTINUOUS
 10
9.5333597083
 20
4.4675562088
 11
9.5333597083
 21
4.6840916419
  0
LINE
  5
619
100
AcDbEntity
  8
0
100
AcDbLine
 62
6
  6
CONTINUOUS
 10
9.4647847513
 20
2.7265600207
 11
9.4662355801
 21
3.3551015199
  0
LINE
  5
61A
100
AcDbEntity
  8
0
100
AcDbLine
 62
7
  6
CONTINUOUS
 10
10.0008331477
 20
2.4594450974
 11
10.0061943539
 21
2.4501592158
  0
LINE
  5
61B
100
AcDbEntity
  8
0
100
AcDbLine
 62
7
  6
CONTINUOUS
 10
9.5550132516
 20
3.9232596167
 11
9.5550132516
 21
3.5123360892
  0
LINE
  5
61C
100
AcDbEntity
  8
0
100
AcDbLine
 62
7
  6
CONTINUOUS
 10
9.5589502595
 20
3.5168969394
 11
9.5589502595
 21
3.8680901239
  0
LINE
  5
61D
100
AcDbEntity
  8
0
100
AcDbLine
 62
7
  6
CONTINUOUS
 10
9.5670211256
 20
2.2860238573
 11
9.5670211256
 21
2.2809057471
  0
LINE
  5
61E
100
AcDbEntity
  8
0
100
AcDbLine
 62
7
  6
CONTINUOUS
 10
9.5825723067
 20
3.8680901239
 11
9.5825723067
 21
3.8561261746
  0
LINE
  5
61F
100
AcDbEntity
  8
0
100
AcDbLine
 62
7
  6
CONTINUOUS
 10
9.5825723067
 20
3.5123360892
 11
9.5825723067
 21
3.5168969394
  0
LINE
  5
620
100
AcDbEntity
  8
0
100
AcDbLine
 62
7
  6
CONTINUOUS
 10
9.6022573461
 20
3.857283292
 11
9.6022573461
 21
3.8592469799
  0
LINE
  5
621
100
AcDbEntity
  8
0
100
AcDbLine
 62
6
  6
CONTINUOUS
 10
9.6024541965
 20
2.2860238573
 11
9.6024541965
 21
2.2809057471
  0
LINE
  5
622
100
AcDbEntity
  8
0
100
AcDbLine
 62
7
  6
CONTINUOUS
 10
9.63547585
 20
3.8592469799
 11
9.63547585
 21
3.857283292
  0
LINE
  5
623
100
AcDbEntity
  8
0
100
AcDbLine
 62
6
  6
CONTINUOUS
 10
9.6416274248
 20
3.8612244826
 11
9.6416274248
 21
4.1211549196
  0
LINE
  5
624
100
AcDbEntity
  8
0
100
AcDbLine
 62
7
  6
CONTINUOUS
 10
9.6416274248
 20
4.1211549196
 11
9.6416274248
 21
4.1349081132
  0
LINE
  5
625
100
AcDbEntity
  8
0
100
AcDbLine
 62
6
  6
CONTINUOUS
 10
9.6514699445
 20
3.9478711694
 11
9.6514699445
 21
4.4478711694
  0
LINE
  5
626
100
AcDbEntity
  8
0
100
AcDbLine
 62
6
  6
CONTINUOUS
 10
9.6555403112
 20
2.2860238573
 11
9.6555403112
 21
2.7336616526
  0
LINE
  5
627
100
AcDbEntity
  8
0
100
AcDbLine
 62
6
  6
CONTINUOUS
 10
9.6600959923
 20
2.2860238573
 11
9.6600959923
 21
2.2809057471
  0
LINE
  5
628
100
AcDbEntity
  8
0
100
AcDbLine
 62
7
  6
CONTINUOUS
 10
9.6643156647
 20
2.2809057471
 11
9.6643156647
 21
2.2860238573
  0
LINE
  5
629
100
AcDbEntity
  8
0
100
AcDbLine
 62
6
  6
CONTINUOUS
 10
9.6745545991
 20
2.7675910812
 11
9.6745545991
 21
2.2860238573
  0
LINE
  5
62A
100
AcDbEntity
  8
0
100
AcDbLine
 62
6
  6
CONTINUOUS
 10
9.6752253505
 20
2.2860238573
 11
9.6752253505
 21
2.7675910812
  0
LINE
  5
62B
100
AcDbEntity
  8
0
100
AcDbLine
 62
7
  6
CONTINUOUS
 10
9.605948291
 20
3.8618652298
 11
9.6087164996
 21
3.8625197936
  0
LINE
  5
62C
100
AcDbEntity
  8
0
100
AcDbLine
 62
7
  6
CONTINUOUS
 10
9.6087164996
 20
3.8625197936
 11
9.6133301807
 21
3.8631743557
  0
LINE
  5
62D
100
AcDbEntity
  8
0
100
AcDbLine
 62
7
  6
CONTINUOUS
 10
9.4259519234
 20
3.7485153505
 11
8.8738383593
 21
3.7485153505
  0
LINE
  5
62E
100
AcDbEntity
  8
0
100
AcDbLine
 62
6
  6
CONTINUOUS
 10
9.6745545991
 20
2.7702284389
 11
9.6752202047
 21
2.7677833033
  0
LINE
  5
62F
100
AcDbEntity
  8
0
100
AcDbLine
 62
7
  6
CONTINUOUS
 10
9.7205644327
 20
2.6779382237
 11
9.7205644327
 21
2.6746065345
  0
LINE
  5
630
100
AcDbEntity
  8
0
100
AcDbLine
 62
7
  6
CONTINUOUS
 10
9.7400526217
 20
3.5168969394
 11
9.7400526217
 21
3.5123360892
  0
LINE
  5
631
100
AcDbEntity
  8
0
100
AcDbLine
 62
7
  6
CONTINUOUS
 10
9.7794227004
 20
3.5123360892
 11
9.7794227004
 21
3.5168969394
  0
LINE
  5
632
100
AcDbEntity
  8
0
100
AcDbLine
 62
7
  6
CONTINUOUS
 10
9.7993045902
 20
2.6746065345
 11
9.7993045902
 21
2.6779382237
  0
LINE
  5
633
100
AcDbEntity
  8
0
100
AcDbLine
 62
7
  6
CONTINUOUS
 10
9.8778478973
 20
4.1211549196
 11
9.8975329366
 21
4.1260367168
  0
LINE
  5
634
100
AcDbEntity
  8
0
100
AcDbLine
 62
7
  6
CONTINUOUS
 10
9.6133301807
 20
3.8631743557
 11
9.618866598
 21
3.8633925436
  0
LINE
  5
635
100
AcDbEntity
  8
0
100
AcDbLine
 62
7
  6
CONTINUOUS
 10
9.9644620705
 20
3.7836805651
 11
9.9605250626
 21
3.7836805651
  0
LINE
  5
636
100
AcDbEntity
  8
0
100
AcDbLine
 62
7
  6
CONTINUOUS
 10
9.5589502595
 20
3.7836805651
 11
9.5550132516
 21
3.7836805651
  0
LINE
  5
637
100
AcDbEntity
  8
0
100
AcDbLine
 62
7
  6
CONTINUOUS
 10
9.4248064651
 20
3.8360169169
 11
8.8749838176
 21
3.8360169169
  0
LINE
  5
638
100
AcDbEntity
  8
0
100
AcDbLine
 62
7
  6
CONTINUOUS
 10
8.8752147369
 20
3.8536568481
 11
9.4245755458
 21
3.8536568481
  0
LINE
  5
639
100
AcDbEntity
  8
0
100
AcDbLine
 62
6
  6
CONTINUOUS
 10
9.9959581335
 20
3.8548468649
 11
9.9644620705
 21
3.8548468649
  0
LINE
  5
63A
100
AcDbEntity
  8
0
100
AcDbLine
 62
6
  6
CONTINUOUS
 10
9.5550132516
 20
3.8548468649
 11
9.5235171886
 21
3.8548468649
  0
LINE
  5
63B
100
AcDbEntity
  8
0
100
AcDbLine
 62
7
  6
CONTINUOUS
 10
9.5825723067
 20
3.8561261746
 11
9.9369030154
 21
3.8561261746
  0
LINE
  5
63C
100
AcDbEntity
  8
0
100
AcDbLine
 62
7
  6
CONTINUOUS
 10
9.5825723067
 20
3.8583971342
 11
9.6022573461
 21
3.8583971342
  0
LINE
  5
63D
100
AcDbEntity
  8
0
100
AcDbLine
 62
7
  6
CONTINUOUS
 10
9.63547585
 20
3.8583971342
 11
9.9369030154
 21
3.8583971342
  0
LINE
  5
63E
100
AcDbEntity
  8
0
100
AcDbLine
 62
6
  6
CONTINUOUS
 10
9.8778478973
 20
3.8612244826
 11
9.6416274248
 21
3.8612244826
  0
LINE
  5
63F
100
AcDbEntity
  8
0
100
AcDbLine
 62
7
  6
CONTINUOUS
 10
9.5589502595
 20
3.8680901239
 11
9.5825723067
 21
3.8680901239
  0
LINE
  5
640
100
AcDbEntity
  8
0
100
AcDbLine
 62
7
  6
CONTINUOUS
 10
9.9369030154
 20
3.8680901239
 11
9.9605250626
 21
3.8680901239
  0
LINE
  5
641
100
AcDbEntity
  8
0
100
AcDbLine
 62
7
  6
CONTINUOUS
 10
9.6416274248
 20
3.8810504557
 11
9.8778478973
 21
3.8810504557
  0
LINE
  5
642
100
AcDbEntity
  8
0
100
AcDbLine
 62
6
  6
CONTINUOUS
 10
9.6416274248
 20
3.8888160513
 11
9.8778478973
 21
3.8888160513
  0
LINE
  5
643
100
AcDbEntity
  8
0
100
AcDbLine
 62
7
  6
CONTINUOUS
 10
9.618866598
 20
3.8633925436
 11
9.6244030154
 21
3.8631743557
  0
LINE
  5
644
100
AcDbEntity
  8
0
100
AcDbLine
 62
6
  6
CONTINUOUS
 10
9.8446436723
 20
2.7675749091
 11
9.8446436723
 21
2.2860238573
  0
LINE
  5
645
100
AcDbEntity
  8
0
100
AcDbLine
 62
6
  6
CONTINUOUS
 10
9.8453144238
 20
2.2860238573
 11
9.8453144238
 21
2.7675749091
  0
LINE
  5
646
100
AcDbEntity
  8
0
100
AcDbLine
 62
7
  6
CONTINUOUS
 10
9.8555533582
 20
2.2860238573
 11
9.8555533582
 21
2.2809057471
  0
LINE
  5
647
100
AcDbEntity
  8
0
100
AcDbLine
 62
6
  6
CONTINUOUS
 10
9.8597730305
 20
2.2860238573
 11
9.8597730305
 21
2.2809057471
  0
LINE
  5
648
100
AcDbEntity
  8
0
100
AcDbLine
 62
6
  6
CONTINUOUS
 10
9.8643287117
 20
2.7336616526
 11
9.8643287117
 21
2.2860238573
  0
LINE
  5
649
100
AcDbEntity
  8
0
100
AcDbLine
 62
6
  6
CONTINUOUS
 10
9.8680053776
 20
4.4478711694
 11
9.8680053776
 21
3.9478711694
  0
LINE
  5
64A
100
AcDbEntity
  8
0
100
AcDbLine
 62
6
  6
CONTINUOUS
 10
9.8778478973
 20
3.8612244826
 11
9.8778478973
 21
4.1211549196
  0
LINE
  5
64B
100
AcDbEntity
  8
0
100
AcDbLine
 62
7
  6
CONTINUOUS
 10
9.8778478973
 20
4.1211549196
 11
9.8778478973
 21
4.1349081132
  0
LINE
  5
64C
100
AcDbEntity
  8
0
100
AcDbLine
 62
6
  6
CONTINUOUS
 10
9.9174148264
 20
2.2860238573
 11
9.9174148264
 21
2.2809057471
  0
LINE
  5
64D
100
AcDbEntity
  8
0
100
AcDbLine
 62
6
  6
CONTINUOUS
 10
9.8446538994
 20
2.7677707862
 11
9.8453144238
 21
2.7702284389
  0
LINE
  5
64E
100
AcDbEntity
  8
0
100
AcDbLine
 62
7
  6
CONTINUOUS
 10
9.6416274248
 20
4.1309185141
 11
9.6219423854
 21
4.1260367168
  0
LINE
  5
64F
100
AcDbEntity
  8
0
100
AcDbLine
 62
7
  6
CONTINUOUS
 10
8.8166244376
 20
3.9089350942
 11
9.5025988178
 21
3.9089350942
  0
LINE
  5
650
100
AcDbEntity
  8
0
100
AcDbLine
 62
6
  6
CONTINUOUS
 10
9.5235171886
 20
3.9232596167
 11
9.5550132516
 21
3.9232596167
  0
LINE
  5
651
100
AcDbEntity
  8
0
100
AcDbLine
 62
6
  6
CONTINUOUS
 10
9.9644620705
 20
3.9232596167
 11
9.9959581335
 21
3.9232596167
  0
LINE
  5
652
100
AcDbEntity
  8
0
100
AcDbLine
 62
7
  6
CONTINUOUS
 10
9.5020980573
 20
3.9471881921
 11
8.8173755783
 21
3.9471881921
  0
LINE
  5
653
100
AcDbEntity
  8
0
100
AcDbLine
 62
7
  6
CONTINUOUS
 10
9.6416274248
 20
3.9478711694
 11
9.6514699445
 21
3.9478711694
  0
LINE
  5
654
100
AcDbEntity
  8
0
100
AcDbLine
 62
6
  6
CONTINUOUS
 10
9.6514699445
 20
3.9478711694
 11
9.8680053776
 21
3.9478711694
  0
LINE
  5
655
100
AcDbEntity
  8
0
100
AcDbLine
 62
7
  6
CONTINUOUS
 10
9.8680053776
 20
3.9478711694
 11
9.8778478973
 21
3.9478711694
  0
LINE
  5
656
100
AcDbEntity
  8
0
100
AcDbLine
 62
7
  6
CONTINUOUS
 10
9.6244030154
 20
3.8631743557
 11
9.6290166965
 21
3.8625197936
  0
LINE
  5
657
100
AcDbEntity
  8
0
100
AcDbLine
 62
7
  6
CONTINUOUS
 10
9.6290166965
 20
3.8625197936
 11
9.6317849051
 21
3.8618652298
  0
LINE
  5
658
100
AcDbEntity
  8
0
100
AcDbLine
 62
7
  6
CONTINUOUS
 10
9.9962848123
 20
2.2860255569
 11
9.9963518343
 21
2.2809057471
  0
LINE
  5
659
100
AcDbEntity
  8
0
100
AcDbLine
 62
6
  6
CONTINUOUS
 10
9.9720816138
 20
4.1349081132
 11
9.9678702172
 21
4.4566167402
  0
LINE
  5
65A
100
AcDbEntity
  8
0
100
AcDbLine
 62
7
  6
CONTINUOUS
 10
9.9678702172
 20
4.4566167402
 11
9.9677270117
 21
4.4675562088
  0
LINE
  5
65B
100
AcDbEntity
  8
0
100
AcDbLine
 62
6
  6
CONTINUOUS
 10
10.0004741883
 20
2.2809597117
 11
9.9963518343
 21
2.595866377
  0
LINE
  5
65C
100
AcDbEntity
  8
0
100
AcDbLine
 62
7
  6
CONTINUOUS
 10
9.9369030154
 20
3.5168969394
 11
9.9369030154
 21
3.5123360892
  0
LINE
  5
65D
100
AcDbEntity
  8
0
100
AcDbLine
 62
7
  6
CONTINUOUS
 10
9.9369030154
 20
3.8561261746
 11
9.9369030154
 21
3.8680901239
  0
LINE
  5
65E
100
AcDbEntity
  8
0
100
AcDbLine
 62
7
  6
CONTINUOUS
 10
9.9528478973
 20
2.2809057471
 11
9.9528478973
 21
2.2860238573
  0
LINE
  5
65F
100
AcDbEntity
  8
0
100
AcDbLine
 62
7
  6
CONTINUOUS
 10
9.9605250626
 20
3.8680901239
 11
9.9605250626
 21
3.5168969394
  0
LINE
  5
660
100
AcDbEntity
  8
0
100
AcDbLine
 62
7
  6
CONTINUOUS
 10
9.9644620705
 20
3.5123360892
 11
9.9644620705
 21
3.9232596167
  0
LINE
  5
661
100
AcDbEntity
  8
0
100
AcDbLine
 62
6
  6
CONTINUOUS
 10
9.9861156138
 20
4.4675562088
 11
9.9861156138
 21
4.6840916419
  0
LINE
  5
662
100
AcDbEntity
  8
0
100
AcDbLine
 62
6
  6
CONTINUOUS
 10
9.9961549839
 20
2.2860238573
 11
9.9959581335
 21
4.1349081132
  0
LINE
  5
663
100
AcDbEntity
  8
0
100
AcDbLine
 62
7
  6
CONTINUOUS
 10
10.0061943539
 20
1.8443661176
 11
10.0061943539
 21
2.7664686888
  0
LINE
  5
664
100
AcDbEntity
  8
0
100
AcDbLine
 62
7
  6
CONTINUOUS
 10
10.0140683697
 20
2.7817668725
 11
10.0140683697
 21
2.7879398111
  0
LINE
  5
665
100
AcDbEntity
  8
0
100
AcDbLine
 62
7
  6
CONTINUOUS
 10
10.0256217241
 20
2.7861520378
 11
10.0256217241
 21
2.78618247
  0
LINE
  5
666
100
AcDbEntity
  8
0
100
AcDbLine
 62
7
  6
CONTINUOUS
 10
10.0359739836
 20
2.7863179884
 11
10.0359739836
 21
2.7862870391
  0
LINE
  5
667
100
AcDbEntity
  8
0
100
AcDbLine
 62
7
  6
CONTINUOUS
 10
10.0318536372
 20
1.8439918032
 11
10.0318189815
 21
1.8360493572
  0
LINE
  5
668
100
AcDbEntity
  8
0
100
AcDbLine
 62
6
  6
CONTINUOUS
 10
9.9869203334
 20
1.5604333062
 11
9.9963518343
 21
2.2809057471
  0
LINE
  5
669
100
AcDbEntity
  8
0
100
AcDbLine
 62
6
  6
CONTINUOUS
 10
10.0015973989
 20
2.0801183455
 11
10.0034527762
 21
2.221850629
  0
LINE
  5
66A
100
AcDbEntity
  8
0
100
AcDbLine
 62
6
  6
CONTINUOUS
 10
10.0307756645
 20
1.8440066607
 11
10.0306711639
 21
1.8360238573
  0
LINE
  5
66B
100
AcDbEntity
  8
0
100
AcDbLine
 62
6
  6
CONTINUOUS
 10
9.9959581335
 20
4.0589614724
 11
9.8778478973
 21
4.0589614724
  0
LINE
  5
66C
100
AcDbEntity
  8
0
100
AcDbLine
 62
6
  6
CONTINUOUS
 10
9.6416274248
 20
4.0589614724
 11
9.5235171886
 21
4.0589614724
  0
LINE
  5
66D
100
AcDbEntity
  8
0
100
AcDbLine
 62
6
  6
CONTINUOUS
 10
9.9959581335
 20
4.1045699736
 11
9.8778478973
 21
4.1045699736
  0
LINE
  5
66E
100
AcDbEntity
  8
0
100
AcDbLine
 62
6
  6
CONTINUOUS
 10
9.6416274248
 20
4.1045699736
 11
9.5235171886
 21
4.1045699736
  0
LINE
  5
66F
100
AcDbEntity
  8
0
100
AcDbLine
 62
6
  6
CONTINUOUS
 10
9.5235171886
 20
4.1349081132
 11
9.6416274248
 21
4.1349081132
  0
LINE
  5
670
100
AcDbEntity
  8
0
100
AcDbLine
 62
6
  6
CONTINUOUS
 10
9.8778478973
 20
4.1349081132
 11
9.9959581335
 21
4.1349081132
  0
LINE
  5
671
100
AcDbEntity
  8
0
100
AcDbLine
 62
7
  6
CONTINUOUS
 10
9.6317849051
 20
3.8618652298
 11
9.6336303776
 21
3.8609924799
  0
LINE
  5
672
100
AcDbEntity
  8
0
100
AcDbLine
 62
7
  6
CONTINUOUS
 10
9.6336303776
 20
3.8609924799
 11
9.6345531138
 21
3.8603379178
  0
LINE
  5
673
100
AcDbEntity
  8
0
100
AcDbLine
 62
7
  6
CONTINUOUS
 10
9.6031800823
 20
3.8561923541
 11
9.6022573461
 21
3.857283292
  0
LINE
  5
674
100
AcDbEntity
  8
0
100
AcDbLine
 62
7
  6
CONTINUOUS
 10
9.6345531138
 20
3.8603379178
 11
9.63547585
 21
3.8592469799
  0
LINE
  5
675
100
AcDbEntity
  8
0
100
AcDbLine
 62
7
  6
CONTINUOUS
 10
10.0699381661
 20
2.6746065345
 11
10.0701744002
 21
2.6565606091
  0
LINE
  5
676
100
AcDbEntity
  8
0
100
AcDbLine
 62
7
  6
CONTINUOUS
 10
10.0644764645
 20
1.8360238573
 11
10.0644764645
 21
2.7669305307
  0
LINE
  5
677
100
AcDbEntity
  8
0
100
AcDbLine
 62
7
  6
CONTINUOUS
 10
10.0743189841
 20
1.5895473626
 11
10.0743189841
 21
2.7670592708
  0
LINE
  5
678
100
AcDbEntity
  8
0
100
AcDbLine
 62
6
  6
CONTINUOUS
 10
10.0750919917
 20
2.7869003246
 11
10.0750919917
 21
2.7867991226
  0
LINE
  5
679
100
AcDbEntity
  8
0
100
AcDbLine
 62
6
  6
CONTINUOUS
 10
10.0750919917
 20
1.5880914307
 11
10.0750919917
 21
1.8434274135
  0
LINE
  5
67A
100
AcDbEntity
  8
0
100
AcDbLine
 62
6
  6
CONTINUOUS
 10
10.0947753446
 20
1.5681394847
 11
10.0947753446
 21
1.8436882713
  0
LINE
  5
67B
100
AcDbEntity
  8
0
100
AcDbLine
 62
6
  6
CONTINUOUS
 10
10.1142044013
 20
2.787311546
 11
10.1142044013
 21
2.7893539855
  0
LINE
  5
67C
100
AcDbEntity
  8
0
100
AcDbLine
 62
6
  6
CONTINUOUS
 10
10.1341471099
 20
1.5676237952
 11
10.1341471099
 21
2.7696706378
  0
LINE
  5
67D
100
AcDbEntity
  8
0
100
AcDbLine
 62
7
  6
CONTINUOUS
 10
10.0692681688
 20
1.8360238573
 11
10.0677642825
 21
1.7211419667
  0
LINE
  5
67E
100
AcDbEntity
  8
0
100
AcDbLine
 62
7
  6
CONTINUOUS
 10
10.0705566252
 20
1.9344490542
 11
10.0732778451
 21
2.1423230699
  0
LINE
  5
67F
100
AcDbEntity
  8
0
100
AcDbLine
 62
7
  6
CONTINUOUS
 10
9.6219423854
 20
4.1260367168
 11
9.6416274248
 21
4.1211549196
  0
LINE
  5
680
100
AcDbEntity
  8
0
100
AcDbLine
 62
7
  6
CONTINUOUS
 10
9.8975329366
 20
4.1260367168
 11
9.8778478973
 21
4.1309185141
  0
LINE
  5
681
100
AcDbEntity
  8
0
100
AcDbLine
 62
7
  6
CONTINUOUS
 10
9.5248060627
 20
4.4566179359
 11
9.6491722593
 21
4.4566179359
  0
LINE
  5
682
100
AcDbEntity
  8
0
100
AcDbLine
 62
7
  6
CONTINUOUS
 10
9.8703030628
 20
4.4566179359
 11
9.9678702015
 21
4.4566179359
  0
LINE
  5
683
100
AcDbEntity
  8
0
100
AcDbLine
 62
6
  6
CONTINUOUS
 10
9.9861156138
 20
4.4675562088
 11
9.8876904169
 21
4.4675562088
  0
LINE
  5
684
100
AcDbEntity
  8
0
100
AcDbLine
 62
6
  6
CONTINUOUS
 10
9.6317849051
 20
4.4675562088
 11
9.5333597083
 21
4.4675562088
  0
LINE
  5
685
100
AcDbEntity
  8
0
100
AcDbLine
 62
6
  6
CONTINUOUS
 10
9.5244195258
 20
4.486145495
 11
8.8244309159
 21
4.486145495
  0
LINE
  5
686
100
AcDbEntity
  8
0
100
AcDbLine
 62
6
  6
CONTINUOUS
 10
8.8050018812
 20
4.5055728651
 11
8.8245580698
 21
4.5055728651
  0
LINE
  5
687
100
AcDbEntity
  8
0
100
AcDbLine
 62
7
  6
CONTINUOUS
 10
9.5333597083
 20
4.5250002353
 11
9.5239108894
 21
4.5250002353
  0
LINE
  5
688
100
AcDbEntity
  8
0
100
AcDbLine
 62
6
  6
CONTINUOUS
 10
8.8246852341
 20
4.5250002353
 11
9.5239108894
 21
4.5250002353
  0
LINE
  5
689
100
AcDbEntity
  8
0
100
AcDbLine
 62
6
  6
CONTINUOUS
 10
9.5333597083
 20
4.6644066025
 11
9.9861156138
 21
4.6644066025
  0
LINE
  5
68A
100
AcDbEntity
  8
0
100
AcDbLine
 62
6
  6
CONTINUOUS
 10
9.9861156138
 20
4.6840916419
 11
9.5333597083
 21
4.6840916419
  0
ARC
  5
68B
100
AcDbEntity
  8
0
100
AcDbCircle
 62
7
  6
CONTINUOUS
 10
13.2545803157
 20
9.5583553743
 40
0.2363619814
100
AcDbArc
 50
332.7539901732
 51
336.3316238409
  0
ARC
  5
68C
100
AcDbEntity
  8
0
100
AcDbCircle
 62
7
  6
CONTINUOUS
 10
13.5983063537
 20
8.6494478785
 40
0.1018248194
100
AcDbArc
 50
209.415734948
 51
212.8612247209
  0
ARC
  5
68D
100
AcDbEntity
  8
0
100
AcDbCircle
 62
6
  6
CONTINUOUS
 10
13.4430921815
 20
8.749764604
 40
0.1017366814
100
AcDbArc
 50
204.9534966761
 51
215.3530850179
  0
ARC
  5
68E
100
AcDbEntity
  8
0
100
AcDbCircle
 62
7
  6
CONTINUOUS
 10
13.5972161898
 20
8.648878828
 40
0.1005957232
100
AcDbArc
 50
202.1012518665
 51
209.4383685574
  0
ARC
  5
68F
100
AcDbEntity
  8
0
100
AcDbCircle
 62
6
  6
CONTINUOUS
 10
10.776469835
 20
8.839529533
 40
0.0763472531
100
AcDbArc
 50
197.0343022016
 51
199.2571605564
  0
ARC
  5
690
100
AcDbEntity
  8
0
100
AcDbCircle
 62
6
  6
CONTINUOUS
 10
15.1029978994
 20
7.0649808833
 40
0.0680016448
100
AcDbArc
 50
27.1545421421
 51
35.3150696978
  0
ARC
  5
691
100
AcDbEntity
  8
0
100
AcDbCircle
 62
7
  6
CONTINUOUS
 10
14.8344649626
 20
7.4334825659
 40
0.0672821708
100
AcDbArc
 50
29.7745356912
 51
39.6683153257
  0
ARC
  5
692
100
AcDbEntity
  8
0
100
AcDbCircle
 62
6
  6
CONTINUOUS
 10
14.7713680325
 20
6.8738392856
 40
0.0650148252
100
AcDbArc
 50
35.1101693763
 51
38.9448904518
  0
ARC
  5
693
100
AcDbEntity
  8
0
100
AcDbCircle
 62
6
  6
CONTINUOUS
 10
10.1735781309
 20
8.4418636493
 40
0.0621080752
100
AcDbArc
 50
134.4570393347
 51
138.6475985398
  0
ARC
  5
694
100
AcDbEntity
  8
0
100
AcDbCircle
 62
6
  6
CONTINUOUS
 10
14.7739981339
 20
6.8759510385
 40
0.0616418723
100
AcDbArc
 50
38.9549215184
 51
41.9909027187
  0
ARC
  5
695
100
AcDbEntity
  8
0
100
AcDbCircle
 62
7
  6
CONTINUOUS
 10
13.6121300065
 20
8.8308675296
 40
0.0605148415
100
AcDbArc
 50
358.9253358615
 51
2.5739872209
  0
ARC
  5
696
100
AcDbEntity
  8
0
100
AcDbCircle
 62
6
  6
CONTINUOUS
 10
13.4039672173
 20
8.6822081142
 40
0.0201105645
100
AcDbArc
 50
300.0460985456
 51
312.5680797268
  0
ARC
  5
697
100
AcDbEntity
  8
0
100
AcDbCircle
 62
7
  6
CONTINUOUS
 10
10.6876040399
 20
8.828478858
 40
0.0196880525
100
AcDbArc
 50
315.2884063596
 51
321.9957975062
  0
ARC
  5
698
100
AcDbEntity
  8
0
100
AcDbCircle
 62
6
  6
CONTINUOUS
 10
1.2658145882
 20
0.808974581
 40
1.5195945994
100
AcDbArc
 50
29.9724694667
 51
30.7762408172
  0
ARC
  5
699
100
AcDbEntity
  8
0
100
AcDbCircle
 62
6
  6
CONTINUOUS
 10
2.241259484
 20
1.7989665265
 40
0.3937007874
100
AcDbArc
 50
322.7082121516
 51
348.5990039535
  0
ARC
  5
69A
100
AcDbEntity
  8
0
100
AcDbCircle
 62
6
  6
CONTINUOUS
 10
2.2416855452
 20
1.7647443364
 40
0.3937007874
100
AcDbArc
 50
329.9545926629
 51
359.954592663
  0
ARC
  5
69B
100
AcDbEntity
  8
0
100
AcDbCircle
 62
6
  6
CONTINUOUS
 10
2.2416855452
 20
1.7647443364
 40
0.3931853828
100
AcDbArc
 50
329.9979538221
 51
359.9545926629
  0
ARC
  5
69C
100
AcDbEntity
  8
0
100
AcDbCircle
 62
7
  6
CONTINUOUS
 10
3.0217773226
 20
2.6549214951
 40
0.0196850394
100
AcDbArc
 50
189.9928367753
 51
270.0
  0
ARC
  5
69D
100
AcDbEntity
  8
0
100
AcDbCircle
 62
7
  6
CONTINUOUS
 10
0.6118314624
 20
2.8963195883
 40
0.0595253905
100
AcDbArc
 50
90.0746374802
 51
108.6535249141
  0
ARC
  5
69E
100
AcDbEntity
  8
0
100
AcDbCircle
 62
6
  6
CONTINUOUS
 10
1.9844651539
 20
2.8967812482
 40
0.0590640066
100
AcDbArc
 50
12.9007112489
 51
89.9911860183
  0
ARC
  5
69F
100
AcDbEntity
  8
0
100
AcDbCircle
 62
6
  6
CONTINUOUS
 10
2.9488920337
 20
2.7278836105
 40
0.0590640065
100
AcDbArc
 50
12.9007112595
 51
89.9911860598
  0
ARC
  5
6A0
100
AcDbEntity
  8
0
100
AcDbCircle
 62
6
  6
CONTINUOUS
 10
1.9851793457
 20
2.8969360556
 40
0.0583332969
100
AcDbArc
 50
9.9758353952
 51
12.9091113752
  0
ARC
  5
6A1
100
AcDbEntity
  8
0
100
AcDbCircle
 62
6
  6
CONTINUOUS
 10
2.9496062261
 20
2.7280384181
 40
0.0583332962
100
AcDbArc
 50
9.9758354002
 51
12.9091113317
  0
ARC
  5
6A2
100
AcDbEntity
  8
0
100
AcDbCircle
 62
7
  6
CONTINUOUS
 10
0.6117539205
 20
2.8970474794
 40
0.0393700787
100
AcDbArc
 50
90.0
 51
108.7281624161
  0
ARC
  5
6A3
100
AcDbEntity
  8
0
100
AcDbCircle
 62
7
  6
CONTINUOUS
 10
0.6316490308
 20
4.4168351372
 40
0.0393700787
100
AcDbArc
 50
105.0
 51
179.2500000001
  0
ARC
  5
6A4
100
AcDbEntity
  8
0
100
AcDbCircle
 62
6
  6
CONTINUOUS
 10
2.9488990509
 20
2.7281498416
 40
0.0393700787
100
AcDbArc
 50
10.0000002238
 51
90.0
  0
ARC
  5
6A5
100
AcDbEntity
  8
0
100
AcDbCircle
 62
6
  6
CONTINUOUS
 10
1.9844721711
 20
2.8970474794
 40
0.0393700787
100
AcDbArc
 50
10.000000168
 51
90.0
  0
ARC
  5
6A6
100
AcDbEntity
  8
0
100
AcDbCircle
 62
6
  6
CONTINUOUS
 10
0.6117494565
 20
2.8970474
 40
0.0393627672
100
AcDbArc
 50
108.7281624161
 51
179.2497178552
  0
ARC
  5
6A7
100
AcDbEntity
  8
0
100
AcDbCircle
 62
7
  6
CONTINUOUS
 10
2.0638055022
 20
2.7872055094
 40
0.0196864468
100
AcDbArc
 50
190.0680218729
 51
245.4199663508
  0
ARC
  5
6A8
100
AcDbEntity
  8
0
100
AcDbCircle
 62
6
  6
CONTINUOUS
 10
4.4188660419
 20
1.7989665265
 40
0.3937007874
100
AcDbArc
 50
191.4009960465
 51
217.2917878484
  0
ARC
  5
6A9
100
AcDbEntity
  8
0
100
AcDbCircle
 62
7
  6
CONTINUOUS
 10
5.6290026835
 20
2.5951038589
 40
0.0595600252
100
AcDbArc
 50
71.3519247693
 51
89.9199128388
  0
ARC
  5
6AA
100
AcDbEntity
  8
0
100
AcDbCircle
 62
7
  6
CONTINUOUS
 10
5.6290859355
 20
2.595866377
 40
0.0393700787
100
AcDbArc
 50
71.2718375944
 51
90.0
  0
ARC
  5
6AB
100
AcDbEntity
  8
0
100
AcDbCircle
 62
6
  6
CONTINUOUS
 10
5.6290903992
 20
2.5958662969
 40
0.0393627673
100
AcDbArc
 50
0.7502016227
 51
71.2718375944
  0
ARC
  5
6AC
100
AcDbEntity
  8
0
100
AcDbCircle
 62
6
  6
CONTINUOUS
 10
4.0395974786
 20
1.6706695266
 40
0.0196850394
100
AcDbArc
 50
215.0
 51
270.0
  0
ARC
  5
6AD
100
AcDbEntity
  8
0
100
AcDbCircle
 62
6
  6
CONTINUOUS
 10
3.9619525267
 20
1.7678300823
 40
0.0118110236
100
AcDbArc
 50
104.9999999997
 51
215.0000000004
  0
ARC
  5
6AE
100
AcDbEntity
  8
0
100
AcDbCircle
 62
7
  6
CONTINUOUS
 10
3.6297754508
 20
3.9478630623
 40
0.0630075052
100
AcDbArc
 50
0.5357298819
 51
55.8750295564
  0
ARC
  5
6AF
100
AcDbEntity
  8
0
100
AcDbCircle
 62
7
  6
CONTINUOUS
 10
3.6297795056
 20
3.9478782937
 40
0.0630035509
100
AcDbArc
 50
300.5738567245
 51
359.365904118
  0
ARC
  5
6B0
100
AcDbEntity
  8
0
100
AcDbCircle
 62
7
  6
CONTINUOUS
 10
3.6302625533
 20
3.9478659746
 40
0.0625203968
100
AcDbArc
 50
359.3722939044
 51
0.5372348868
  0
ARC
  5
6B1
100
AcDbEntity
  8
0
100
AcDbCircle
 62
7
  6
CONTINUOUS
 10
3.6297895393
 20
3.9478548343
 40
0.0590693296
100
AcDbArc
 50
55.3704912059
 51
108.186469896
  0
ARC
  5
6B2
100
AcDbEntity
  8
0
100
AcDbCircle
 62
6
  6
CONTINUOUS
 10
3.5838454903
 20
3.9479685741
 40
0.0590638837
100
AcDbArc
 50
180.7571415158
 51
259.9621495399
  0
ARC
  5
6B3
100
AcDbEntity
  8
0
100
AcDbCircle
 62
6
  6
CONTINUOUS
 10
3.6297917685
 20
3.9478711694
 40
0.0590551181
100
AcDbArc
 50
295.4105627753
 51
359.9999999998
  0
ARC
  5
6B4
100
AcDbEntity
  8
0
100
AcDbCircle
 62
6
  6
CONTINUOUS
 10
3.6297917685
 20
3.9478711694
 40
0.0590551181
100
AcDbArc
 50
180.0
 51
224.5600155248
  0
ARC
  5
6B5
100
AcDbEntity
  8
0
100
AcDbCircle
 62
6
  6
CONTINUOUS
 10
3.8275287583
 20
3.913004803
 40
0.0590551181
100
AcDbArc
 50
169.9999999996
 51
223.7883908638
  0
ARC
  5
6B6
100
AcDbEntity
  8
0
100
AcDbCircle
 62
7
  6
CONTINUOUS
 10
3.6300815828
 20
3.9482905801
 40
0.0585448204
100
AcDbArc
 50
54.389990127
 51
55.3633332516
  0
ARC
  5
6B7
100
AcDbEntity
  8
0
100
AcDbCircle
 62
7
  6
CONTINUOUS
 10
3.4980483599
 20
4.4856301566
 40
0.0393700787
100
AcDbArc
 50
0.75
 51
90.0
  0
ARC
  5
6B8
100
AcDbEntity
  8
0
100
AcDbCircle
 62
7
  6
CONTINUOUS
 10
3.5838333698
 20
3.9477007053
 40
0.0393655108
100
AcDbArc
 50
180.7459729881
 51
259.9751654624
  0
ARC
  5
6B9
100
AcDbEntity
  8
0
100
AcDbCircle
 62
7
  6
CONTINUOUS
 10
3.4984509249
 20
4.4561833262
 40
0.0392946712
100
AcDbArc
 50
50.3926602492
 51
61.7465209946
  0
ARC
  5
6BA
100
AcDbEntity
  8
0
100
AcDbCircle
 62
6
  6
CONTINUOUS
 10
3.6101067292
 20
4.6348790434
 40
0.0098425197
100
AcDbArc
 50
89.9999999995
 51
179.9999999999
  0
ARC
  5
6BB
100
AcDbEntity
  8
0
100
AcDbCircle
 62
6
  6
CONTINUOUS
 10
5.6527320543
 20
2.7336616526
 40
0.0393700787
100
AcDbArc
 50
0.0
 51
57.3647488314
  0
ARC
  5
6BC
100
AcDbEntity
  8
0
100
AcDbCircle
 62
7
  6
CONTINUOUS
 10
5.7601251596
 20
3.4828485407
 40
0.0393700787
100
AcDbArc
 50
350.0
 51
79.9705224695
  0
ARC
  5
6BD
100
AcDbEntity
  8
0
100
AcDbCircle
 62
6
  6
CONTINUOUS
 10
5.7645441248
 20
3.4715131677
 40
0.0393700787
100
AcDbArc
 50
350.0000000001
 51
80.0000000002
  0
ARC
  5
6BE
100
AcDbEntity
  8
0
100
AcDbCircle
 62
7
  6
CONTINUOUS
 10
0.6116725478
 20
2.9384304957
 40
4.3541178942
100
AcDbArc
 50
89.9989292177
 51
90.2484418931
  0
ARC
  5
6BF
100
AcDbEntity
  8
0
100
AcDbCircle
 62
7
  6
CONTINUOUS
 10
5.6294135688
 20
3.0485647487
 40
4.2400409765
100
AcDbArc
 50
89.7482015729
 51
90.0044273164
  0
ARC
  5
6C0
100
AcDbEntity
  8
0
100
AcDbCircle
 62
7
  6
CONTINUOUS
 10
3.4300841525
 20
6.089235308
 40
2.3861253036
100
AcDbArc
 50
89.32519634
 51
90.4295185512
  0
ARC
  5
6C1
100
AcDbEntity
  8
0
100
AcDbCircle
 62
7
  6
CONTINUOUS
 10
5.6291378409
 20
5.33302385
 40
1.9358985103
100
AcDbArc
 50
89.6274078416
 51
90.0015362151
  0
ARC
  5
6C2
100
AcDbEntity
  8
0
100
AcDbCircle
 62
7
  6
CONTINUOUS
 10
0.6115245582
 20
5.3917695796
 40
1.8810954706
100
AcDbArc
 50
89.9930139138
 51
90.3780420257
  0
ARC
  5
6C3
100
AcDbEntity
  8
0
100
AcDbCircle
 62
7
  6
CONTINUOUS
 10
5.7601961178
 20
5.9407156248
 40
1.358992893
100
AcDbArc
 50
89.5545525982
 51
89.8584305115
  0
ARC
  5
6C4
100
AcDbEntity
  8
0
100
AcDbCircle
 62
6
  6
CONTINUOUS
 10
3.8925758595
 20
7.6095717691
 40
0.7252337723
100
AcDbArc
 50
202.4587915164
 51
204.1520504953
  0
ARC
  5
6C5
100
AcDbEntity
  8
0
100
AcDbCircle
 62
6
  6
CONTINUOUS
 10
2.7901743679
 20
7.599786548
 40
0.7005859329
100
AcDbArc
 50
335.8210869978
 51
337.5738840546
  0
ARC
  5
6C6
100
AcDbEntity
  8
0
100
AcDbCircle
 62
6
  6
CONTINUOUS
 10
2.9998705087
 20
8.267571219
 40
0.3937007874
100
AcDbArc
 50
334.1580672367
 51
25.8419327631
  0
ARC
  5
6C7
100
AcDbEntity
  8
0
100
AcDbCircle
 62
6
  6
CONTINUOUS
 10
3.330062763
 20
7.2246578332
 40
0.1524351142
100
AcDbArc
 50
45.0387248852
 51
134.947931604
  0
ARC
  5
6C8
100
AcDbEntity
  8
0
100
AcDbCircle
 62
6
  6
CONTINUOUS
 10
3.330062763
 20
7.2246578332
 40
0.1327517613
100
AcDbArc
 50
41.6232244836
 51
138.3767755164
  0
CIRCLE
  5
6C9
100
AcDbEntity
  8
0
100
AcDbCircle
 62
6
  6
CONTINUOUS
 10
3.330062763
 20
7.2246578332
 40
0.1082677165
  0
ARC
  5
6CA
100
AcDbEntity
  8
0
100
AcDbCircle
 62
6
  6
CONTINUOUS
 10
5.5897080787
 20
6.5004455884
 40
0.078744949
100
AcDbArc
 50
270.0081135478
 51
359.9918862746
  0
ARC
  5
6CB
100
AcDbEntity
  8
0
100
AcDbCircle
 62
6
  6
CONTINUOUS
 10
0.6511317774
 20
6.5043882649
 40
0.078744949
100
AcDbArc
 50
180.0081136238
 51
269.9918863819
  0
ARC
  5
6CC
100
AcDbEntity
  8
0
100
AcDbCircle
 62
6
  6
CONTINUOUS
 10
3.2436708613
 20
8.5829255497
 40
0.0590551181
100
AcDbArc
 50
359.2502483431
 51
89.9810031891
  0
ARC
  5
6CD
100
AcDbEntity
  8
0
100
AcDbCircle
 62
6
  6
CONTINUOUS
 10
0.6666160261
 20
8.57308303
 40
0.0590551181
100
AcDbArc
 50
180.7380960294
 51
269.0759767185
  0
ARC
  5
6CE
100
AcDbEntity
  8
0
100
AcDbCircle
 62
6
  6
CONTINUOUS
 10
0.6664877805
 20
8.5829255497
 40
0.0590551181
100
AcDbArc
 50
89.9811380047
 51
180.750247259
  0
ARC
  5
6CF
100
AcDbEntity
  8
0
100
AcDbCircle
 62
6
  6
CONTINUOUS
 10
3.2435414157
 20
8.57308303
 40
0.0590551181
100
AcDbArc
 50
270.0197479591
 51
359.25025821
  0
ARC
  5
6D0
100
AcDbEntity
  8
0
100
AcDbCircle
 62
6
  6
CONTINUOUS
 10
5.6216084747
 20
7.305547255
 40
0.0464895239
100
AcDbArc
 50
335.0561545374
 51
341.6071828706
  0
ARC
  5
6D1
100
AcDbEntity
  8
0
100
AcDbCircle
 62
6
  6
CONTINUOUS
 10
0.6511152654
 20
6.504371792
 40
0.0393596785
100
AcDbArc
 50
179.9912201262
 51
270.0088366493
  0
ARC
  5
6D2
100
AcDbEntity
  8
0
100
AcDbCircle
 62
6
  6
CONTINUOUS
 10
5.5897245903
 20
6.500429115
 40
0.039359668
100
AcDbArc
 50
269.9910912592
 51
0.0088528777
  0
ARC
  5
6D3
100
AcDbEntity
  8
0
100
AcDbCircle
 62
6
  6
CONTINUOUS
 10
5.6482221073
 20
7.309188184
 40
0.0206241448
100
AcDbArc
 50
269.5142692196
 51
292.5816093237
  0
ARC
  5
6D4
100
AcDbEntity
  8
0
100
AcDbCircle
 62
7
  6
CONTINUOUS
 10
3.0074343019
 20
7.2699660735
 40
0.0197650708
100
AcDbArc
 50
174.4548156937
 51
179.8576046156
  0
ARC
  5
6D5
100
AcDbEntity
  8
0
100
AcDbCircle
 62
6
  6
CONTINUOUS
 10
3.524782894
 20
7.3252132927
 40
0.0196875099
100
AcDbArc
 50
270.0120967013
 51
359.9879033481
  0
ARC
  5
6D6
100
AcDbEntity
  8
0
100
AcDbCircle
 62
7
  6
CONTINUOUS
 10
3.5177276414
 20
7.3322685453
 40
0.0196874248
100
AcDbArc
 50
270.0118491006
 51
359.9881509488
  0
ARC
  5
6D7
100
AcDbEntity
  8
0
100
AcDbCircle
 62
7
  6
CONTINUOUS
 10
0.6119697493
 20
7.3313679691
 40
0.0196874248
100
AcDbArc
 50
180.0118544517
 51
269.9881509487
  0
ARC
  5
6D8
100
AcDbEntity
  8
0
100
AcDbCircle
 62
6
  6
CONTINUOUS
 10
7.9571768501
 20
2.8970474794
 40
0.0393700787
100
AcDbArc
 50
90.0
 51
179.2499999991
  0
ARC
  5
6D9
100
AcDbEntity
  8
0
100
AcDbCircle
 62
6
  6
CONTINUOUS
 10
7.9549658589
 20
2.7281498416
 40
0.0393700787
100
AcDbArc
 50
90.0
 51
179.2498093613
  0
ARC
  5
6DA
100
AcDbEntity
  8
0
100
AcDbCircle
 62
6
  6
CONTINUOUS
 10
7.9532298387
 20
2.5958662063
 40
0.0393627673
100
AcDbArc
 50
89.9957238244
 51
179.2494783314
  0
ARC
  5
6DB
100
AcDbEntity
  8
0
100
AcDbCircle
 62
6
  6
CONTINUOUS
 10
8.7650314783
 20
2.9561025975
 40
0.0196850394
100
AcDbArc
 50
350.2635457732
 51
359.25
  0
ARC
  5
6DC
100
AcDbEntity
  8
0
100
AcDbCircle
 62
6
  6
CONTINUOUS
 10
8.7628204871
 20
2.7872049597
 40
0.0196850394
100
AcDbArc
 50
336.5913097716
 51
359.25
  0
ARC
  5
6DD
100
AcDbEntity
  8
0
100
AcDbCircle
 62
7
  6
CONTINUOUS
 10
8.7650314783
 20
2.9561025975
 40
0.0196850394
100
AcDbArc
 50
326.8809928159
 51
350.2635457732
  0
ARC
  5
6DE
100
AcDbEntity
  8
0
100
AcDbCircle
 62
7
  6
CONTINUOUS
 10
8.7610888017
 20
2.6549214951
 40
0.0196850394
100
AcDbArc
 50
270.0
 51
359.25
  0
ARC
  5
6DF
100
AcDbEntity
  8
0
100
AcDbCircle
 62
6
  6
CONTINUOUS
 10
8.7628204871
 20
2.7872049597
 40
0.0196850394
100
AcDbArc
 50
270.0
 51
326.8809928157
  0
ARC
  5
6E0
100
AcDbEntity
  8
0
100
AcDbCircle
 62
7
  6
CONTINUOUS
 10
8.7628204871
 20
2.7872049597
 40
0.0196850394
100
AcDbArc
 50
326.8809928157
 51
336.5913097716
  0
ARC
  5
6E1
100
AcDbEntity
  8
0
100
AcDbCircle
 62
6
  6
CONTINUOUS
 10
8.7650314783
 20
2.9561025975
 40
0.0196850394
100
AcDbArc
 50
270.0
 51
326.8809928159
  0
ARC
  5
6E2
100
AcDbEntity
  8
0
100
AcDbCircle
 62
7
  6
CONTINUOUS
 10
8.8552793551
 20
3.3503747804
 40
0.022963726
100
AcDbArc
 50
91.1295545301
 51
94.0337373567
  0
ARC
  5
6E3
100
AcDbEntity
  8
0
100
AcDbCircle
 62
7
  6
CONTINUOUS
 10
8.8246852341
 20
4.5053151959
 40
0.0196850394
100
AcDbArc
 50
90.0
 51
179.2499999995
  0
ARC
  5
6E4
100
AcDbEntity
  8
0
100
AcDbCircle
 62
7
  6
CONTINUOUS
 10
10.4349069019
 20
2.716298801
 40
0.504374711
100
AcDbArc
 50
209.9792669488
 51
210.6140019471
  0
ARC
  5
6E5
100
AcDbEntity
  8
0
100
AcDbCircle
 62
7
  6
CONTINUOUS
 10
9.4418191359
 20
3.353197627
 40
0.0229700811
100
AcDbArc
 50
1.1298167487
 51
3.9442048258
  0
ARC
  5
6E6
100
AcDbEntity
  8
0
100
AcDbCircle
 62
7
  6
CONTINUOUS
 10
10.0260499711
 20
2.7683114414
 40
0.0199249182
100
AcDbArc
 50
127.7083549867
 51
135.3719015673
  0
ARC
  5
6E7
100
AcDbEntity
  8
0
100
AcDbCircle
 62
6
  6
CONTINUOUS
 10
10.1144614453
 20
2.7696704092
 40
0.0196849571
100
AcDbArc
 50
0.000665269
 51
90.7481721436
  0
ARC
  5
6E8
100
AcDbEntity
  8
0
100
AcDbCircle
 62
7
  6
CONTINUOUS
 10
10.02588001
 20
2.7664684879
 40
0.0196849554
100
AcDbArc
 50
90.7517872993
 51
179.9994151169
  0
ARC
  5
6E9
100
AcDbEntity
  8
0
100
AcDbCircle
 62
6
  6
CONTINUOUS
 10
10.1144615359
 20
2.7676280992
 40
0.0196849516
100
AcDbArc
 50
0.0002943052
 51
90.7484405138
  0
SPLINE
  5
6EA
100
AcDbEntity
  8
0
100
AcDbSpline
 62
6
  6
CONTINUOUS
 70
0
 71
3
 72
9
 73
5
 74
0
 42
0.0000001
 43
0.0000001
 44
0.0000000001
 40
0.0
 40
0.0
 40
0.0
 40
0.0
 40
0.747104933
 40
1.0
 40
1.0
 40
1.0
 40
1.0
 10
14.9313819696
 20
6.9730854879
 30
0.0
 10
14.9333395172
 20
6.969532754
 30
0.0
 10
14.9347544861
 20
6.9640723964
 30
0.0
 10
14.9349466691
 20
6.9586552937
 30
0.0
 10
14.9349404205
 20
6.9572822359
 30
0.0
  0
SPLINE
  5
6EB
100
AcDbEntity
  8
0
100
AcDbSpline
 62
6
  6
CONTINUOUS
 70
0
 71
3
 72
9
 73
5
 74
0
 42
0.0000001
 43
0.0000001
 44
0.0000000001
 40
0.0
 40
0.0
 40
0.0
 40
0.0
 40
0.5508040427
 40
1.0
 40
1.0
 40
1.0
 40
1.0
 10
14.9291884456
 20
6.5670013349
 30
0.0
 10
14.9308153534
 20
6.5679406249
 30
0.0
 10
14.9336096923
 20
6.570080167
 30
0.0
 10
14.9349530704
 20
6.5734978599
 30
0.0
 10
14.9349531136
 20
6.5750299009
 30
0.0
  0
SPLINE
  5
6EC
100
AcDbEntity
  8
0
100
AcDbSpline
 62
6
  6
CONTINUOUS
 70
0
 71
3
 72
9
 73
5
 74
0
 42
0.0000001
 43
0.0000001
 44
0.0000000001
 40
0.0
 40
0.0
 40
0.0
 40
0.0
 40
0.229558318
 40
1.0
 40
1.0
 40
1.0
 40
1.0
 10
15.1700383877
 20
7.0715526256
 30
0.0
 10
15.1700383877
 20
7.0735004126
 30
0.0
 10
15.1693644048
 20
7.0819818026
 30
0.0
 10
15.1664878053
 20
7.0901996776
 30
0.0
 10
15.1635043178
 20
7.0960162988
 30
0.0
  0
SPLINE
  5
6ED
100
AcDbEntity
  8
0
100
AcDbSpline
 62
7
  6
CONTINUOUS
 70
0
 71
3
 72
11
 73
7
 74
0
 42
0.0000001
 43
0.0000001
 44
0.0000000001
 40
0.0
 40
0.0
 40
0.0
 40
0.0
 40
0.2465718175
 40
0.5188872611
 40
0.7805471337
 40
1.0
 40
1.0
 40
1.0
 40
1.0
 10
15.0768235248
 20
6.6522379788
 30
0.0
 10
15.0744946203
 20
6.6508933932
 30
0.0
 10
15.0690078133
 20
6.6490787521
 30
0.0
 10
15.0604240739
 20
6.6486353698
 30
0.0
 10
15.0522906564
 20
6.6502585422
 30
0.0
 10
15.0475487598
 20
6.6528992925
 30
0.0
 10
15.0458563388
 20
6.654591673
 30
0.0
  0
SPLINE
  5
6EE
100
AcDbEntity
  8
0
100
AcDbSpline
 62
7
  6
CONTINUOUS
 70
0
 71
3
 72
9
 73
5
 74
0
 42
0.0000001
 43
0.0000001
 44
0.0000000001
 40
0.0
 40
0.0
 40
0.0
 40
0.0
 40
0.4500978499
 40
1.0
 40
1.0
 40
1.0
 40
1.0
 10
13.5604235887
 20
9.4085263049
 30
0.0
 10
13.5563431349
 20
9.4090499686
 30
0.0
 10
13.5476707816
 20
9.4129016131
 30
0.0
 10
13.540920762
 20
9.4191942373
 30
0.0
 10
13.5376047556
 20
9.4229712913
 30
0.0
  0
SPLINE
  5
6EF
100
AcDbEntity
  8
0
100
AcDbSpline
 62
7
  6
CONTINUOUS
 70
0
 71
3
 72
11
 73
7
 74
0
 42
0.0000001
 43
0.0000001
 44
0.0000000001
 40
0.0
 40
0.0
 40
0.0
 40
0.0
 40
0.2368423263
 40
0.5000005353
 40
0.7631584536
 40
1.0
 40
1.0
 40
1.0
 40
1.0
 10
12.7900711585
 20
8.9037414253
 30
0.0
 10
12.7920533351
 20
8.9026273852
 30
0.0
 10
12.796652483
 20
8.9010087503
 30
0.0
 10
12.8039894127
 20
8.9002339154
 30
0.0
 10
12.8113263312
 20
8.9010087838
 30
0.0
 10
12.8159254611
 20
8.9026274415
 30
0.0
 10
12.8179076231
 20
8.9037414923
 30
0.0
  0
SPLINE
  5
6F0
100
AcDbEntity
  8
0
100
AcDbSpline
 62
7
  6
CONTINUOUS
 70
0
 71
3
 72
9
 73
5
 74
0
 42
0.0000001
 43
0.0000001
 44
0.0000000001
 40
0.0
 40
0.0
 40
0.0
 40
0.0
 40
0.4806786671
 40
1.0
 40
1.0
 40
1.0
 40
1.0
 10
12.8179082773
 20
8.4579206268
 30
0.0
 10
12.8178692393
 20
8.4514052531
 30
0.0
 10
12.821064563
 20
8.4378539983
 30
0.0
 10
12.8280926241
 20
8.4260048458
 30
0.0
 10
12.8326404408
 20
8.4206318697
 30
0.0
  0
SPLINE
  5
6F1
100
AcDbEntity
  8
0
100
AcDbSpline
 62
7
  6
CONTINUOUS
 70
0
 71
3
 72
9
 73
5
 74
0
 42
0.0000001
 43
0.0000001
 44
0.0000000001
 40
0.0
 40
0.0
 40
0.0
 40
0.0
 40
0.2587403278
 40
1.0
 40
1.0
 40
1.0
 40
1.0
 10
12.8326404408
 20
8.4206318697
 30
0.0
 10
12.8332417853
 20
8.4199214167
 30
0.0
 10
12.8356290796
 20
8.4172304589
 30
0.0
 10
12.8382682323
 20
8.4147570184
 30
0.0
 10
12.8403649966
 20
8.4131095216
 30
0.0
  0
SPLINE
  5
6F2
100
AcDbEntity
  8
0
100
AcDbSpline
 62
7
  6
CONTINUOUS
 70
0
 71
3
 72
11
 73
7
 74
0
 42
0.0000001
 43
0.0000001
 44
0.0000000001
 40
0.0
 40
0.0
 40
0.0
 40
0.0
 40
0.2424937036
 40
0.5102503576
 40
0.7725150973
 40
1.0
 40
1.0
 40
1.0
 40
1.0
 10
14.3853506372
 20
7.2007448241
 30
0.0
 10
14.3833687207
 20
7.1996066036
 30
0.0
 10
14.3795381512
 20
7.1966185623
 30
0.0
 10
14.3747052307
 20
7.1911271545
 30
0.0
 10
14.3709741892
 20
7.1850024252
 30
0.0
 10
14.3693865102
 20
7.1806023155
 30
0.0
 10
14.3690083178
 20
7.1784918859
 30
0.0
  0
SPLINE
  5
6F3
100
AcDbEntity
  8
0
100
AcDbSpline
 62
7
  6
CONTINUOUS
 70
0
 71
3
 72
11
 73
7
 74
0
 42
0.0000001
 43
0.0000001
 44
0.0000000001
 40
0.0
 40
0.0
 40
0.0
 40
0.0
 40
0.2221076978
 40
0.47858743
 40
0.7467417211
 40
1.0
 40
1.0
 40
1.0
 40
1.0
 10
14.4077073052
 20
7.1503571919
 30
0.0
 10
14.4084308245
 20
7.154533461
 30
0.0
 10
14.4080322932
 20
7.1638631331
 30
0.0
 10
14.403651543
 20
7.1775398855
 30
0.0
 10
14.3960781197
 20
7.1904393533
 30
0.0
 10
14.3891554094
 20
7.1977647446
 30
0.0
 10
14.3853506371
 20
7.200744824
 30
0.0
  0
SPLINE
  5
6F4
100
AcDbEntity
  8
0
100
AcDbSpline
 62
7
  6
CONTINUOUS
 70
0
 71
3
 72
9
 73
5
 74
0
 42
0.0000001
 43
0.0000001
 44
0.0000000001
 40
0.0
 40
0.0
 40
0.0
 40
0.0
 40
0.2399748747
 40
1.0
 40
1.0
 40
1.0
 40
1.0
 10
14.8775761694
 20
7.4849296712
 30
0.0
 10
14.8783438458
 20
7.4843322782
 30
0.0
 10
14.8814649843
 20
7.4817435538
 30
0.0
 10
14.8842869314
 20
7.4788012844
 30
0.0
 10
14.8862555937
 20
7.4764316176
 30
0.0
  0
SPLINE
  5
6F5
100
AcDbEntity
  8
0
100
AcDbSpline
 62
7
  6
CONTINUOUS
 70
0
 71
3
 72
9
 73
5
 74
0
 42
0.0000001
 43
0.0000001
 44
0.0000000001
 40
0.0
 40
0.0
 40
0.0
 40
0.0
 40
0.5389199489
 40
1.0
 40
1.0
 40
1.0
 40
1.0
 10
14.8928649611
 20
7.4668941011
 30
0.0
 10
14.8958446366
 20
7.4617010546
 30
0.0
 10
14.9001888253
 20
7.451349068
 30
0.0
 10
14.9013545161
 20
7.4399689795
 30
0.0
 10
14.9005660523
 20
7.4349076236
 30
0.0
  0
SPLINE
  5
6F6
100
AcDbEntity
  8
0
100
AcDbSpline
 62
7
  6
CONTINUOUS
 70
0
 71
3
 72
13
 73
9
 74
0
 42
0.0000001
 43
0.0000001
 44
0.0000000001
 40
0.0
 40
0.0
 40
0.0
 40
0.0
 40
0.1456431185
 40
0.2724485161
 40
0.3807149985
 40
0.4801893786
 40
0.6989402142
 40
1.0
 40
1.0
 40
1.0
 40
1.0
 10
14.8557706931
 20
7.3277288182
 30
0.0
 10
14.8558970128
 20
7.3286120388
 30
0.0
 10
14.8560361421
 20
7.3302808427
 30
0.0
 10
14.8558125962
 20
7.332624984
 30
0.0
 10
14.8549825464
 20
7.3345485563
 30
0.0
 10
14.8530003159
 20
7.3363870117
 30
0.0
 10
14.8488722147
 20
7.3366971491
 30
0.0
 10
14.8459552805
 20
7.3352986564
 30
0.0
 10
14.8443445677
 20
7.3344003218
 30
0.0
  0
SPLINE
  5
6F7
100
AcDbEntity
  8
0
100
AcDbSpline
 62
7
  6
CONTINUOUS
 70
0
 71
3
 72
9
 73
5
 74
0
 42
0.0000001
 43
0.0000001
 44
0.0000000001
 40
0.0
 40
0.0
 40
0.0
 40
0.0
 40
0.5126065991
 40
1.0
 40
1.0
 40
1.0
 40
1.0
 10
14.4248427621
 20
7.0922022872
 30
0.0
 10
14.4206740438
 20
7.0896827472
 30
0.0
 10
14.4137503455
 20
7.0828278547
 30
0.0
 10
14.4093427133
 20
7.0740502367
 30
0.0
 10
14.4084969406
 20
7.0694967383
 30
0.0
  0
SPLINE
  5
6F8
100
AcDbEntity
  8
0
100
AcDbSpline
 62
7
  6
CONTINUOUS
 70
0
 71
3
 72
10
 73
6
 74
0
 42
0.0000001
 43
0.0000001
 44
0.0000000001
 40
0.0
 40
0.0
 40
0.0
 40
0.0
 40
0.2486091824
 40
0.6428476323
 40
1.0
 40
1.0
 40
1.0
 40
1.0
 10
14.3800811162
 20
7.1532371392
 30
0.0
 10
14.3819731543
 20
7.1517536874
 30
0.0
 10
14.3875416914
 20
7.1487635773
 30
0.0
 10
14.3972607175
 20
7.1470812563
 30
0.0
 10
14.404690921
 20
7.1486546419
 30
0.0
 10
14.4076988165
 20
7.1503523971
 30
0.0
  0
SPLINE
  5
6F9
100
AcDbEntity
  8
0
100
AcDbSpline
 62
7
  6
CONTINUOUS
 70
0
 71
3
 72
9
 73
5
 74
0
 42
0.0000001
 43
0.0000001
 44
0.0000000001
 40
0.0
 40
0.0
 40
0.0
 40
0.0
 40
0.2328771906
 40
1.0
 40
1.0
 40
1.0
 40
1.0
 10
14.2610685915
 20
6.5058262209
 30
0.0
 10
14.2615274244
 20
6.5060883127
 30
0.0
 10
14.2634666267
 20
6.5072679118
 30
0.0
 10
14.2652925253
 20
6.5086286784
 30
0.0
 10
14.2666323821
 20
6.5097398223
 30
0.0
  0
SPLINE
  5
6FA
100
AcDbEntity
  8
0
100
AcDbSpline
 62
7
  6
CONTINUOUS
 70
0
 71
3
 72
9
 73
5
 74
0
 42
0.0000001
 43
0.0000001
 44
0.0000000001
 40
0.0
 40
0.0
 40
0.0
 40
0.0
 40
0.5399152
 40
1.0
 40
1.0
 40
1.0
 40
1.0
 10
14.2666323821
 20
6.5097398223
 30
0.0
 10
14.2695538482
 20
6.5121625957
 30
0.0
 10
14.2744511318
 20
6.5172466787
 30
0.0
 10
14.2783487439
 20
6.5232542402
 30
0.0
 10
14.2794560163
 20
6.5262929817
 30
0.0
  0
SPLINE
  5
6FB
100
AcDbEntity
  8
0
100
AcDbSpline
 62
7
  6
CONTINUOUS
 70
0
 71
3
 72
9
 73
5
 74
0
 42
0.0000001
 43
0.0000001
 44
0.0000000001
 40
0.0
 40
0.0
 40
0.0
 40
0.0
 40
0.2375569389
 40
1.0
 40
1.0
 40
1.0
 40
1.0
 10
14.252158985
 20
6.512705446
 30
0.0
 10
14.2529320763
 20
6.5122591062
 30
0.0
 10
14.2561169953
 20
6.5102605711
 30
0.0
 10
14.2590214404
 20
6.5078307091
 30
0.0
 10
14.2610685358
 20
6.5058261748
 30
0.0
  0
SPLINE
  5
6FC
100
AcDbEntity
  8
0
100
AcDbSpline
 62
7
  6
CONTINUOUS
 70
0
 71
3
 72
9
 73
5
 74
0
 42
0.0000001
 43
0.0000001
 44
0.0000000001
 40
0.0
 40
0.0
 40
0.0
 40
0.0
 40
0.2552878698
 40
1.0
 40
1.0
 40
1.0
 40
1.0
 10
14.7623903591
 20
6.8985491049
 30
0.0
 10
14.7615110063
 20
6.8970556656
 30
0.0
 10
14.7578186096
 20
6.8913753553
 30
0.0
 10
14.7528364141
 20
6.8863734844
 30
0.0
 10
14.7484571536
 20
6.8838471957
 30
0.0
  0
SPLINE
  5
6FD
100
AcDbEntity
  8
0
100
AcDbSpline
 62
7
  6
CONTINUOUS
 70
0
 71
3
 72
13
 73
9
 74
0
 42
0.0000001
 43
0.0000001
 44
0.0000000001
 40
0.0
 40
0.0
 40
0.0
 40
0.0
 40
0.2670548882
 40
0.5279851969
 40
0.654006271
 40
0.7751515779
 40
0.8901329982
 40
1.0
 40
1.0
 40
1.0
 40
1.0
 10
14.3456860779
 20
6.5613781089
 30
0.0
 10
14.3472270589
 20
6.5640409658
 30
0.0
 10
14.3497016272
 20
6.5696434247
 30
0.0
 10
14.3513612744
 20
6.577074926
 30
0.0
 10
14.3513479508
 20
6.5829529297
 30
0.0
 10
14.3505715162
 20
6.5870862467
 30
0.0
 10
14.3488129675
 20
6.5907311111
 30
0.0
 10
14.3468842587
 20
6.5925751407
 30
0.0
 10
14.3458080934
 20
6.5932414062
 30
0.0
  0
LINE
  5
6FE
100
AcDbEntity
  8
0
100
AcDbLine
 62
7
  6
CONTINUOUS
 10
14.7352294023
 20
6.8180725617
 11
14.7629450606
 21
6.8022812569
  0
SPLINE
  5
6FF
100
AcDbEntity
  8
0
100
AcDbSpline
 62
7
  6
CONTINUOUS
 70
0
 71
3
 72
9
 73
5
 74
0
 42
0.0000001
 43
0.0000001
 44
0.0000000001
 40
0.0
 40
0.0
 40
0.0
 40
0.0
 40
0.5108345434
 40
1.0
 40
1.0
 40
1.0
 40
1.0
 10
11.8237107745
 20
7.2685877522
 30
0.0
 10
11.8243151598
 20
7.2642415199
 30
0.0
 10
11.8276543869
 20
7.2560631712
 30
0.0
 10
11.8336473925
 20
7.2494502148
 30
0.0
 10
11.8372661201
 20
7.2473145844
 30
0.0
  0
SPLINE
  5
700
100
AcDbEntity
  8
0
100
AcDbSpline
 62
7
  6
CONTINUOUS
 70
0
 71
3
 72
9
 73
5
 74
0
 42
0.0000001
 43
0.0000001
 44
0.0000000001
 40
0.0
 40
0.0
 40
0.0
 40
0.0
 40
0.5108642636
 40
1.0
 40
1.0
 40
1.0
 40
1.0
 10
11.1475462988
 20
7.7683762774
 30
0.0
 10
11.148152476
 20
7.764031882
 30
0.0
 10
11.1514919577
 20
7.7558579974
 30
0.0
 10
11.1574831221
 20
7.7492486424
 30
0.0
 10
11.1611001231
 20
7.747114031
 30
0.0
  0
SPLINE
  5
701
100
AcDbEntity
  8
0
100
AcDbSpline
 62
7
  6
CONTINUOUS
 70
0
 71
3
 72
9
 73
5
 74
0
 42
0.0000001
 43
0.0000001
 44
0.0000000001
 40
0.0
 40
0.0
 40
0.0
 40
0.0
 40
0.5496396977
 40
1.0
 40
1.0
 40
1.0
 40
1.0
 10
10.7347388181
 20
10.0495257492
 30
0.0
 10
10.733136784
 20
10.0486247191
 30
0.0
 10
10.7303747637
 20
10.0465562267
 30
0.0
 10
10.729011548
 20
10.0432316753
 30
0.0
 10
10.7289771421
 20
10.0417260318
 30
0.0
  0
SPLINE
  5
702
100
AcDbEntity
  8
0
100
AcDbSpline
 62
7
  6
CONTINUOUS
 70
0
 71
3
 72
9
 73
5
 74
0
 42
0.0000001
 43
0.0000001
 44
0.0000000001
 40
0.0
 40
0.0
 40
0.0
 40
0.0
 40
0.243555645
 40
1.0
 40
1.0
 40
1.0
 40
1.0
 10
10.7076240904
 20
8.8375786757
 30
0.0
 10
10.7079081345
 20
8.8363954253
 30
0.0
 10
10.7086690669
 20
8.8314462257
 30
0.0
 10
10.7079353947
 20
8.826288235
 30
0.0
 10
10.7066279528
 20
8.8227421989
 30
0.0
  0
SPLINE
  5
703
100
AcDbEntity
  8
0
100
AcDbSpline
 62
7
  6
CONTINUOUS
 70
0
 71
3
 72
9
 73
5
 74
0
 42
0.0000001
 43
0.0000001
 44
0.0000000001
 40
0.0
 40
0.0
 40
0.0
 40
0.0
 40
0.2567272819
 40
1.0
 40
1.0
 40
1.0
 40
1.0
 10
10.7066279528
 20
8.8227421989
 30
0.0
 10
10.7064117562
 20
8.8221558317
 30
0.0
 10
10.7054871109
 20
8.8199038493
 30
0.0
 10
10.7042326994
 20
8.8177813988
 30
0.0
 10
10.7031175479
 20
8.8163565447
 30
0.0
  0
SPLINE
  5
704
100
AcDbEntity
  8
0
100
AcDbSpline
 62
7
  6
CONTINUOUS
 70
0
 71
3
 72
9
 73
5
 74
0
 42
0.0000001
 43
0.0000001
 44
0.0000000001
 40
0.0
 40
0.0
 40
0.0
 40
0.0
 40
0.2586693472
 40
1.0
 40
1.0
 40
1.0
 40
1.0
 10
10.7015954948
 20
8.8146275548
 30
0.0
 10
10.7013314035
 20
8.8143612548
 30
0.0
 10
10.7002801766
 20
8.8133627168
 30
0.0
 10
10.6991047531
 20
8.812491016
 30
0.0
 10
10.6981751231
 20
8.8119514668
 30
0.0
  0
SPLINE
  5
705
100
AcDbEntity
  8
0
100
AcDbSpline
 62
7
  6
CONTINUOUS
 70
0
 71
3
 72
9
 73
5
 74
0
 42
0.0000001
 43
0.0000001
 44
0.0000000001
 40
0.0
 40
0.0
 40
0.0
 40
0.0
 40
0.2339057525
 40
1.0
 40
1.0
 40
1.0
 40
1.0
 10
10.6981751671
 20
8.8119513056
 30
0.0
 10
10.6989142536
 20
8.8118176824
 30
0.0
 10
10.7020439961
 20
8.8110805636
 30
0.0
 10
10.7050122353
 20
8.8097394574
 30
0.0
 10
10.7071426046
 20
8.8085095262
 30
0.0
  0
SPLINE
  5
706
100
AcDbEntity
  8
0
100
AcDbSpline
 62
7
  6
CONTINUOUS
 70
0
 71
3
 72
9
 73
5
 74
0
 42
0.0000001
 43
0.0000001
 44
0.0000000001
 40
0.0
 40
0.0
 40
0.0
 40
0.0
 40
0.4753490471
 40
1.0
 40
1.0
 40
1.0
 40
1.0
 10
10.7071426044
 20
8.8085095263
 30
0.0
 10
10.7094975004
 20
8.809869118
 30
0.0
 10
10.7138504395
 20
8.8137640753
 30
0.0
 10
10.7169809682
 20
8.8186284506
 30
0.0
 10
10.7182651207
 20
8.8213410678
 30
0.0
  0
SPLINE
  5
707
100
AcDbEntity
  8
0
100
AcDbSpline
 62
7
  6
CONTINUOUS
 70
0
 71
3
 72
9
 73
5
 74
0
 42
0.0000001
 43
0.0000001
 44
0.0000000001
 40
0.0
 40
0.0
 40
0.0
 40
0.0
 40
0.2667555822
 40
1.0
 40
1.0
 40
1.0
 40
1.0
 10
10.7182651207
 20
8.8213410678
 30
0.0
 10
10.7187011258
 20
8.8222620759
 30
0.0
 10
10.7201752162
 20
8.825782378
 30
0.0
 10
10.7210292333
 20
8.8296068424
 30
0.0
 10
10.7210607788
 20
8.8324076348
 30
0.0
  0
LINE
  5
708
100
AcDbEntity
  8
0
100
AcDbLine
 62
7
  6
CONTINUOUS
 10
10.721060779
 20
8.8324076347
 11
10.7165167068
 21
8.8347417651
  0
SPLINE
  5
709
100
AcDbEntity
  8
0
100
AcDbSpline
 62
7
  6
CONTINUOUS
 70
0
 71
3
 72
9
 73
5
 74
0
 42
0.0000001
 43
0.0000001
 44
0.0000000001
 40
0.0
 40
0.0
 40
0.0
 40
0.0
 40
0.2617475542
 40
1.0
 40
1.0
 40
1.0
 40
1.0
 10
10.7165167068
 20
8.8347417651
 30
0.0
 10
10.7157729806
 20
8.8350762505
 30
0.0
 10
10.7128991362
 20
8.8362787947
 30
0.0
 10
10.7098866564
 20
8.8371651218
 30
0.0
 10
10.7076240944
 20
8.8375786589
 30
0.0
  0
SPLINE
  5
70A
100
AcDbEntity
  8
0
100
AcDbSpline
 62
7
  6
CONTINUOUS
 70
0
 71
3
 72
9
 73
5
 74
0
 42
0.0000001
 43
0.0000001
 44
0.0000000001
 40
0.0
 40
0.0
 40
0.0
 40
0.0
 40
0.2707467859
 40
1.0
 40
1.0
 40
1.0
 40
1.0
 10
10.7347389318
 20
10.0334544357
 30
0.0
 10
10.7347621113
 20
10.0340115956
 30
0.0
 10
10.7349310776
 20
10.0360601179
 30
0.0
 10
10.735461534
 20
10.0381159642
 30
0.0
 10
10.7361765122
 20
10.0394368786
 30
0.0
  0
SPLINE
  5
70B
100
AcDbEntity
  8
0
100
AcDbSpline
 62
7
  6
CONTINUOUS
 70
0
 71
3
 72
9
 73
5
 74
0
 42
0.0000001
 43
0.0000001
 44
0.0000000001
 40
0.0
 40
0.0
 40
0.0
 40
0.0
 40
0.2642678823
 40
1.0
 40
1.0
 40
1.0
 40
1.0
 10
10.7361765122
 20
10.0394368786
 30
0.0
 10
10.7363882984
 20
10.0398281513
 30
0.0
 10
10.7372950067
 20
10.0412479205
 30
0.0
 10
10.7387211934
 20
10.0423457001
 30
0.0
 10
10.7398816294
 20
10.0427788927
 30
0.0
  0
SPLINE
  5
70C
100
AcDbEntity
  8
0
100
AcDbSpline
 62
7
  6
CONTINUOUS
 70
0
 71
3
 72
9
 73
5
 74
0
 42
0.0000001
 43
0.0000001
 44
0.0000000001
 40
0.0
 40
0.0
 40
0.0
 40
0.0
 40
0.2356826556
 40
1.0
 40
1.0
 40
1.0
 40
1.0
 10
10.7398816294
 20
10.0427788927
 30
0.0
 10
10.7402787359
 20
10.0429271331
 30
0.0
 10
10.7420262688
 20
10.0433919804
 30
0.0
 10
10.7438908454
 20
10.0432324356
 30
0.0
 10
10.7452280896
 20
10.0429140713
 30
0.0
  0
SPLINE
  5
70D
100
AcDbEntity
  8
0
100
AcDbSpline
 62
7
  6
CONTINUOUS
 70
0
 71
3
 72
9
 73
5
 74
0
 42
0.0000001
 43
0.0000001
 44
0.0000000001
 40
0.0
 40
0.0
 40
0.0
 40
0.0
 40
0.2464596415
 40
1.0
 40
1.0
 40
1.0
 40
1.0
 10
10.7452282189
 20
10.0429140371
 30
0.0
 10
10.7448835107
 20
10.0446950009
 30
0.0
 10
10.7443910598
 20
10.0520648511
 30
0.0
 10
10.747048472
 20
10.0596636866
 30
0.0
 10
10.7505449534
 20
10.0639690161
 30
0.0
  0
SPLINE
  5
70E
100
AcDbEntity
  8
0
100
AcDbSpline
 62
7
  6
CONTINUOUS
 70
0
 71
3
 72
9
 73
5
 74
0
 42
0.0000001
 43
0.0000001
 44
0.0000000001
 40
0.0
 40
0.0
 40
0.0
 40
0.0
 40
0.262750236
 40
1.0
 40
1.0
 40
1.0
 40
1.0
 10
10.7505449534
 20
10.0639690161
 30
0.0
 10
10.7509127365
 20
10.0644218792
 30
0.0
 10
10.7523803945
 20
10.0660872641
 30
0.0
 10
10.7541263832
 20
10.0675219265
 30
0.0
 10
10.755542219
 20
10.0683435085
 30
0.0
  0
SPLINE
  5
70F
100
AcDbEntity
  8
0
100
AcDbSpline
 62
7
  6
CONTINUOUS
 70
0
 71
3
 72
9
 73
5
 74
0
 42
0.0000001
 43
0.0000001
 44
0.0000000001
 40
0.0
 40
0.0
 40
0.0
 40
0.0
 40
0.5269614559
 40
1.0
 40
1.0
 40
1.0
 40
1.0
 10
10.7555437661
 20
10.0683444061
 30
0.0
 10
10.7533660545
 20
10.0689244624
 30
0.0
 10
10.7490247758
 20
10.0694679937
 30
0.0
 10
10.7447693106
 20
10.0682133922
 30
0.0
 10
10.7430172464
 20
10.0672019976
 30
0.0
  0
SPLINE
  5
710
100
AcDbEntity
  8
0
100
AcDbSpline
 62
7
  6
CONTINUOUS
 70
0
 71
3
 72
11
 73
7
 74
0
 42
0.0000001
 43
0.0000001
 44
0.0000000001
 40
0.0
 40
0.0
 40
0.0
 40
0.0
 40
0.238442503
 40
0.5012242775
 40
0.7633408948
 40
1.0
 40
1.0
 40
1.0
 40
1.0
 10
12.8179076231
 20
8.9037414923
 30
0.0
 10
12.8178828448
 20
8.9082970993
 30
0.0
 10
12.8161621275
 20
8.917872212
 30
0.0
 10
12.8102309464
 20
8.9313138446
 30
0.0
 10
12.8015793632
 20
8.9431466145
 30
0.0
 10
12.7941666206
 20
8.9493804736
 30
0.0
 10
12.7902508715
 20
8.951641399
 30
0.0
  0
SPLINE
  5
711
100
AcDbEntity
  8
0
100
AcDbSpline
 62
7
  6
CONTINUOUS
 70
0
 71
3
 72
9
 73
5
 74
0
 42
0.0000001
 43
0.0000001
 44
0.0000000001
 40
0.0
 40
0.0
 40
0.0
 40
0.0
 40
0.2372094135
 40
1.0
 40
1.0
 40
1.0
 40
1.0
 10
13.2846760142
 20
9.2370961843
 30
0.0
 10
13.2854109727
 20
9.2366719478
 30
0.0
 10
13.2884473984
 20
9.2347768313
 30
0.0
 10
13.2912405804
 20
9.2325041212
 30
0.0
 10
13.29322656
 20
9.2306326007
 30
0.0
  0
SPLINE
  5
712
100
AcDbEntity
  8
0
100
AcDbSpline
 62
7
  6
CONTINUOUS
 70
0
 71
3
 72
9
 73
5
 74
0
 42
0.0000001
 43
0.0000001
 44
0.0000000001
 40
0.0
 40
0.0
 40
0.0
 40
0.0
 40
0.2436567949
 40
1.0
 40
1.0
 40
1.0
 40
1.0
 10
13.29322656
 20
9.2306326007
 30
0.0
 10
13.2939259289
 20
9.229973539
 30
0.0
 10
13.2967248197
 20
9.2271934589
 30
0.0
 10
13.2992463267
 20
9.2241374695
 30
0.0
 10
13.3009892675
 20
9.2217166279
 30
0.0
  0
SPLINE
  5
713
100
AcDbEntity
  8
0
100
AcDbSpline
 62
7
  6
CONTINUOUS
 70
0
 71
3
 72
9
 73
5
 74
0
 42
0.0000001
 43
0.0000001
 44
0.0000000001
 40
0.0
 40
0.0
 40
0.0
 40
0.0
 40
0.5244673893
 40
1.0
 40
1.0
 40
1.0
 40
1.0
 10
13.3009892675
 20
9.2217166279
 30
0.0
 10
13.3045327382
 20
9.216794957
 30
0.0
 10
13.3100812909
 20
9.2065034643
 30
0.0
 10
13.3127456593
 20
9.1950050169
 30
0.0
 10
13.3128722552
 20
9.18950775
 30
0.0
  0
SPLINE
  5
714
100
AcDbEntity
  8
0
100
AcDbSpline
 62
7
  6
CONTINUOUS
 70
0
 71
3
 72
9
 73
5
 74
0
 42
0.0000001
 43
0.0000001
 44
0.0000000001
 40
0.0
 40
0.0
 40
0.0
 40
0.0
 40
0.4991506168
 40
1.0
 40
1.0
 40
1.0
 40
1.0
 10
12.790250872
 20
8.9516413993
 30
0.0
 10
12.786155562
 20
8.9492769851
 30
0.0
 10
12.779658595
 20
8.9418144071
 30
0.0
 10
12.7763861367
 20
8.9324879332
 30
0.0
 10
12.7763326976
 20
8.9277432908
 30
0.0
  0
SPLINE
  5
715
100
AcDbEntity
  8
0
100
AcDbSpline
 62
7
  6
CONTINUOUS
 70
0
 71
3
 72
9
 73
5
 74
0
 42
0.0000001
 43
0.0000001
 44
0.0000000001
 40
0.0
 40
0.0
 40
0.0
 40
0.0
 40
0.262244848
 40
1.0
 40
1.0
 40
1.0
 40
1.0
 10
14.2794559572
 20
6.5262930029
 30
0.0
 10
14.2783974538
 20
6.5273253488
 30
0.0
 10
14.274257279
 20
6.5311515053
 30
0.0
 10
14.2696788759
 20
6.5345227982
 30
0.0
 10
14.2660771593
 20
6.5366035544
 30
0.0
  0
SPLINE
  5
716
100
AcDbEntity
  8
0
100
AcDbSpline
 62
7
  6
CONTINUOUS
 70
0
 71
3
 72
9
 73
5
 74
0
 42
0.0000001
 43
0.0000001
 44
0.0000000001
 40
0.0
 40
0.0
 40
0.0
 40
0.0
 40
0.4983247831
 40
1.0
 40
1.0
 40
1.0
 40
1.0
 10
12.7763331119
 20
8.9277430516
 30
0.0
 10
12.7803841274
 20
8.9253123802
 30
0.0
 10
12.7869601832
 20
8.9179059293
 30
0.0
 10
12.7899933226
 20
8.9084965278
 30
0.0
 10
12.7900711585
 20
8.9037411143
 30
0.0
  0
SPLINE
  5
717
100
AcDbEntity
  8
0
100
AcDbSpline
 62
7
  6
CONTINUOUS
 70
0
 71
3
 72
9
 73
5
 74
0
 42
0.0000001
 43
0.0000001
 44
0.0000000001
 40
0.0
 40
0.0
 40
0.0
 40
0.0
 40
0.5215859684
 40
1.0
 40
1.0
 40
1.0
 40
1.0
 10
14.369008729
 20
7.1784915633
 30
0.0
 10
14.3728483
 20
7.1753859841
 30
0.0
 10
14.3786703356
 20
7.1675193884
 30
0.0
 10
14.3807866962
 20
7.1577110722
 30
0.0
 10
14.3800810571
 20
7.1532368083
 30
0.0
  0
SPLINE
  5
718
100
AcDbEntity
  8
0
100
AcDbSpline
 62
7
  6
CONTINUOUS
 70
0
 71
3
 72
9
 73
5
 74
0
 42
0.0000001
 43
0.0000001
 44
0.0000000001
 40
0.0
 40
0.0
 40
0.0
 40
0.0
 40
0.5008493832
 40
1.0
 40
1.0
 40
1.0
 40
1.0
 10
14.2660771584
 20
6.536603555
 30
0.0
 10
14.2660237192
 20
6.5318589126
 30
0.0
 10
14.262751261
 20
6.5225324387
 30
0.0
 10
14.2562542939
 20
6.5150698607
 30
0.0
 10
14.252158984
 20
6.5127054465
 30
0.0
  0
SPLINE
  5
719
100
AcDbEntity
  8
0
100
AcDbSpline
 62
6
  6
CONTINUOUS
 70
0
 71
3
 72
13
 73
9
 74
0
 42
0.0000001
 43
0.0000001
 44
0.0000000001
 40
0.0
 40
0.0
 40
0.0
 40
0.0
 40
0.1214005066
 40
0.2540271188
 40
0.5323047198
 40
0.6674501642
 40
0.7927156793
 40
1.0
 40
1.0
 40
1.0
 40
1.0
 10
12.518641207
 20
7.3889900041
 30
0.0
 10
12.5253575428
 20
7.3851124135
 30
0.0
 10
12.5403420956
 20
7.3785662348
 30
0.0
 10
12.573458025
 20
7.370418817
 30
0.0
 10
12.6089026736
 20
7.3696809344
 30
0.0
 10
12.6428240383
 20
7.376363802
 30
0.0
 10
12.6707794075
 20
7.38672405
 30
0.0
 10
12.6890673922
 20
7.3998737194
 30
0.0
 10
12.6963637547
 20
7.4109239206
 30
0.0
  0
SPLINE
  5
71A
100
AcDbEntity
  8
0
100
AcDbSpline
 62
7
  6
CONTINUOUS
 70
0
 71
3
 72
9
 73
5
 74
0
 42
0.0000001
 43
0.0000001
 44
0.0000000001
 40
0.0
 40
0.0
 40
0.0
 40
0.0
 40
0.2288121357
 40
1.0
 40
1.0
 40
1.0
 40
1.0
 10
12.4085057083
 20
7.5771150814
 30
0.0
 10
12.4094486625
 20
7.577659493
 30
0.0
 10
12.4133558601
 20
7.580403338
 30
0.0
 10
12.4164366773
 20
7.5842226146
 30
0.0
 10
12.4182835578
 20
7.5873937885
 30
0.0
  0
SPLINE
  5
71B
100
AcDbEntity
  8
0
100
AcDbSpline
 62
7
  6
CONTINUOUS
 70
0
 71
3
 72
9
 73
5
 74
0
 42
0.0000001
 43
0.0000001
 44
0.0000000001
 40
0.0
 40
0.0
 40
0.0
 40
0.0
 40
0.2664599223
 40
1.0
 40
1.0
 40
1.0
 40
1.0
 10
12.4182835578
 20
7.5873937885
 30
0.0
 10
12.4189234367
 20
7.5884924883
 30
0.0
 10
12.4210857942
 20
7.5927384395
 30
0.0
 10
12.4223844624
 20
7.5975132236
 30
0.0
 10
12.4224238827
 20
7.6010131898
 30
0.0
  0
LINE
  5
71C
100
AcDbEntity
  8
0
100
AcDbLine
 62
6
  6
CONTINUOUS
 10
12.7277190331
 20
8.9558097682
 11
12.7024145671
 21
7.4393641498
  0
LINE
  5
71D
100
AcDbEntity
  8
0
100
AcDbLine
 62
6
  6
CONTINUOUS
 10
12.7024145671
 20
7.4393641498
 11
12.7020647059
 21
7.4327913249
  0
SPLINE
  5
71E
100
AcDbEntity
  8
0
100
AcDbSpline
 62
6
  6
CONTINUOUS
 70
0
 71
3
 72
10
 73
6
 74
0
 42
0.0000001
 43
0.0000001
 44
0.0000000001
 40
0.0
 40
0.0
 40
0.0
 40
0.0
 40
0.5518751854
 40
0.7955271381
 40
1.0
 40
1.0
 40
1.0
 40
1.0
 10
12.7020647059
 20
7.4327913249
 30
0.0
 10
12.7017074704
 20
7.4286175005
 30
0.0
 10
12.7008841969
 20
7.4225969795
 30
0.0
 10
12.6986913757
 20
7.4153184082
 30
0.0
 10
12.6972189691
 20
7.4122191265
 30
0.0
 10
12.6963637547
 20
7.4109239206
 30
0.0
  0
SPLINE
  5
71F
100
AcDbEntity
  8
0
100
AcDbSpline
 62
7
  6
CONTINUOUS
 70
0
 71
3
 72
9
 73
5
 74
0
 42
0.0000001
 43
0.0000001
 44
0.0000000001
 40
0.0
 40
0.0
 40
0.0
 40
0.0
 40
0.4898708756
 40
1.0
 40
1.0
 40
1.0
 40
1.0
 10
11.8377203207
 20
7.2475739512
 30
0.0
 10
11.8340715949
 20
7.2496804964
 30
0.0
 10
11.8280062996
 20
7.2562464001
 30
0.0
 10
11.8246213171
 20
7.2644272292
 30
0.0
 10
11.824012004
 20
7.268772107
 30
0.0
  0
SPLINE
  5
720
100
AcDbEntity
  8
0
100
AcDbSpline
 62
7
  6
CONTINUOUS
 70
0
 71
3
 72
9
 73
5
 74
0
 42
0.0000001
 43
0.0000001
 44
0.0000000001
 40
0.0
 40
0.0
 40
0.0
 40
0.0
 40
0.5101301296
 40
1.0
 40
1.0
 40
1.0
 40
1.0
 10
12.3947973917
 20
7.5983132371
 30
0.0
 10
12.395406706
 20
7.5939683507
 30
0.0
 10
12.3987916925
 20
7.5857875217
 30
0.0
 10
12.4048569901
 20
7.5792216222
 30
0.0
 10
12.4085057083
 20
7.5771150814
 30
0.0
  0
SPLINE
  5
721
100
AcDbEntity
  8
0
100
AcDbSpline
 62
7
  6
CONTINUOUS
 70
0
 71
3
 72
11
 73
7
 74
0
 42
0.0000001
 43
0.0000001
 44
0.0000000001
 40
0.0
 40
0.0
 40
0.0
 40
0.0
 40
0.2270001997
 40
0.4895350387
 40
0.7577590892
 40
1.0
 40
1.0
 40
1.0
 40
1.0
 10
12.4127863005
 20
7.675632499
 30
0.0
 10
12.4107710136
 20
7.6763815388
 30
0.0
 10
12.4061541405
 20
7.6772525311
 30
0.0
 10
12.3989464971
 20
7.6771649773
 30
0.0
 10
12.3917166401
 20
7.6758149109
 30
0.0
 10
12.387162038
 20
7.6740525713
 30
0.0
 10
12.3851603363
 20
7.6729313366
 30
0.0
  0
SPLINE
  5
722
100
AcDbEntity
  8
0
100
AcDbSpline
 62
7
  6
CONTINUOUS
 70
0
 71
3
 72
9
 73
5
 74
0
 42
0.0000001
 43
0.0000001
 44
0.0000000001
 40
0.0
 40
0.0
 40
0.0
 40
0.0
 40
0.2288121357
 40
1.0
 40
1.0
 40
1.0
 40
1.0
 10
11.7323397113
 20
8.076914528
 30
0.0
 10
11.7332826655
 20
8.0774589396
 30
0.0
 10
11.7371898631
 20
8.0802027846
 30
0.0
 10
11.7402706803
 20
8.0840220612
 30
0.0
 10
11.7421175608
 20
8.0871932351
 30
0.0
  0
SPLINE
  5
723
100
AcDbEntity
  8
0
100
AcDbSpline
 62
7
  6
CONTINUOUS
 70
0
 71
3
 72
9
 73
5
 74
0
 42
0.0000001
 43
0.0000001
 44
0.0000000001
 40
0.0
 40
0.0
 40
0.0
 40
0.0
 40
0.2664599223
 40
1.0
 40
1.0
 40
1.0
 40
1.0
 10
11.7421175608
 20
8.0871932351
 30
0.0
 10
11.7427574397
 20
8.0882919349
 30
0.0
 10
11.7449197972
 20
8.0925378861
 30
0.0
 10
11.7462184654
 20
8.0973126702
 30
0.0
 10
11.7462578857
 20
8.1008126364
 30
0.0
  0
SPLINE
  5
724
100
AcDbEntity
  8
0
100
AcDbSpline
 62
7
  6
CONTINUOUS
 70
0
 71
3
 72
9
 73
5
 74
0
 42
0.0000001
 43
0.0000001
 44
0.0000000001
 40
0.0
 40
0.0
 40
0.0
 40
0.0
 40
0.4636650794
 40
1.0
 40
1.0
 40
1.0
 40
1.0
 10
11.7462578857
 20
8.1008126364
 30
0.0
 10
11.7442420445
 20
8.101561676
 30
0.0
 10
11.7396243373
 20
8.1024326584
 30
0.0
 10
11.734963887
 20
8.1023750368
 30
0.0
 10
11.7324881481
 20
8.1021328859
 30
0.0
  0
SPLINE
  5
725
100
AcDbEntity
  8
0
100
AcDbSpline
 62
7
  6
CONTINUOUS
 70
0
 71
3
 72
9
 73
5
 74
0
 42
0.0000001
 43
0.0000001
 44
0.0000000001
 40
0.0
 40
0.0
 40
0.0
 40
0.0
 40
0.2658825887
 40
1.0
 40
1.0
 40
1.0
 40
1.0
 10
11.7324881481
 20
8.1021328859
 30
0.0
 10
11.7312109568
 20
8.1020079643
 30
0.0
 10
11.7264392627
 20
8.101317073
 30
0.0
 10
11.7217229997
 20
8.0998420933
 30
0.0
 10
11.7186316967
 20
8.0981105303
 30
0.0
  0
SPLINE
  5
726
100
AcDbEntity
  8
0
100
AcDbSpline
 62
6
  6
CONTINUOUS
 70
0
 71
3
 72
11
 73
7
 74
0
 42
0.0000001
 43
0.0000001
 44
0.0000000001
 40
0.0
 40
0.0
 40
0.0
 40
0.0
 40
0.2216176307
 40
0.4780361526
 40
0.7464240793
 40
1.0
 40
1.0
 40
1.0
 40
1.0
 10
15.24853966
 20
7.6229456877
 30
0.0
 10
15.2492377948
 20
7.6271144699
 30
0.0
 10
15.2487842285
 20
7.6364257191
 30
0.0
 10
15.2443359439
 20
7.6500646117
 30
0.0
 10
15.2367114252
 20
7.6629336769
 30
0.0
 10
15.229769558
 20
7.670245726
 30
0.0
 10
15.2259578165
 20
7.6732224776
 30
0.0
  0
SPLINE
  5
727
100
AcDbEntity
  8
0
100
AcDbSpline
 62
6
  6
CONTINUOUS
 70
0
 71
3
 72
11
 73
7
 74
0
 42
0.0000001
 43
0.0000001
 44
0.0000000001
 40
0.0
 40
0.0
 40
0.0
 40
0.0
 40
0.2535761772
 40
0.5219641815
 40
0.7783826028
 40
1.0
 40
1.0
 40
1.0
 40
1.0
 10
13.8441899491
 20
8.7523039727
 30
0.0
 10
13.838472331
 20
8.7567691046
 30
0.0
 10
13.8280595248
 20
8.7677371871
 30
0.0
 10
13.816622748
 20
8.7870407933
 30
0.0
 10
13.8099503288
 20
8.8074991271
 30
0.0
 10
13.8092699828
 20
8.8214659908
 30
0.0
 10
13.8103171838
 20
8.8277191576
 30
0.0
  0
SPLINE
  5
728
100
AcDbEntity
  8
0
100
AcDbSpline
 62
7
  6
CONTINUOUS
 70
0
 71
3
 72
10
 73
6
 74
0
 42
0.0000001
 43
0.0000001
 44
0.0000000001
 40
0.0
 40
0.0
 40
0.0
 40
0.0
 40
0.2985582984
 40
0.5736706734
 40
1.0
 40
1.0
 40
1.0
 40
1.0
 10
13.3474842352
 20
8.691342195
 30
0.0
 10
13.3510616577
 20
8.6855799789
 30
0.0
 10
13.3589377287
 20
8.674992697
 30
0.0
 10
13.3756537529
 20
8.6599342857
 30
0.0
 10
13.3922626521
 20
8.6531385765
 30
0.0
 10
13.4018070115
 20
8.6547831544
 30
0.0
  0
SPLINE
  5
729
100
AcDbEntity
  8
0
100
AcDbSpline
 62
7
  6
CONTINUOUS
 70
0
 71
3
 72
9
 73
5
 74
0
 42
0.0000001
 43
0.0000001
 44
0.0000000001
 40
0.0
 40
0.0
 40
0.0
 40
0.0
 40
0.4823599879
 40
1.0
 40
1.0
 40
1.0
 40
1.0
 10
13.4018070115
 20
8.6547831544
 30
0.0
 10
13.4057243462
 20
8.6554581459
 30
0.0
 10
13.4136621649
 20
8.6591910672
 30
0.0
 10
13.4181059769
 20
8.6666224883
 30
0.0
 10
13.4195818467
 20
8.6706248456
 30
0.0
  0
SPLINE
  5
72A
100
AcDbEntity
  8
0
100
AcDbSpline
 62
7
  6
CONTINUOUS
 70
0
 71
3
 72
9
 73
5
 74
0
 42
0.0000001
 43
0.0000001
 44
0.0000000001
 40
0.0
 40
0.0
 40
0.0
 40
0.0
 40
0.233306126
 40
1.0
 40
1.0
 40
1.0
 40
1.0
 10
13.4195818467
 20
8.6706248456
 30
0.0
 10
13.4199936603
 20
8.6717416281
 30
0.0
 10
13.4215036287
 20
8.6766223253
 30
0.0
 10
13.4220587269
 20
8.6817670064
 30
0.0
 10
13.4220939837
 20
8.6856783997
 30
0.0
  0
SPLINE
  5
72B
100
AcDbEntity
  8
0
100
AcDbSpline
 62
7
  6
CONTINUOUS
 70
0
 71
3
 72
9
 73
5
 74
0
 42
0.0000001
 43
0.0000001
 44
0.0000000001
 40
0.0
 40
0.0
 40
0.0
 40
0.0
 40
0.2372049244
 40
1.0
 40
1.0
 40
1.0
 40
1.0
 10
13.4220939837
 20
8.6856783997
 30
0.0
 10
13.4221068388
 20
8.687104545
 30
0.0
 10
13.4219388349
 20
8.6931183162
 30
0.0
 10
13.4209591788
 20
8.6990964065
 30
0.0
 10
13.4198702032
 20
8.7035515814
 30
0.0
  0
SPLINE
  5
72C
100
AcDbEntity
  8
0
100
AcDbSpline
 62
7
  6
CONTINUOUS
 70
0
 71
3
 72
9
 73
5
 74
0
 42
0.0000001
 43
0.0000001
 44
0.0000000001
 40
0.0
 40
0.0
 40
0.0
 40
0.0
 40
0.2426833879
 40
1.0
 40
1.0
 40
1.0
 40
1.0
 10
13.4198702032
 20
8.7035515814
 30
0.0
 10
13.419090774
 20
8.7067403523
 30
0.0
 10
13.4151406496
 20
8.7196911075
 30
0.0
 10
13.4086077668
 20
8.7318311583
 30
0.0
 10
13.402537484
 20
8.7400826641
 30
0.0
  0
SPLINE
  5
72D
100
AcDbEntity
  8
0
100
AcDbSpline
 62
7
  6
CONTINUOUS
 70
0
 71
3
 72
11
 73
7
 74
0
 42
0.0000001
 43
0.0000001
 44
0.0000000001
 40
0.0
 40
0.0
 40
0.0
 40
0.0
 40
0.2510970224
 40
0.4906776266
 40
0.7353193826
 40
1.0
 40
1.0
 40
1.0
 40
1.0
 10
13.6480041878
 20
8.799076452
 30
0.0
 10
13.6504132669
 20
8.799074304
 30
0.0
 10
13.6551631829
 20
8.799698785
 30
0.0
 10
13.6616149986
 20
8.8028607823
 30
0.0
 10
13.6667471115
 20
8.808061123
 30
0.0
 10
13.6690445341
 20
8.8124506949
 30
0.0
 10
13.669957779
 20
8.8148202005
 30
0.0
  0
SPLINE
  5
72E
100
AcDbEntity
  8
0
100
AcDbSpline
 62
7
  6
CONTINUOUS
 70
0
 71
3
 72
9
 73
5
 74
0
 42
0.0000001
 43
0.0000001
 44
0.0000000001
 40
0.0
 40
0.0
 40
0.0
 40
0.0
 40
0.2332770313
 40
1.0
 40
1.0
 40
1.0
 40
1.0
 10
13.669957779
 20
8.8148202005
 30
0.0
 10
13.6703827045
 20
8.8159227123
 30
0.0
 10
13.6719492364
 20
8.8207470533
 30
0.0
 10
13.6725588771
 20
8.82584978
 30
0.0
 10
13.6726342036
 20
8.8297325539
 30
0.0
  0
SPLINE
  5
72F
100
AcDbEntity
  8
0
100
AcDbSpline
 62
7
  6
CONTINUOUS
 70
0
 71
3
 72
9
 73
5
 74
0
 42
0.0000001
 43
0.0000001
 44
0.0000000001
 40
0.0
 40
0.0
 40
0.0
 40
0.0
 40
0.2327683022
 40
1.0
 40
1.0
 40
1.0
 40
1.0
 10
13.6725837922
 20
8.8335852174
 30
0.0
 10
13.6724599327
 20
8.8363793529
 30
0.0
 10
13.6711463155
 20
8.8483458929
 30
0.0
 10
13.6671402002
 20
8.859929108
 30
0.0
 10
13.6630911492
 20
8.8682111524
 30
0.0
  0
SPLINE
  5
730
100
AcDbEntity
  8
0
100
AcDbSpline
 62
7
  6
CONTINUOUS
 70
0
 71
3
 72
9
 73
5
 74
0
 42
0.0000001
 43
0.0000001
 44
0.0000000001
 40
0.0
 40
0.0
 40
0.0
 40
0.0
 40
0.4647240353
 40
1.0
 40
1.0
 40
1.0
 40
1.0
 10
13.4985233659
 20
8.6477059874
 30
0.0
 10
13.4975660349
 20
8.641989463
 30
0.0
 10
13.4979674241
 20
8.6292830677
 30
0.0
 10
13.5015037008
 20
8.6172171072
 30
0.0
 10
13.5040121991
 20
8.6110302397
 30
0.0
  0
SPLINE
  5
731
100
AcDbEntity
  8
0
100
AcDbSpline
 62
7
  6
CONTINUOUS
 70
0
 71
3
 72
9
 73
5
 74
0
 42
0.0000001
 43
0.0000001
 44
0.0000000001
 40
0.0
 40
0.0
 40
0.0
 40
0.0
 40
0.2604496899
 40
1.0
 40
1.0
 40
1.0
 40
1.0
 10
13.5127748018
 20
8.5941971096
 30
0.0
 10
13.514163614
 20
8.592047148
 30
0.0
 10
13.5198031384
 20
8.5840013348
 30
0.0
 10
13.5266680845
 20
8.5767640785
 30
0.0
 10
13.5323961311
 20
8.5722908024
 30
0.0
  0
SPLINE
  5
732
100
AcDbEntity
  8
0
100
AcDbSpline
 62
7
  6
CONTINUOUS
 70
0
 71
3
 72
9
 73
5
 74
0
 42
0.0000001
 43
0.0000001
 44
0.0000000001
 40
0.0
 40
0.0
 40
0.0
 40
0.0
 40
0.4860661283
 40
1.0
 40
1.0
 40
1.0
 40
1.0
 10
13.8219189621
 20
8.7394458891
 30
0.0
 10
13.8160686891
 20
8.7440146169
 30
0.0
 10
13.8054543729
 20
8.7552658958
 30
0.0
 10
13.7976931224
 20
8.7685802398
 30
0.0
 10
13.7945511943
 20
8.7757723449
 30
0.0
  0
SPLINE
  5
733
100
AcDbEntity
  8
0
100
AcDbSpline
 62
7
  6
CONTINUOUS
 70
0
 71
3
 72
9
 73
5
 74
0
 42
0.0000001
 43
0.0000001
 44
0.0000000001
 40
0.0
 40
0.0
 40
0.0
 40
0.0
 40
0.5361256102
 40
1.0
 40
1.0
 40
1.0
 40
1.0
 10
13.7945511943
 20
8.7757723449
 30
0.0
 10
13.7916885012
 20
8.7823252606
 30
0.0
 10
13.7876198212
 20
8.7951489991
 30
0.0
 10
13.7870242697
 20
8.8087588255
 30
0.0
 10
13.7880461968
 20
8.814861074
 30
0.0
  0
SPLINE
  5
734
100
AcDbEntity
  8
0
100
AcDbSpline
 62
7
  6
CONTINUOUS
 70
0
 71
3
 72
11
 73
7
 74
0
 42
0.0000001
 43
0.0000001
 44
0.0000000001
 40
0.0
 40
0.0
 40
0.0
 40
0.0
 40
0.2933204799
 40
0.5497319608
 40
0.7783182333
 40
1.0
 40
1.0
 40
1.0
 40
1.0
 10
13.3427559091
 20
8.7400520105
 30
0.0
 10
13.3427864436
 20
8.743652587
 30
0.0
 10
13.3434153471
 20
8.7504317071
 30
0.0
 10
13.3467959643
 20
8.7595330813
 30
0.0
 10
13.3526352683
 20
8.7662477679
 30
0.0
 10
13.3578341974
 20
8.7686277708
 30
0.0
 10
13.3604831755
 20
8.7692509468
 30
0.0
  0
SPLINE
  5
735
100
AcDbEntity
  8
0
100
AcDbSpline
 62
7
  6
CONTINUOUS
 70
0
 71
3
 72
11
 73
7
 74
0
 42
0.0000001
 43
0.0000001
 44
0.0000000001
 40
0.0
 40
0.0
 40
0.0
 40
0.0
 40
0.2753973961
 40
0.5000030369
 40
0.7246066325
 40
1.0
 40
1.0
 40
1.0
 40
1.0
 10
13.5097890071
 20
9.1483036206
 30
0.0
 10
13.5097564329
 20
9.1501832446
 30
0.0
 10
13.5093426898
 20
9.153678124
 30
0.0
 10
13.5060115303
 20
9.1578336352
 30
0.0
 10
13.5007472128
 20
9.1586408838
 30
0.0
 10
13.4975137081
 20
9.1572517842
 30
0.0
 10
13.4958696402
 20
9.1563402006
 30
0.0
  0
SPLINE
  5
736
100
AcDbEntity
  8
0
100
AcDbSpline
 62
7
  6
CONTINUOUS
 70
0
 71
3
 72
9
 73
5
 74
0
 42
0.0000001
 43
0.0000001
 44
0.0000000001
 40
0.0
 40
0.0
 40
0.0
 40
0.0
 40
0.4999983279
 40
1.0
 40
1.0
 40
1.0
 40
1.0
 10
13.6768214095
 20
9.2608121297
 30
0.0
 10
13.6727310545
 20
9.258356995
 30
0.0
 10
13.6661011864
 20
9.250928687
 30
0.0
 10
13.662983085
 20
9.2414728956
 30
0.0
 10
13.6629020427
 20
9.2367029452
 30
0.0
  0
SPLINE
  5
737
100
AcDbEntity
  8
0
100
AcDbSpline
 62
6
  6
CONTINUOUS
 70
0
 71
3
 72
9
 73
5
 74
0
 42
0.0000001
 43
0.0000001
 44
0.0000000001
 40
0.0
 40
0.0
 40
0.0
 40
0.0
 40
0.5500387927
 40
1.0
 40
1.0
 40
1.0
 40
1.0
 10
13.3636351333
 20
9.2889412473
 30
0.0
 10
13.3636351333
 20
9.2898796714
 30
0.0
 10
13.3638693786
 20
9.2916228614
 30
0.0
 10
13.3650083222
 20
9.2930639353
 30
0.0
 10
13.36567315
 20
9.2934477822
 30
0.0
  0
SPLINE
  5
738
100
AcDbEntity
  8
0
100
AcDbSpline
 62
7
  6
CONTINUOUS
 70
0
 71
3
 72
11
 73
7
 74
0
 42
0.0000001
 43
0.0000001
 44
0.0000000001
 40
0.0
 40
0.0
 40
0.0
 40
0.0
 40
0.2372127995
 40
0.5000013053
 40
0.762788951
 40
1.0
 40
1.0
 40
1.0
 40
1.0
 10
13.3427559091
 20
9.1643761013
 30
0.0
 10
13.3427036351
 20
9.1712208566
 30
0.0
 10
13.3402253588
 20
9.1856625309
 30
0.0
 10
13.3312191736
 20
9.205933813
 30
0.0
 10
13.3181667389
 20
9.2238688601
 30
0.0
 10
13.3068991048
 20
9.233235989
 30
0.0
 10
13.3009974608
 20
9.236703454
 30
0.0
  0
SPLINE
  5
739
100
AcDbEntity
  8
0
100
AcDbSpline
 62
7
  6
CONTINUOUS
 70
0
 71
3
 72
9
 73
5
 74
0
 42
0.0000001
 43
0.0000001
 44
0.0000000001
 40
0.0
 40
0.0
 40
0.0
 40
0.0
 40
0.2410486743
 40
1.0
 40
1.0
 40
1.0
 40
1.0
 10
13.2453195297
 20
9.3652856886
 30
0.0
 10
13.2462904494
 20
9.3646842905
 30
0.0
 10
13.2499694325
 20
9.3616686897
 30
0.0
 10
13.2521673406
 20
9.3568252966
 30
0.0
 10
13.2522792711
 20
9.3532311299
 30
0.0
  0
SPLINE
  5
73A
100
AcDbEntity
  8
0
100
AcDbSpline
 62
7
  6
CONTINUOUS
 70
0
 71
3
 72
9
 73
5
 74
0
 42
0.0000001
 43
0.0000001
 44
0.0000000001
 40
0.0
 40
0.0
 40
0.0
 40
0.0
 40
0.241050301
 40
1.0
 40
1.0
 40
1.0
 40
1.0
 10
13.5724247092
 20
9.5380660814
 30
0.0
 10
13.5723893322
 20
9.5392076289
 30
0.0
 10
13.5716172063
 20
9.5439015131
 30
0.0
 10
13.568521653
 20
9.5482266548
 30
0.0
 10
13.5654649678
 20
9.5501206402
 30
0.0
  0
SPLINE
  5
73B
100
AcDbEntity
  8
0
100
AcDbSpline
 62
7
  6
CONTINUOUS
 70
0
 71
3
 72
9
 73
5
 74
0
 42
0.0000001
 43
0.0000001
 44
0.0000000001
 40
0.0
 40
0.0
 40
0.0
 40
0.0
 40
0.5528730222
 40
1.0
 40
1.0
 40
1.0
 40
1.0
 10
13.551545485
 20
9.4338805335
 30
0.0
 10
13.5550447339
 20
9.4295904847
 30
0.0
 10
13.5622422301
 20
9.4224795938
 30
0.0
 10
13.5718243356
 20
9.4182116081
 30
0.0
 10
13.5762839802
 20
9.4178144682
 30
0.0
  0
SPLINE
  5
73C
100
AcDbEntity
  8
0
100
AcDbSpline
 62
6
  6
CONTINUOUS
 70
0
 71
3
 72
13
 73
9
 74
0
 42
0.0000001
 43
0.0000001
 44
0.0000000001
 40
0.0
 40
0.0
 40
0.0
 40
0.0
 40
0.0932805535
 40
0.1919671755
 40
0.3000484773
 40
0.4196291641
 40
0.6925058531
 40
1.0
 40
1.0
 40
1.0
 40
1.0
 10
13.4140365089
 20
8.6647999503
 30
0.0
 10
13.4122912312
 20
8.663792886
 30
0.0
 10
13.4083515262
 20
8.6622743677
 30
0.0
 10
13.4018120797
 20
8.6617945853
 30
0.0
 10
13.3948086211
 20
8.6630115195
 30
0.0
 10
13.3846890021
 20
8.666978245
 30
0.0
 10
13.3722416649
 20
8.6759408761
 30
0.0
 10
13.3639603033
 20
8.6854819297
 30
0.0
 10
13.3601155559
 20
8.6908983832
 30
0.0
  0
SPLINE
  5
73D
100
AcDbEntity
  8
0
100
AcDbSpline
 62
6
  6
CONTINUOUS
 70
0
 71
3
 72
9
 73
5
 74
0
 42
0.0000001
 43
0.0000001
 44
0.0000000001
 40
0.0
 40
0.0
 40
0.0
 40
0.0
 40
0.2672181893
 40
1.0
 40
1.0
 40
1.0
 40
1.0
 10
13.3508525683
 20
8.7068436754
 30
0.0
 10
13.3495631855
 20
8.7096154458
 30
0.0
 10
13.3452267541
 20
8.7201896916
 30
0.0
 10
13.3427559091
 20
8.7316689344
 30
0.0
 10
13.3427559091
 20
8.7400520105
 30
0.0
  0
SPLINE
  5
73E
100
AcDbEntity
  8
0
100
AcDbSpline
 62
6
  6
CONTINUOUS
 70
0
 71
3
 72
10
 73
6
 74
0
 42
0.0000001
 43
0.0000001
 44
0.0000000001
 40
0.0
 40
0.0
 40
0.0
 40
0.0
 40
0.2785887865
 40
0.5397155418
 40
1.0
 40
1.0
 40
1.0
 40
1.0
 10
13.2767073821
 20
9.4637709434
 30
0.0
 10
13.2947931671
 20
9.4690466449
 30
0.0
 10
13.3293703313
 20
9.4810966002
 30
0.0
 10
13.3901927574
 20
9.5106676949
 30
0.0
 10
13.4300615475
 20
9.5407204818
 30
0.0
 10
13.4505602187
 20
9.5641443262
 30
0.0
  0
SPLINE
  5
73F
100
AcDbEntity
  8
0
100
AcDbSpline
 62
7
  6
CONTINUOUS
 70
0
 71
3
 72
9
 73
5
 74
0
 42
0.0000001
 43
0.0000001
 44
0.0000000001
 40
0.0
 40
0.0
 40
0.0
 40
0.0
 40
0.2533190798
 40
1.0
 40
1.0
 40
1.0
 40
1.0
 10
13.2387210005
 20
9.3233451152
 30
0.0
 10
13.2428417272
 20
9.3234000096
 30
0.0
 10
13.259102997
 20
9.3238912878
 30
0.0
 10
13.2753367754
 20
9.3255157374
 30
0.0
 10
13.2873293952
 20
9.327448038
 30
0.0
  0
LINE
  5
740
100
AcDbEntity
  8
0
100
AcDbLine
 62
7
  6
CONTINUOUS
 10
14.3509085022
 20
6.6543237467
 11
14.3451409949
 21
6.6576515101
  0
SPLINE
  5
741
100
AcDbEntity
  8
0
100
AcDbSpline
 62
7
  6
CONTINUOUS
 70
0
 71
3
 72
9
 73
5
 74
0
 42
0.0000001
 43
0.0000001
 44
0.0000000001
 40
0.0
 40
0.0
 40
0.0
 40
0.0
 40
0.5229309152
 40
1.0
 40
1.0
 40
1.0
 40
1.0
 10
14.7484571536
 20
6.8838471957
 30
0.0
 10
14.7462940608
 20
6.8825993602
 30
0.0
 10
14.7417890118
 20
6.8806737006
 30
0.0
 10
14.7366754145
 20
6.8813194821
 30
0.0
 10
14.7346735084
 20
6.8824069452
 30
0.0
  0
SPLINE
  5
742
100
AcDbEntity
  8
0
100
AcDbSpline
 62
6
  6
CONTINUOUS
 70
0
 71
3
 72
9
 73
5
 74
0
 42
0.0000001
 43
0.0000001
 44
0.0000000001
 40
0.0
 40
0.0
 40
0.0
 40
0.0
 40
0.2522298079
 40
1.0
 40
1.0
 40
1.0
 40
1.0
 10
10.1440589938
 20
8.4967249482
 30
0.0
 10
10.1427826727
 20
8.4959883139
 30
0.0
 10
10.1378074873
 20
8.4929248006
 30
0.0
 10
10.1331969417
 20
8.489255362
 30
0.0
 10
10.1300792332
 20
8.48619489
 30
0.0
  0
SPLINE
  5
743
100
AcDbEntity
  8
0
100
AcDbSpline
 62
6
  6
CONTINUOUS
 70
0
 71
3
 72
9
 73
5
 74
0
 42
0.0000001
 43
0.0000001
 44
0.0000000001
 40
0.0
 40
0.0
 40
0.0
 40
0.0
 40
0.4988162892
 40
1.0
 40
1.0
 40
1.0
 40
1.0
 10
10.126956071
 20
8.4828977392
 30
0.0
 10
10.1227311255
 20
8.4780951527
 30
0.0
 10
10.1157049683
 20
8.4670475118
 30
0.0
 10
10.1129981318
 20
8.4541704358
 30
0.0
 10
10.1128544569
 20
8.4477452001
 30
0.0
  0
SPLINE
  5
744
100
AcDbEntity
  8
0
100
AcDbSpline
 62
7
  6
CONTINUOUS
 70
0
 71
3
 72
9
 73
5
 74
0
 42
0.0000001
 43
0.0000001
 44
0.0000000001
 40
0.0
 40
0.0
 40
0.0
 40
0.0
 40
0.4481204767
 40
1.0
 40
1.0
 40
1.0
 40
1.0
 10
10.7289771421
 20
10.0417260318
 30
0.0
 10
10.7289415049
 20
10.0401665048
 30
0.0
 10
10.7302565395
 20
10.0366491017
 30
0.0
 10
10.7330862496
 20
10.0344340552
 30
0.0
 10
10.7347389353
 20
10.0334545894
 30
0.0
  0
SPLINE
  5
745
100
AcDbEntity
  8
0
100
AcDbSpline
 62
7
  6
CONTINUOUS
 70
0
 71
3
 72
9
 73
5
 74
0
 42
0.0000001
 43
0.0000001
 44
0.0000000001
 40
0.0
 40
0.0
 40
0.0
 40
0.0
 40
0.4508197088
 40
1.0
 40
1.0
 40
1.0
 40
1.0
 10
10.7430172464
 20
10.0672019976
 30
0.0
 10
10.7403901296
 20
10.0656854711
 30
0.0
 10
10.7358269156
 20
10.0600860596
 30
0.0
 10
10.734802551
 20
10.0532204497
 30
0.0
 10
10.7347388216
 20
10.0495257512
 30
0.0
  0
SPLINE
  5
746
100
AcDbEntity
  8
0
100
AcDbSpline
 62
6
  6
CONTINUOUS
 70
0
 71
3
 72
11
 73
7
 74
0
 42
0.0000001
 43
0.0000001
 44
0.0000000001
 40
0.0
 40
0.0
 40
0.0
 40
0.0
 40
0.2178065666
 40
0.4506637765
 40
0.7100347007
 40
1.0
 40
1.0
 40
1.0
 40
1.0
 10
12.4869370651
 20
7.4337941519
 30
0.0
 10
12.4868690468
 20
7.4296271332
 30
0.0
 10
12.4882753923
 20
7.4209181531
 30
0.0
 10
12.4947576576
 20
7.4087572797
 30
0.0
 10
12.5051276705
 20
7.3977759375
 30
0.0
 10
12.5138362285
 20
7.3917640969
 30
0.0
 10
12.518641207
 20
7.3889900041
 30
0.0
  0
SPLINE
  5
747
100
AcDbEntity
  8
0
100
AcDbSpline
 62
6
  6
CONTINUOUS
 70
0
 71
3
 72
9
 73
5
 74
0
 42
0.0000001
 43
0.0000001
 44
0.0000000001
 40
0.0
 40
0.0
 40
0.0
 40
0.0
 40
0.2646995436
 40
1.0
 40
1.0
 40
1.0
 40
1.0
 10
13.2087666886
 20
8.6601921949
 30
0.0
 10
13.208812169
 20
8.6582361758
 30
0.0
 10
13.2093772463
 20
8.6509055161
 30
0.0
 10
13.2121057438
 20
8.6434069109
 30
0.0
 10
13.2157707318
 20
8.6393935042
 30
0.0
  0
SPLINE
  5
748
100
AcDbEntity
  8
0
100
AcDbSpline
 62
7
  6
CONTINUOUS
 70
0
 71
3
 72
10
 73
6
 74
0
 42
0.0000001
 43
0.0000001
 44
0.0000000001
 40
0.0
 40
0.0
 40
0.0
 40
0.0
 40
0.2872258464
 40
0.5547641677
 40
1.0
 40
1.0
 40
1.0
 40
1.0
 10
13.402537484
 20
8.7400826641
 30
0.0
 10
13.399572655
 20
8.7441128395
 30
0.0
 10
13.3932606361
 20
8.7515093373
 30
0.0
 10
13.3800797779
 20
8.7628680136
 30
0.0
 10
13.3682416189
 20
8.7683972775
 30
0.0
 10
13.3605365365
 20
8.7692815906
 30
0.0
  0
SPLINE
  5
749
100
AcDbEntity
  8
0
100
AcDbSpline
 62
6
  6
CONTINUOUS
 70
0
 71
3
 72
9
 73
5
 74
0
 42
0.0000001
 43
0.0000001
 44
0.0000000001
 40
0.0
 40
0.0
 40
0.0
 40
0.0
 40
0.2554073365
 40
1.0
 40
1.0
 40
1.0
 40
1.0
 10
13.2137526431
 20
8.686595558
 30
0.0
 10
13.212943726
 20
8.6844481776
 30
0.0
 10
13.2101027196
 20
8.6759323055
 30
0.0
 10
13.2086111842
 20
8.6668801219
 30
0.0
 10
13.2087666886
 20
8.6601921949
 30
0.0
  0
LINE
  5
74A
100
AcDbEntity
  8
0
100
AcDbLine
 62
6
  6
CONTINUOUS
 10
13.36567315
 20
9.2934477822
 11
13.3671026748
 21
9.293890383
  0
SPLINE
  5
74B
100
AcDbEntity
  8
0
100
AcDbSpline
 62
6
  6
CONTINUOUS
 70
0
 71
3
 72
9
 73
5
 74
0
 42
0.0000001
 43
0.0000001
 44
0.0000000001
 40
0.0
 40
0.0
 40
0.0
 40
0.0
 40
0.2254928033
 40
1.0
 40
1.0
 40
1.0
 40
1.0
 10
13.3671026748
 20
9.293890383
 30
0.0
 10
13.3673757366
 20
9.2939147542
 30
0.0
 10
13.368598567
 20
9.2938933423
 30
0.0
 10
13.3697794014
 20
9.2934303738
 30
0.0
 10
13.3705948747
 20
9.2929595707
 30
0.0
  0
SPLINE
  5
74C
100
AcDbEntity
  8
0
100
AcDbSpline
 62
6
  6
CONTINUOUS
 70
0
 71
3
 72
10
 73
6
 74
0
 42
0.0000001
 43
0.0000001
 44
0.0000000001
 40
0.0
 40
0.0
 40
0.0
 40
0.0
 40
0.197714808
 40
0.5656765299
 40
1.0
 40
1.0
 40
1.0
 40
1.0
 10
15.0768235248
 20
7.0177353207
 30
0.0
 10
15.0752216862
 20
7.0194263253
 30
0.0
 10
15.070447982
 20
7.0240814578
 30
0.0
 10
15.0618540834
 20
7.0321293825
 30
0.0
 10
15.0550087523
 20
7.0386725909
 30
0.0
 10
15.0516143212
 20
7.0425012173
 30
0.0
  0
SPLINE
  5
74D
100
AcDbEntity
  8
0
100
AcDbSpline
 62
6
  6
CONTINUOUS
 70
0
 71
3
 72
11
 73
7
 74
0
 42
0.0000001
 43
0.0000001
 44
0.0000000001
 40
0.0
 40
0.0
 40
0.0
 40
0.0
 40
0.2216176307
 40
0.4780361526
 40
0.7464240793
 40
1.0
 40
1.0
 40
1.0
 40
1.0
 10
13.4762523789
 20
8.6348479038
 30
0.0
 10
13.4752051767
 20
8.6285947304
 30
0.0
 10
13.4758855261
 20
8.6146278566
 30
0.0
 10
13.482557953
 20
8.5941695177
 30
0.0
 10
13.493994731
 20
8.57486592
 30
0.0
 10
13.5044075318
 20
8.5638978463
 30
0.0
 10
13.5101251441
 20
8.5594327189
 30
0.0
  0
SPLINE
  5
74E
100
AcDbEntity
  8
0
100
AcDbSpline
 62
6
  6
CONTINUOUS
 70
0
 71
3
 72
11
 73
7
 74
0
 42
0.0000001
 43
0.0000001
 44
0.0000000001
 40
0.0
 40
0.0
 40
0.0
 40
0.0
 40
0.2535761772
 40
0.5219641815
 40
0.7783826028
 40
1.0
 40
1.0
 40
1.0
 40
1.0
 10
14.8918930115
 20
7.4803512238
 30
0.0
 10
14.8957047569
 20
7.4773744692
 30
0.0
 10
14.9026466277
 20
7.4700624142
 30
0.0
 10
14.9102711456
 20
7.4571933434
 30
0.0
 10
14.914719425
 20
7.4435544542
 30
0.0
 10
14.915172989
 20
7.4342432117
 30
0.0
 10
14.914474855
 20
7.4300744339
 30
0.0
  0
SPLINE
  5
74F
100
AcDbEntity
  8
0
100
AcDbSpline
 62
6
  6
CONTINUOUS
 70
0
 71
3
 72
11
 73
7
 74
0
 42
0.0000001
 43
0.0000001
 44
0.0000000001
 40
0.0
 40
0.0
 40
0.0
 40
0.0
 40
0.2424499469
 40
0.5101077744
 40
0.7724310372
 40
1.0
 40
1.0
 40
1.0
 40
1.0
 10
12.8403648207
 20
8.4131085839
 30
0.0
 10
12.8383832631
 20
8.4119705696
 30
0.0
 10
12.8345536787
 20
8.4089835006
 30
0.0
 10
12.8297209809
 20
8.4034929785
 30
0.0
 10
12.8259893588
 20
8.3973681407
 30
0.0
 10
12.8244008332
 20
8.3929668538
 30
0.0
 10
12.8240225013
 20
8.3908556458
 30
0.0
  0
SPLINE
  5
750
100
AcDbEntity
  8
0
100
AcDbSpline
 62
6
  6
CONTINUOUS
 70
0
 71
3
 72
11
 73
7
 74
0
 42
0.0000001
 43
0.0000001
 44
0.0000000001
 40
0.0
 40
0.0
 40
0.0
 40
0.0
 40
0.2463247698
 40
0.5082272037
 40
0.765740965
 40
1.0
 40
1.0
 40
1.0
 40
1.0
 10
12.8240213464
 20
8.3908565521
 30
0.0
 10
12.8190264765
 20
8.3947726584
 30
0.0
 10
12.8097939857
 20
8.40425352
 30
0.0
 10
12.7991252701
 20
8.4209931468
 30
0.0
 10
12.7920292991
 20
8.4391989879
 30
0.0
 10
12.7900682191
 20
8.451884708
 30
0.0
 10
12.7900712001
 20
8.4579208273
 30
0.0
  0
SPLINE
  5
751
100
AcDbEntity
  8
0
100
AcDbSpline
 62
6
  6
CONTINUOUS
 70
0
 71
3
 72
11
 73
7
 74
0
 42
0.0000001
 43
0.0000001
 44
0.0000000001
 40
0.0
 40
0.0
 40
0.0
 40
0.0
 40
0.2367983612
 40
0.499855622
 40
0.7630711659
 40
1.0
 40
1.0
 40
1.0
 40
1.0
 10
12.7900712001
 20
8.4579208999
 30
0.0
 10
12.7920530072
 20
8.4568070675
 30
0.0
 10
12.7966507297
 20
8.455188715
 30
0.0
 10
12.8039867384
 20
8.4544134362
 30
0.0
 10
12.811324122
 20
8.4551877918
 30
0.0
 10
12.8159247736
 20
8.4568065064
 30
0.0
 10
12.8179076647
 20
8.4579209668
 30
0.0
  0
SPLINE
  5
752
100
AcDbEntity
  8
0
100
AcDbSpline
 62
6
  6
CONTINUOUS
 70
0
 71
3
 72
10
 73
6
 74
0
 42
0.0000001
 43
0.0000001
 44
0.0000000001
 40
0.0
 40
0.0
 40
0.0
 40
0.0
 40
0.2350178086
 40
0.4964386161
 40
1.0
 40
1.0
 40
1.0
 40
1.0
 10
14.3073179418
 20
6.5883661973
 30
0.0
 10
14.3053490737
 20
6.5872430716
 30
0.0
 10
14.3007005768
 20
6.5857118985
 30
0.0
 10
14.2910578627
 20
6.5851278662
 30
0.0
 10
14.2834869254
 20
6.5871742281
 30
0.0
 10
14.2794559513
 20
6.589883271
 30
0.0
  0
SPLINE
  5
753
100
AcDbEntity
  8
0
100
AcDbSpline
 62
6
  6
CONTINUOUS
 70
0
 71
3
 72
9
 73
5
 74
0
 42
0.0000001
 43
0.0000001
 44
0.0000000001
 40
0.0
 40
0.0
 40
0.0
 40
0.0
 40
0.4556629581
 40
1.0
 40
1.0
 40
1.0
 40
1.0
 10
14.3073009301
 20
6.4806499161
 30
0.0
 10
14.3047571912
 20
6.4864314148
 30
0.0
 10
14.2982733481
 20
6.4987219125
 30
0.0
 10
14.2907213326
 20
6.5103615136
 30
0.0
 10
14.2864097132
 20
6.5165538636
 30
0.0
  0
LINE
  5
754
100
AcDbEntity
  8
0
100
AcDbLine
 62
6
  6
CONTINUOUS
 10
14.2864097132
 20
6.5165538636
 11
14.2794559572
 21
6.5262930029
  0
SPLINE
  5
755
100
AcDbEntity
  8
0
100
AcDbSpline
 62
6
  6
CONTINUOUS
 70
0
 71
3
 72
9
 73
5
 74
0
 42
0.0000001
 43
0.0000001
 44
0.0000000001
 40
0.0
 40
0.0
 40
0.0
 40
0.0
 40
0.2133181531
 40
1.0
 40
1.0
 40
1.0
 40
1.0
 10
14.3072924261
 20
6.4806691186
 30
0.0
 10
14.3055257772
 20
6.4813453732
 30
0.0
 10
14.2972773035
 20
6.4845996558
 30
0.0
 10
14.2891681849
 20
6.4882271258
 30
0.0
 10
14.2829571498
 20
6.4914034873
 30
0.0
  0
SPLINE
  5
756
100
AcDbEntity
  8
0
100
AcDbSpline
 62
6
  6
CONTINUOUS
 70
0
 71
3
 72
9
 73
5
 74
0
 42
0.0000001
 43
0.0000001
 44
0.0000000001
 40
0.0
 40
0.0
 40
0.0
 40
0.0
 40
0.2397977227
 40
1.0
 40
1.0
 40
1.0
 40
1.0
 10
14.2829571498
 20
6.4914034873
 30
0.0
 10
14.2821090875
 20
6.4918371915
 30
0.0
 10
14.2785864282
 20
6.4936724616
 30
0.0
 10
14.2751250484
 20
6.4956289522
 30
0.0
 10
14.2725559797
 20
6.4972158949
 30
0.0
  0
SPLINE
  5
757
100
AcDbEntity
  8
0
100
AcDbSpline
 62
6
  6
CONTINUOUS
 70
0
 71
3
 72
8
 73
4
 74
0
 42
0.0000001
 43
0.0000001
 44
0.0000000001
 40
0.0
 40
0.0
 40
0.0
 40
0.0
 40
1.0
 40
1.0
 40
1.0
 40
1.0
 10
14.2725559797
 20
6.4972158949
 30
0.0
 10
14.2696880924
 20
6.4989874211
 30
0.0
 10
14.266883112
 20
6.5008822819
 30
0.0
 10
14.2642621797
 20
6.5030021396
 30
0.0
  0
LINE
  5
758
100
AcDbEntity
  8
0
100
AcDbLine
 62
6
  6
CONTINUOUS
 10
14.2642621797
 20
6.5030021396
 11
14.2610685358
 21
6.5058261748
  0
SPLINE
  5
759
100
AcDbEntity
  8
0
100
AcDbSpline
 62
6
  6
CONTINUOUS
 70
0
 71
3
 72
11
 73
7
 74
0
 42
0.0000001
 43
0.0000001
 44
0.0000000001
 40
0.0
 40
0.0
 40
0.0
 40
0.0
 40
0.2370596792
 40
0.5000005382
 40
0.762941113
 40
1.0
 40
1.0
 40
1.0
 40
1.0
 10
13.6252489481
 20
6.1511783983
 30
0.0
 10
13.633165906
 20
6.146668106
 30
0.0
 10
13.6515544748
 20
6.1400999328
 30
0.0
 10
13.6809219655
 20
6.1369608217
 30
0.0
 10
13.7102894097
 20
6.1401000665
 30
0.0
 10
13.7286779092
 20
6.1466683242
 30
0.0
 10
13.7365948067
 20
6.1511786608
 30
0.0
  0
SPLINE
  5
75A
100
AcDbEntity
  8
0
100
AcDbSpline
 62
6
  6
CONTINUOUS
 70
0
 71
3
 72
11
 73
7
 74
0
 42
0.0000001
 43
0.0000001
 44
0.0000000001
 40
0.0
 40
0.0
 40
0.0
 40
0.0
 40
0.2380368579
 40
0.5007414079
 40
0.7630754739
 40
1.0
 40
1.0
 40
1.0
 40
1.0
 10
13.6252489491
 20
6.1511785015
 30
0.0
 10
13.6253001599
 20
6.1557241544
 30
0.0
 10
13.6270710056
 20
6.165275406
 30
0.0
 10
13.6330579774
 20
6.1786781947
 30
0.0
 10
13.6417448781
 20
6.1904846137
 30
0.0
 10
13.649166787
 20
6.1967122716
 30
0.0
 10
13.6530852966
 20
6.1989746107
 30
0.0
  0
SPLINE
  5
75B
100
AcDbEntity
  8
0
100
AcDbSpline
 62
6
  6
CONTINUOUS
 70
0
 71
3
 72
11
 73
7
 74
0
 42
0.0000001
 43
0.0000001
 44
0.0000000001
 40
0.0
 40
0.0
 40
0.0
 40
0.0
 40
0.2368388872
 40
0.499096715
 40
0.7618770657
 40
1.0
 40
1.0
 40
1.0
 40
1.0
 10
13.7087582276
 20
6.1989747451
 30
0.0
 10
13.7126753468
 20
6.1967132465
 30
0.0
 10
13.7200952401
 20
6.1904881758
 30
0.0
 10
13.7287824522
 20
6.178684034
 30
0.0
 10
13.7347715519
 20
6.1652803133
 30
0.0
 10
13.7365435912
 20
6.15572597
 30
0.0
 10
13.7365948081
 20
6.1511786621
 30
0.0
  0
SPLINE
  5
75C
100
AcDbEntity
  8
0
100
AcDbSpline
 62
6
  6
CONTINUOUS
 70
0
 71
3
 72
10
 73
6
 74
0
 42
0.0000001
 43
0.0000001
 44
0.0000000001
 40
0.0
 40
0.0
 40
0.0
 40
0.0
 40
0.4379216112
 40
0.7179246001
 40
1.0
 40
1.0
 40
1.0
 40
1.0
 10
11.7743927887
 20
7.2197466296
 30
0.0
 10
11.783883599
 20
7.2229900666
 30
0.0
 10
11.7991690636
 20
7.2291060497
 30
0.0
 10
11.8200745101
 20
7.2384518422
 30
0.0
 10
11.8316262035
 20
7.2441637429
 30
0.0
 10
11.8372661201
 20
7.2473145844
 30
0.0
  0
SPLINE
  5
75D
100
AcDbEntity
  8
0
100
AcDbSpline
 62
6
  6
CONTINUOUS
 70
0
 71
3
 72
11
 73
7
 74
0
 42
0.0000001
 43
0.0000001
 44
0.0000000001
 40
0.0
 40
0.0
 40
0.0
 40
0.0
 40
0.275951687
 40
0.5538125945
 40
0.7964732826
 40
1.0
 40
1.0
 40
1.0
 40
1.0
 10
11.8239363579
 20
7.2687308564
 30
0.0
 10
11.8183414329
 20
7.2655220713
 30
0.0
 10
11.8079863637
 20
7.2576076184
 30
0.0
 10
11.7944860234
 20
7.2447796094
 30
0.0
 10
11.7832482778
 20
7.2320991962
 30
0.0
 10
11.7769944833
 20
7.2237290746
 30
0.0
 10
11.7743928351
 20
7.2197465636
 30
0.0
  0
SPLINE
  5
75E
100
AcDbEntity
  8
0
100
AcDbSpline
 62
6
  6
CONTINUOUS
 70
0
 71
3
 72
10
 73
6
 74
0
 42
0.0000001
 43
0.0000001
 44
0.0000000001
 40
0.0
 40
0.0
 40
0.0
 40
0.0
 40
0.4379216112
 40
0.7179246001
 40
1.0
 40
1.0
 40
1.0
 40
1.0
 10
11.0982267917
 20
7.7195460762
 30
0.0
 10
11.1077176019
 20
7.7227895134
 30
0.0
 10
11.1230030666
 20
7.7289054962
 30
0.0
 10
11.1439085131
 20
7.7382512888
 30
0.0
 10
11.1554602065
 20
7.7439631895
 30
0.0
 10
11.1611001231
 20
7.747114031
 30
0.0
  0
SPLINE
  5
75F
100
AcDbEntity
  8
0
100
AcDbSpline
 62
6
  6
CONTINUOUS
 70
0
 71
3
 72
11
 73
7
 74
0
 42
0.0000001
 43
0.0000001
 44
0.0000000001
 40
0.0
 40
0.0
 40
0.0
 40
0.0
 40
0.2767808319
 40
0.5544390117
 40
0.796707727
 40
1.0
 40
1.0
 40
1.0
 40
1.0
 10
11.1477450001
 20
7.7685172872
 30
0.0
 10
11.1421548551
 20
7.7652666652
 30
0.0
 10
11.1317717637
 20
7.7573853573
 30
0.0
 10
11.1182788512
 20
7.7445426736
 30
0.0
 10
11.1070830467
 20
7.7318671552
 30
0.0
 10
11.1007965818
 20
7.7235404028
 30
0.0
 10
11.0982268379
 20
7.7195460114
 30
0.0
  0
SPLINE
  5
760
100
AcDbEntity
  8
0
100
AcDbSpline
 62
6
  6
CONTINUOUS
 70
0
 71
3
 72
10
 73
6
 74
0
 42
0.0000001
 43
0.0000001
 44
0.0000000001
 40
0.0
 40
0.0
 40
0.0
 40
0.0
 40
0.2333678206
 40
0.4915260384
 40
1.0
 40
1.0
 40
1.0
 40
1.0
 10
11.1065679108
 20
7.9183080563
 30
0.0
 10
11.1100553716
 20
7.916294562
 30
0.0
 10
11.1167442871
 20
7.9108802476
 30
0.0
 10
11.1274869302
 20
7.8973287982
 30
0.0
 10
11.1327645937
 20
7.8846050991
 30
0.0
 10
11.1339839399
 20
7.8759160516
 30
0.0
  0
SPLINE
  5
761
100
AcDbEntity
  8
0
100
AcDbSpline
 62
6
  6
CONTINUOUS
 70
0
 71
3
 72
11
 73
7
 74
0
 42
0.0000001
 43
0.0000001
 44
0.0000000001
 40
0.0
 40
0.0
 40
0.0
 40
0.0
 40
0.2421749023
 40
0.510305613
 40
0.7729191135
 40
1.0
 40
1.0
 40
1.0
 40
1.0
 10
11.1339839511
 20
7.875916058
 30
0.0
 10
11.1299816203
 20
7.8736741917
 30
0.0
 10
11.1208756847
 20
7.8701492858
 30
0.0
 10
11.1064173145
 20
7.8674504744
 30
0.0
 10
11.0920008225
 20
7.8672714742
 30
0.0
 10
11.0827638246
 20
7.8690135676
 30
0.0
 10
11.0787316619
 20
7.8705118129
 30
0.0
  0
SPLINE
  5
762
100
AcDbEntity
  8
0
100
AcDbSpline
 62
6
  6
CONTINUOUS
 70
0
 71
3
 72
11
 73
7
 74
0
 42
0.0000001
 43
0.0000001
 44
0.0000000001
 40
0.0
 40
0.0
 40
0.0
 40
0.0
 40
0.2368579814
 40
0.4991776889
 40
0.7619439647
 40
1.0
 40
1.0
 40
1.0
 40
1.0
 10
11.1065680957
 20
7.9183079624
 30
0.0
 10
11.1026506828
 20
7.916046254
 30
0.0
 10
11.0952298281
 20
7.9098198914
 30
0.0
 10
11.086542238
 20
7.8980143945
 30
0.0
 10
11.0805543628
 20
7.8846105346
 30
0.0
 10
11.0787829491
 20
7.8750577705
 30
0.0
 10
11.078731747
 20
7.8705117455
 30
0.0
  0
SPLINE
  5
763
100
AcDbEntity
  8
0
100
AcDbSpline
 62
6
  6
CONTINUOUS
 70
0
 71
3
 72
9
 73
5
 74
0
 42
0.0000001
 43
0.0000001
 44
0.0000000001
 40
0.0
 40
0.0
 40
0.0
 40
0.0
 40
0.2845255322
 40
1.0
 40
1.0
 40
1.0
 40
1.0
 10
10.1359052662
 20
8.4791249745
 30
0.0
 10
10.1359228424
 20
8.4806650178
 30
0.0
 10
10.1363082989
 20
8.4860343435
 30
0.0
 10
10.1383589238
 20
8.4915270663
 30
0.0
 10
10.1410281173
 20
8.4943332398
 30
0.0
  0
SPLINE
  5
764
100
AcDbEntity
  8
0
100
AcDbSpline
 62
6
  6
CONTINUOUS
 70
0
 71
3
 72
8
 73
4
 74
0
 42
0.0000001
 43
0.0000001
 44
0.0000000001
 40
0.0
 40
0.0
 40
0.0
 40
0.0
 40
1.0
 40
1.0
 40
1.0
 40
1.0
 10
10.1410281173
 20
8.4943332398
 30
0.0
 10
10.1419102292
 20
8.4952606206
 30
0.0
 10
10.1429316296
 20
8.4960742861
 30
0.0
 10
10.1440389494
 20
8.4967161577
 30
0.0
  0
SPLINE
  5
765
100
AcDbEntity
  8
0
100
AcDbSpline
 62
6
  6
CONTINUOUS
 70
0
 71
3
 72
11
 73
7
 74
0
 42
0.0000001
 43
0.0000001
 44
0.0000000001
 40
0.0
 40
0.0
 40
0.0
 40
0.0
 40
0.2368383733
 40
0.4990961717
 40
0.7618767885
 40
1.0
 40
1.0
 40
1.0
 40
1.0
 10
10.1637420797
 20
8.4626365022
 30
0.0
 10
10.1598249876
 20
8.4603749815
 30
0.0
 10
10.1524051525
 20
8.4541498676
 30
0.0
 10
10.1437180182
 20
8.4423456881
 30
0.0
 10
10.1377289722
 20
8.428941944
 30
0.0
 10
10.1359569476
 20
8.4193875959
 30
0.0
 10
10.135905731
 20
8.4148402853
 30
0.0
  0
SPLINE
  5
766
100
AcDbEntity
  8
0
100
AcDbSpline
 62
6
  6
CONTINUOUS
 70
0
 71
3
 72
8
 73
4
 74
0
 42
0.0000001
 43
0.0000001
 44
0.0000000001
 40
0.0
 40
0.0
 40
0.0
 40
0.0
 40
1.0
 40
1.0
 40
1.0
 40
1.0
 10
10.1141375477
 20
8.4553424643
 30
0.0
 10
10.1133598166
 20
8.4528972782
 30
0.0
 10
10.1129159613
 20
8.4503170959
 30
0.0
 10
10.1128581477
 20
8.4477518555
 30
0.0
  0
SPLINE
  5
767
100
AcDbEntity
  8
0
100
AcDbSpline
 62
6
  6
CONTINUOUS
 70
0
 71
3
 72
10
 73
6
 74
0
 42
0.0000001
 43
0.0000001
 44
0.0000000001
 40
0.0
 40
0.0
 40
0.0
 40
0.0
 40
0.2876799611
 40
0.5231698288
 40
1.0
 40
1.0
 40
1.0
 40
1.0
 10
10.7076240944
 20
8.8375786589
 30
0.0
 10
10.7065310075
 20
8.8373379022
 30
0.0
 10
10.7045591701
 20
8.8365581734
 30
0.0
 10
10.7019610864
 20
8.833503455
 30
0.0
 10
10.7015165273
 20
8.8305960661
 30
0.0
 10
10.7014742889
 20
8.8287413268
 30
0.0
  0
SPLINE
  5
768
100
AcDbEntity
  8
0
100
AcDbSpline
 62
6
  6
CONTINUOUS
 70
0
 71
3
 72
16
 73
12
 74
0
 42
0.0000001
 43
0.0000001
 44
0.0000000001
 40
0.0
 40
0.0
 40
0.0
 40
0.0
 40
0.3870211507
 40
0.5525233629
 40
0.6970858218
 40
0.8182843031
 40
0.9126948998
 40
0.948397829
 40
0.9754953408
 40
0.9930449748
 40
1.0
 40
1.0
 40
1.0
 40
1.0
 10
10.706602931
 20
8.8086154581
 30
0.0
 10
10.7047914231
 20
8.8092999926
 30
0.0
 10
10.7021935599
 20
8.8102473813
 30
0.0
 10
10.6988909354
 20
8.8113688928
 30
0.0
 10
10.6968374118
 20
8.8120339341
 30
0.0
 10
10.6951150371
 20
8.8125594178
 30
0.0
 10
10.6939043881
 20
8.8129120512
 30
0.0
 10
10.693146879
 20
8.8131058654
 30
0.0
 10
10.6927516289
 20
8.8132179825
 30
0.0
 10
10.6925092694
 20
8.8132440775
 30
0.0
 10
10.6923769017
 20
8.8132994758
 30
0.0
 10
10.6923467808
 20
8.8132820453
 30
0.0
  0
SPLINE
  5
769
100
AcDbEntity
  8
0
100
AcDbSpline
 62
6
  6
CONTINUOUS
 70
0
 71
3
 72
13
 73
9
 74
0
 42
0.0000001
 43
0.0000001
 44
0.0000000001
 40
0.0
 40
0.0
 40
0.0
 40
0.0
 40
0.2738783114
 40
0.3908003638
 40
0.5000014033
 40
0.6092016453
 40
0.7261227048
 40
1.0
 40
1.0
 40
1.0
 40
1.0
 10
10.1637425795
 20
8.4626362137
 30
0.0
 10
10.1604861398
 20
8.4645157655
 30
0.0
 10
10.1560911738
 20
8.4679752266
 30
0.0
 10
10.1527642152
 20
8.4740847856
 30
0.0
 10
10.1519475295
 20
8.4787076356
 30
0.0
 10
10.152764146
 20
8.4833304956
 30
0.0
 10
10.1560910643
 20
8.4894399985
 30
0.0
 10
10.1604858133
 20
8.4928997546
 30
0.0
 10
10.1637423477
 20
8.4947791143
 30
0.0
  0
SPLINE
  5
76A
100
AcDbEntity
  8
0
100
AcDbSpline
 62
6
  6
CONTINUOUS
 70
0
 71
3
 72
11
 73
7
 74
0
 42
0.0000001
 43
0.0000001
 44
0.0000000001
 40
0.0
 40
0.0
 40
0.0
 40
0.0
 40
0.2113772808
 40
0.4689511058
 40
0.7451308008
 40
1.0
 40
1.0
 40
1.0
 40
1.0
 10
12.5953003139
 20
9.0641936102
 30
0.0
 10
12.5941164474
 20
9.0625450638
 30
0.0
 10
12.5920017114
 20
9.0585289753
 30
0.0
 10
12.5895999034
 20
9.0517758551
 30
0.0
 10
12.5879214488
 20
9.044375896
 30
0.0
 10
12.5873930012
 20
9.0392810913
 30
0.0
 10
12.5873778635
 20
9.0368339472
 30
0.0
  0
SPLINE
  5
76B
100
AcDbEntity
  8
0
100
AcDbSpline
 62
6
  6
CONTINUOUS
 70
0
 71
3
 72
9
 73
5
 74
0
 42
0.0000001
 43
0.0000001
 44
0.0000000001
 40
0.0
 40
0.0
 40
0.0
 40
0.0
 40
0.5088731383
 40
1.0
 40
1.0
 40
1.0
 40
1.0
 10
10.9291892736
 20
9.9941679181
 30
0.0
 10
10.9287252683
 20
9.9990131697
 30
0.0
 10
10.9309301572
 20
10.0087764931
 30
0.0
 10
10.9372074793
 20
10.0167736725
 30
0.0
 10
10.9412749133
 20
10.019124017
 30
0.0
  0
SPLINE
  5
76C
100
AcDbEntity
  8
0
100
AcDbSpline
 62
6
  6
CONTINUOUS
 70
0
 71
3
 72
14
 73
10
 74
0
 42
0.0000001
 43
0.0000001
 44
0.0000000001
 40
0.0
 40
0.0
 40
0.0
 40
0.0
 40
0.0907773754
 40
0.1880520132
 40
0.2961322898
 40
0.4169543021
 40
0.5501924576
 40
0.6939125562
 40
1.0
 40
1.0
 40
1.0
 40
1.0
 10
12.7476331277
 20
8.9762462088
 30
0.0
 10
12.7476262096
 20
8.9820450521
 30
0.0
 10
12.7454678566
 20
8.9941349045
 30
0.0
 10
12.736296916
 20
9.0109735361
 30
0.0
 10
12.7218001157
 20
9.0262032993
 30
0.0
 10
12.7026426993
 20
9.0393998219
 30
0.0
 10
12.679513885
 20
9.0501677642
 30
0.0
 10
12.6438065786
 20
9.061044117
 30
0.0
 10
12.6148884153
 20
9.0641674436
 30
0.0
 10
12.5953355888
 20
9.0641750369
 30
0.0
  0
SPLINE
  5
76D
100
AcDbEntity
  8
0
100
AcDbSpline
 62
6
  6
CONTINUOUS
 70
0
 71
3
 72
12
 73
8
 74
0
 42
0.0000001
 43
0.0000001
 44
0.0000000001
 40
0.0
 40
0.0
 40
0.0
 40
0.0
 40
0.3055056485
 40
0.5740081026
 40
0.8011698941
 40
0.902772651
 40
1.0
 40
1.0
 40
1.0
 40
1.0
 10
12.5566309279
 20
7.4915968806
 30
0.0
 10
12.5470062579
 20
7.4894785231
 30
0.0
 10
12.5292011616
 20
7.4838703968
 30
0.0
 10
12.5066520157
 20
7.4707608968
 30
0.0
 10
12.4933403704
 20
7.4561286893
 30
0.0
 10
12.4879527362
 20
7.4433562145
 30
0.0
 10
12.4869882533
 20
7.4369301047
 30
0.0
 10
12.4869370651
 20
7.4337941519
 30
0.0
  0
SPLINE
  5
76E
100
AcDbEntity
  8
0
100
AcDbSpline
 62
6
  6
CONTINUOUS
 70
0
 71
3
 72
11
 73
7
 74
0
 42
0.0000001
 43
0.0000001
 44
0.0000000001
 40
0.0
 40
0.0
 40
0.0
 40
0.0
 40
0.2372519757
 40
0.4999996452
 40
0.7627474912
 40
1.0
 40
1.0
 40
1.0
 40
1.0
 10
13.7087587633
 20
6.1989750544
 30
0.0
 10
13.7048067612
 20
6.1966927615
 30
0.0
 10
13.695616096
 20
6.1933628743
 30
0.0
 10
13.6809217971
 20
6.1917701825
 30
0.0
 10
13.6662274825
 20
6.1933628121
 30
0.0
 10
13.6570367854
 20
6.1966926481
 30
0.0
 10
13.6530847598
 20
6.1989749206
 30
0.0
  0
SPLINE
  5
76F
100
AcDbEntity
  8
0
100
AcDbSpline
 62
6
  6
CONTINUOUS
 70
0
 71
3
 72
12
 73
8
 74
0
 42
0.0000001
 43
0.0000001
 44
0.0000000001
 40
0.0
 40
0.0
 40
0.0
 40
0.0
 40
0.2603632885
 40
0.4584287436
 40
0.6508622642
 40
0.8320747574
 40
1.0
 40
1.0
 40
1.0
 40
1.0
 10
12.5566309279
 20
7.4915968806
 30
0.0
 10
12.5592595789
 20
7.4921754379
 30
0.0
 10
12.5637761792
 20
7.4937634241
 30
0.0
 10
12.5696353872
 20
7.4971217122
 30
0.0
 10
12.5741716686
 20
7.5009785108
 30
0.0
 10
12.5774754989
 20
7.5055929753
 30
0.0
 10
12.5784068837
 20
7.5092169277
 30
0.0
 10
12.5784164642
 20
7.5109528683
 30
0.0
  0
LINE
  5
770
100
AcDbEntity
  8
0
100
AcDbLine
 62
6
  6
CONTINUOUS
 10
12.5784164642
 20
7.5109528683
 11
12.5873778635
 21
9.0368339472
  0
SPLINE
  5
771
100
AcDbEntity
  8
0
100
AcDbSpline
 62
6
  6
CONTINUOUS
 70
0
 71
3
 72
10
 73
6
 74
0
 42
0.0000001
 43
0.0000001
 44
0.0000000001
 40
0.0
 40
0.0
 40
0.0
 40
0.0
 40
0.5189144059
 40
0.7708311418
 40
1.0
 40
1.0
 40
1.0
 40
1.0
 10
12.5566309279
 20
7.4915968806
 30
0.0
 10
12.5765732843
 20
7.4959861262
 30
0.0
 10
12.6076510473
 20
7.4972440226
 30
0.0
 10
12.6462904927
 20
7.4892474448
 30
0.0
 10
12.6639444095
 20
7.481898236
 30
0.0
 10
12.6717542426
 20
7.4773893288
 30
0.0
  0
SPLINE
  5
772
100
AcDbEntity
  8
0
100
AcDbSpline
 62
6
  6
CONTINUOUS
 70
0
 71
3
 72
9
 73
5
 74
0
 42
0.0000001
 43
0.0000001
 44
0.0000000001
 40
0.0
 40
0.0
 40
0.0
 40
0.0
 40
0.5404896654
 40
1.0
 40
1.0
 40
1.0
 40
1.0
 10
12.6717542426
 20
7.4773893288
 30
0.0
 10
12.678525517
 20
7.4734800201
 30
0.0
 10
12.6903572492
 20
7.4648218274
 30
0.0
 10
12.6987653001
 20
7.4524902041
 30
0.0
 10
12.7010733999
 20
7.4462564846
 30
0.0
  0
SPLINE
  5
773
100
AcDbEntity
  8
0
100
AcDbSpline
 62
6
  6
CONTINUOUS
 70
0
 71
3
 72
8
 73
4
 74
0
 42
0.0000001
 43
0.0000001
 44
0.0000000001
 40
0.0
 40
0.0
 40
0.0
 40
0.0
 40
1.0
 40
1.0
 40
1.0
 40
1.0
 10
12.7010733999
 20
7.4462564846
 30
0.0
 10
12.7018965972
 20
7.4440331921
 30
0.0
 10
12.7025270841
 20
7.441727037
 30
0.0
 10
12.7029304217
 20
7.4393908002
 30
0.0
  0
SPLINE
  5
774
100
AcDbEntity
  8
0
100
AcDbSpline
 62
6
  6
CONTINUOUS
 70
0
 71
3
 72
9
 73
5
 74
0
 42
0.0000001
 43
0.0000001
 44
0.0000000001
 40
0.0
 40
0.0
 40
0.0
 40
0.0
 40
0.4745641255
 40
1.0
 40
1.0
 40
1.0
 40
1.0
 10
12.6890670046
 20
9.014518996
 30
0.0
 10
12.6746746866
 20
9.0228282167
 30
0.0
 10
12.6410024151
 20
9.0345443529
 30
0.0
 10
12.605767392
 20
9.0374604417
 30
0.0
 10
12.5873778635
 20
9.0368339472
 30
0.0
  0
SPLINE
  5
775
100
AcDbEntity
  8
0
100
AcDbSpline
 62
6
  6
CONTINUOUS
 70
0
 71
3
 72
11
 73
7
 74
0
 42
0.0000001
 43
0.0000001
 44
0.0000000001
 40
0.0
 40
0.0
 40
0.0
 40
0.0
 40
0.2322902809
 40
0.4892345174
 40
0.7519345933
 40
1.0
 40
1.0
 40
1.0
 40
1.0
 10
12.3581972578
 20
7.7155836826
 30
0.0
 10
12.3616805655
 20
7.7135718124
 30
0.0
 10
12.3683420733
 20
7.7081483197
 30
0.0
 10
12.3763995244
 20
7.6978121052
 30
0.0
 10
12.3823713014
 20
7.685841592
 30
0.0
 10
12.3846372204
 20
7.6771945019
 30
0.0
 10
12.3851615638
 20
7.6729308771
 30
0.0
  0
SPLINE
  5
776
100
AcDbEntity
  8
0
100
AcDbSpline
 62
6
  6
CONTINUOUS
 70
0
 71
3
 72
11
 73
7
 74
0
 42
0.0000001
 43
0.0000001
 44
0.0000000001
 40
0.0
 40
0.0
 40
0.0
 40
0.0
 40
0.2324470096
 40
0.4895255438
 40
0.7521967982
 40
1.0
 40
1.0
 40
1.0
 40
1.0
 10
12.3721168922
 20
7.7394809449
 30
0.0
 10
12.3773452085
 20
7.7364634966
 30
0.0
 10
12.3873458632
 20
7.72833389
 30
0.0
 10
12.3994740905
 20
7.7128627115
 30
0.0
 10
12.4085040597
 20
7.6949544203
 30
0.0
 10
12.4119670334
 20
7.6820127864
 30
0.0
 10
12.4127881371
 20
7.6756300099
 30
0.0
  0
SPLINE
  5
777
100
AcDbEntity
  8
0
100
AcDbSpline
 62
6
  6
CONTINUOUS
 70
0
 71
3
 72
9
 73
5
 74
0
 42
0.0000001
 43
0.0000001
 44
0.0000000001
 40
0.0
 40
0.0
 40
0.0
 40
0.0
 40
0.4990119389
 40
1.0
 40
1.0
 40
1.0
 40
1.0
 10
12.358197255
 20
7.715583681
 30
0.0
 10
12.362291426
 20
7.7179474376
 30
0.0
 10
12.368788712
 20
7.7254093315
 30
0.0
 10
12.3720619755
 20
7.7347358347
 30
0.0
 10
12.3721154294
 20
7.7394817895
 30
0.0
  0
SPLINE
  5
778
100
AcDbEntity
  8
0
100
AcDbSpline
 62
6
  6
CONTINUOUS
 70
0
 71
3
 72
11
 73
7
 74
0
 42
0.0000001
 43
0.0000001
 44
0.0000000001
 40
0.0
 40
0.0
 40
0.0
 40
0.0
 40
0.24217789
 40
0.510307892
 40
0.7729207807
 40
1.0
 40
1.0
 40
1.0
 40
1.0
 10
11.8143760638
 20
7.3433906286
 30
0.0
 10
11.8103736743
 20
7.3411487301
 30
0.0
 10
11.8012681203
 20
7.3376226952
 30
0.0
 10
11.7868094645
 20
7.3349245036
 30
0.0
 10
11.7723930553
 20
7.3347453599
 30
0.0
 10
11.7631560706
 20
7.3364873746
 30
0.0
 10
11.7591238875
 20
7.337985502
 30
0.0
  0
SPLINE
  5
779
100
AcDbEntity
  8
0
100
AcDbSpline
 62
6
  6
CONTINUOUS
 70
0
 71
3
 72
11
 73
7
 74
0
 42
0.0000001
 43
0.0000001
 44
0.0000000001
 40
0.0
 40
0.0
 40
0.0
 40
0.0
 40
0.2380562252
 40
0.5008225134
 40
0.7631421042
 40
1.0
 40
1.0
 40
1.0
 40
1.0
 10
11.7591238
 20
7.3379856426
 30
0.0
 10
11.759175015
 20
7.3425316627
 30
0.0
 10
11.760946444
 20
7.3520844079
 30
0.0
 10
11.7669343225
 20
7.3654882388
 30
0.0
 10
11.7756219062
 20
7.377293699
 30
0.0
 10
11.7830427396
 20
7.3835200549
 30
0.0
 10
11.7869601475
 20
7.3857817519
 30
0.0
  0
SPLINE
  5
77A
100
AcDbEntity
  8
0
100
AcDbSpline
 62
6
  6
CONTINUOUS
 70
0
 71
3
 72
10
 73
6
 74
0
 42
0.0000001
 43
0.0000001
 44
0.0000000001
 40
0.0
 40
0.0
 40
0.0
 40
0.0
 40
0.2333678206
 40
0.4915260384
 40
1.0
 40
1.0
 40
1.0
 40
1.0
 10
11.7869601957
 20
7.3857817797
 30
0.0
 10
11.7904476795
 20
7.3837683255
 30
0.0
 10
11.7971365567
 20
7.3783539502
 30
0.0
 10
11.8078792412
 20
7.3648025367
 30
0.0
 10
11.8131567966
 20
7.352078811
 30
0.0
 10
11.8143762248
 20
7.3433897751
 30
0.0
  0
SPLINE
  5
77B
100
AcDbEntity
  8
0
100
AcDbSpline
 62
6
  6
CONTINUOUS
 70
0
 71
3
 72
11
 73
7
 74
0
 42
0.0000001
 43
0.0000001
 44
0.0000000001
 40
0.0
 40
0.0
 40
0.0
 40
0.0
 40
0.232290278
 40
0.4892345148
 40
0.7519345913
 40
1.0
 40
1.0
 40
1.0
 40
1.0
 10
11.6778050323
 20
8.2481099935
 30
0.0
 10
11.6812883399
 20
8.2460981231
 30
0.0
 10
11.6879498475
 20
8.2406746303
 30
0.0
 10
11.6960072986
 20
8.2303384159
 30
0.0
 10
11.701979076
 20
8.2183679029
 30
0.0
 10
11.7042449948
 20
8.2097208127
 30
0.0
 10
11.7047693381
 20
8.2054571878
 30
0.0
  0
SPLINE
  5
77C
100
AcDbEntity
  8
0
100
AcDbSpline
 62
6
  6
CONTINUOUS
 70
0
 71
3
 72
9
 73
5
 74
0
 42
0.0000001
 43
0.0000001
 44
0.0000000001
 40
0.0
 40
0.0
 40
0.0
 40
0.0
 40
0.4752768966
 40
1.0
 40
1.0
 40
1.0
 40
1.0
 10
11.6917246667
 20
8.2720072558
 30
0.0
 10
11.6966043112
 20
8.2691910384
 30
0.0
 10
11.7059891576
 20
8.2617177583
 30
0.0
 10
11.7135409531
 20
8.2524777511
 30
0.0
 10
11.7170173358
 20
8.2473197475
 30
0.0
  0
SPLINE
  5
77D
100
AcDbEntity
  8
0
100
AcDbSpline
 62
6
  6
CONTINUOUS
 70
0
 71
3
 72
9
 73
5
 74
0
 42
0.0000001
 43
0.0000001
 44
0.0000000001
 40
0.0
 40
0.0
 40
0.0
 40
0.0
 40
0.2518603347
 40
1.0
 40
1.0
 40
1.0
 40
1.0
 10
11.7170173358
 20
8.2473197475
 30
0.0
 10
11.7182847807
 20
8.245439205
 30
0.0
 10
11.7230604686
 20
8.2378038968
 30
0.0
 10
11.7268249292
 20
8.2295274404
 30
0.0
 10
11.7289320931
 20
8.2231291305
 30
0.0
  0
SPLINE
  5
77E
100
AcDbEntity
  8
0
100
AcDbSpline
 62
6
  6
CONTINUOUS
 70
0
 71
3
 72
9
 73
5
 74
0
 42
0.0000001
 43
0.0000001
 44
0.0000000001
 40
0.0
 40
0.0
 40
0.0
 40
0.0
 40
0.2580196843
 40
1.0
 40
1.0
 40
1.0
 40
1.0
 10
11.7289320931
 20
8.2231291305
 30
0.0
 10
11.7293458876
 20
8.221872662
 30
0.0
 10
11.7308422019
 20
8.2169689751
 30
0.0
 10
11.7319105391
 20
8.2119293202
 30
0.0
 10
11.7323959116
 20
8.2081563206
 30
0.0
  0
SPLINE
  5
77F
100
AcDbEntity
  8
0
100
AcDbSpline
 62
6
  6
CONTINUOUS
 70
0
 71
3
 72
11
 73
7
 74
0
 42
0.0000001
 43
0.0000001
 44
0.0000000001
 40
0.0
 40
0.0
 40
0.0
 40
0.0
 40
0.2270103031
 40
0.4895467147
 40
0.7577650594
 40
1.0
 40
1.0
 40
1.0
 40
1.0
 10
11.7323955257
 20
8.2081593093
 30
0.0
 10
11.730380067
 20
8.2089082068
 30
0.0
 10
11.7257630133
 20
8.2097789411
 30
0.0
 10
11.7185552668
 20
8.2096910802
 30
0.0
 10
11.7113254964
 20
8.2083408036
 30
0.0
 10
11.7067710043
 20
8.2065784176
 30
0.0
 10
11.7047693368
 20
8.2054572032
 30
0.0
  0
SPLINE
  5
780
100
AcDbEntity
  8
0
100
AcDbSpline
 62
6
  6
CONTINUOUS
 70
0
 71
3
 72
9
 73
5
 74
0
 42
0.0000001
 43
0.0000001
 44
0.0000000001
 40
0.0
 40
0.0
 40
0.0
 40
0.0
 40
0.4990119389
 40
1.0
 40
1.0
 40
1.0
 40
1.0
 10
11.6778050295
 20
8.2481099918
 30
0.0
 10
11.6818992005
 20
8.2504737485
 30
0.0
 10
11.6883964864
 20
8.2579356423
 30
0.0
 10
11.6916697499
 20
8.2672621456
 30
0.0
 10
11.6917232038
 20
8.2720081003
 30
0.0
  0
SPLINE
  5
781
100
AcDbEntity
  8
0
100
AcDbSpline
 62
6
  6
CONTINUOUS
 70
0
 71
3
 72
9
 73
5
 74
0
 42
0.0000001
 43
0.0000001
 44
0.0000000001
 40
0.0
 40
0.0
 40
0.0
 40
0.0
 40
0.5245089508
 40
1.0
 40
1.0
 40
1.0
 40
1.0
 10
14.8245532572
 20
6.9112325919
 30
0.0
 10
14.8280615415
 20
6.9062462529
 30
0.0
 10
14.8335059419
 20
6.8958249482
 30
0.0
 10
14.8359735827
 20
6.8842084458
 30
0.0
 10
14.8359735827
 20
6.8786813718
 30
0.0
  0
SPLINE
  5
782
100
AcDbEntity
  8
0
100
AcDbSpline
 62
6
  6
CONTINUOUS
 70
0
 71
3
 72
11
 73
7
 74
0
 42
0.0000001
 43
0.0000001
 44
0.0000000001
 40
0.0
 40
0.0
 40
0.0
 40
0.0
 40
0.2043497846
 40
0.4327137436
 40
0.698191294
 40
1.0
 40
1.0
 40
1.0
 40
1.0
 10
14.9349531136
 20
6.5750299009
 30
0.0
 10
14.934953142
 20
6.576036065
 30
0.0
 10
14.9344330609
 20
6.5781864212
 30
0.0
 10
14.9323131073
 20
6.580978999
 30
0.0
 10
14.9291056744
 20
6.583297379
 30
0.0
 10
14.9265211829
 20
6.5844100603
 30
0.0
 10
14.9251114116
 20
6.5848799729
 30
0.0
  0
SPLINE
  5
783
100
AcDbEntity
  8
0
100
AcDbSpline
 62
6
  6
CONTINUOUS
 70
0
 71
3
 72
8
 73
4
 74
0
 42
0.0000001
 43
0.0000001
 44
0.0000000001
 40
0.0
 40
0.0
 40
0.0
 40
0.0
 40
1.0
 40
1.0
 40
1.0
 40
1.0
 10
14.9349404205
 20
6.9572822359
 30
0.0
 10
14.9349018262
 20
6.9488015611
 30
0.0
 10
14.9326841639
 20
6.9402254671
 30
0.0
 10
14.9291884456
 20
6.9324986768
 30
0.0
  0
SPLINE
  5
784
100
AcDbEntity
  8
0
100
AcDbSpline
 62
6
  6
CONTINUOUS
 70
0
 71
3
 72
10
 73
6
 74
0
 42
0.0000001
 43
0.0000001
 44
0.0000000001
 40
0.0
 40
0.0
 40
0.0
 40
0.0
 40
0.2183657361
 40
0.4522037969
 40
1.0
 40
1.0
 40
1.0
 40
1.0
 10
10.1440577828
 20
8.4967270539
 30
0.0
 10
10.145355898
 20
8.497476667
 30
0.0
 10
10.148339024
 20
8.4985630162
 30
0.0
 10
10.1552893283
 20
8.4987348663
 30
0.0
 10
10.1604851942
 20
8.4966590112
 30
0.0
 10
10.1637418462
 20
8.4947788248
 30
0.0
  0
SPLINE
  5
785
100
AcDbEntity
  8
0
100
AcDbSpline
 62
6
  6
CONTINUOUS
 70
0
 71
3
 72
11
 73
7
 74
0
 42
0.0000001
 43
0.0000001
 44
0.0000000001
 40
0.0
 40
0.0
 40
0.0
 40
0.0
 40
0.2174160222
 40
0.4502273159
 40
0.7098659744
 40
1.0
 40
1.0
 40
1.0
 40
1.0
 10
10.1128580201
 20
8.4477461642
 30
0.0
 10
10.1127900711
 20
8.4447020683
 30
0.0
 10
10.1137843661
 20
8.4383276092
 30
0.0
 10
10.118489506
 20
8.4294081676
 30
0.0
 10
10.1260454151
 20
8.4213322485
 30
0.0
 10
10.1323984869
 20
8.416891934
 30
0.0
 10
10.135905729
 20
8.414840286
 30
0.0
  0
LINE
  5
786
100
AcDbEntity
  8
0
100
AcDbLine
 62
6
  6
CONTINUOUS
 10
10.7014739873
 20
8.8287278774
 11
10.7017769813
 21
8.8244089661
  0
SPLINE
  5
787
100
AcDbEntity
  8
0
100
AcDbSpline
 62
6
  6
CONTINUOUS
 70
0
 71
3
 72
9
 73
5
 74
0
 42
0.0000001
 43
0.0000001
 44
0.0000000001
 40
0.0
 40
0.0
 40
0.0
 40
0.0
 40
0.2373732738
 40
1.0
 40
1.0
 40
1.0
 40
1.0
 10
10.7017769813
 20
8.8244089661
 30
0.0
 10
10.7018625358
 20
8.8238261497
 30
0.0
 10
10.7022853561
 20
8.8213800157
 30
0.0
 10
10.7029187864
 20
8.8189739217
 30
0.0
 10
10.7034719706
 20
8.8171640496
 30
0.0
  0
LINE
  5
788
100
AcDbEntity
  8
0
100
AcDbLine
 62
6
  6
CONTINUOUS
 10
10.7043943779
 20
8.81434955
 11
10.7066028854
 21
8.8086154732
  0
LINE
  5
789
100
AcDbEntity
  8
0
100
AcDbLine
 62
6
  6
CONTINUOUS
 10
10.6923467112
 20
8.8132820043
 11
10.6981751671
 21
8.8119513056
  0
SPLINE
  5
78A
100
AcDbEntity
  8
0
100
AcDbSpline
 62
6
  6
CONTINUOUS
 70
0
 71
3
 72
11
 73
7
 74
0
 42
0.0000001
 43
0.0000001
 44
0.0000000001
 40
0.0
 40
0.0
 40
0.0
 40
0.0
 40
0.2178713251
 40
0.450765055
 40
0.7099298343
 40
1.0
 40
1.0
 40
1.0
 40
1.0
 10
12.7279430844
 20
8.9596144343
 30
0.0
 10
12.728023627
 20
8.9647231904
 30
0.0
 10
12.7262911981
 20
8.9753985433
 30
0.0
 10
12.7183381855
 20
8.9902946049
 30
0.0
 10
12.70563376
 20
9.0037559928
 30
0.0
 10
12.6949582242
 20
9.0111177758
 30
0.0
 10
12.6890670046
 20
9.014518996
 30
0.0
  0
SPLINE
  5
78B
100
AcDbEntity
  8
0
100
AcDbSpline
 62
6
  6
CONTINUOUS
 70
0
 71
3
 72
9
 73
5
 74
0
 42
0.0000001
 43
0.0000001
 44
0.0000000001
 40
0.0
 40
0.0
 40
0.0
 40
0.0
 40
0.2415630944
 40
1.0
 40
1.0
 40
1.0
 40
1.0
 10
12.7277876071
 20
8.9569434803
 30
0.0
 10
12.7278311853
 20
8.9573646671
 30
0.0
 10
12.7280921519
 20
8.9590995884
 30
0.0
 10
12.7286543363
 20
8.9607841035
 30
0.0
 10
12.729207396
 20
8.9619930675
 30
0.0
  0
SPLINE
  5
78C
100
AcDbEntity
  8
0
100
AcDbSpline
 62
6
  6
CONTINUOUS
 70
0
 71
3
 72
9
 73
5
 74
0
 42
0.0000001
 43
0.0000001
 44
0.0000000001
 40
0.0
 40
0.0
 40
0.0
 40
0.0
 40
0.2447834102
 40
1.0
 40
1.0
 40
1.0
 40
1.0
 10
12.729207396
 20
8.9619930675
 30
0.0
 10
12.7300131213
 20
8.9637543473
 30
0.0
 10
12.7344060696
 20
8.9704191528
 30
0.0
 10
12.741820691
 20
8.9748556874
 30
0.0
 10
12.7476320944
 20
8.9762468053
 30
0.0
  0
SPLINE
  5
78D
100
AcDbEntity
  8
0
100
AcDbSpline
 62
7
  6
CONTINUOUS
 70
0
 71
3
 72
8
 73
4
 74
0
 42
0.0000001
 43
0.0000001
 44
0.0000000001
 40
0.0
 40
0.0
 40
0.0
 40
0.0
 40
1.0
 40
1.0
 40
1.0
 40
1.0
 10
2.0556166507
 20
2.7693030263
 30
0.0
 10
2.0581561858
 20
2.7681410043
 30
0.0
 10
2.0610102367
 20
2.7675199203
 30
0.0
 10
2.0638030012
 20
2.7675199204
 30
0.0
  0
SPLINE
  5
78E
100
AcDbEntity
  8
0
100
AcDbSpline
 62
7
  6
CONTINUOUS
 70
0
 71
3
 72
8
 73
4
 74
0
 42
0.0000001
 43
0.0000001
 44
0.0000000001
 40
0.0
 40
0.0
 40
0.0
 40
0.0
 40
1.0
 40
1.0
 40
1.0
 40
1.0
 10
3.0149686035
 20
2.6364503598
 30
0.0
 10
3.0171310834
 20
2.6356547059
 30
0.0
 10
3.0194696043
 20
2.6352364558
 30
0.0
 10
3.0217738144
 20
2.6352364558
 30
0.0
  0
LINE
  5
78F
100
AcDbEntity
  8
0
100
AcDbLine
 62
7
  6
CONTINUOUS
 10
5.7669816485
 20
3.5216169771
 11
5.7635534041
 21
3.5024904282
  0
SPLINE
  5
790
100
AcDbEntity
  8
0
100
AcDbSpline
 62
7
  6
CONTINUOUS
 70
0
 71
3
 72
11
 73
7
 74
0
 42
0.0000001
 43
0.0000001
 44
0.0000000001
 40
0.0
 40
0.0
 40
0.0
 40
0.0
 40
0.2499584644
 40
0.5000012503
 40
0.7500383792
 40
1.0
 40
1.0
 40
1.0
 40
1.0
 10
3.4329413748
 20
4.6447215631
 30
0.0
 10
3.4342195845
 20
4.6446749895
 30
0.0
 10
3.4367934212
 20
4.644191826
 30
0.0
 10
3.4401024248
 20
4.6420401417
 30
0.0
 10
3.4422540851
 20
4.6387310513
 30
0.0
 10
3.4427370882
 20
4.6361572608
 30
0.0
 10
3.4427838945
 20
4.6348790434
 30
0.0
  0
SPLINE
  5
791
100
AcDbEntity
  8
0
100
AcDbSpline
 62
7
  6
CONTINUOUS
 70
0
 71
3
 72
11
 73
7
 74
0
 42
0.0000001
 43
0.0000001
 44
0.0000000001
 40
0.0
 40
0.0
 40
0.0
 40
0.0
 40
0.250014943
 40
0.5000002143
 40
0.7499852626
 40
1.0
 40
1.0
 40
1.0
 40
1.0
 10
3.5707366504
 20
4.4675562088
 30
0.0
 10
3.570668614
 20
4.4752373107
 30
0.0
 10
3.5677086204
 20
4.4907759657
 30
0.0
 10
3.5545008772
 20
4.510375591
 30
0.0
 10
3.5349012697
 20
4.5235832107
 30
0.0
 10
3.5193626293
 20
4.5265434432
 30
0.0
 10
3.5116815323
 20
4.5266113269
 30
0.0
  0
SPLINE
  5
792
100
AcDbEntity
  8
0
100
AcDbSpline
 62
7
  6
CONTINUOUS
 70
0
 71
3
 72
11
 73
7
 74
0
 42
0.0000001
 43
0.0000001
 44
0.0000000001
 40
0.0
 40
0.0
 40
0.0
 40
0.0
 40
0.2500223808
 40
0.5000304812
 40
0.7500139859
 40
1.0
 40
1.0
 40
1.0
 40
1.0
 10
3.5707366504
 20
3.9478711694
 30
0.0
 10
3.5707965085
 20
3.9540138078
 30
0.0
 10
3.5726578714
 20
3.9663853068
 30
0.0
 10
3.5811787368
 20
3.9830727831
 30
0.0
 10
3.5943729337
 20
3.9963435318
 30
0.0
 10
3.6055183033
 20
4.0020559733
 30
0.0
 10
3.6113533766
 20
4.0039734016
 30
0.0
  0
SPLINE
  5
793
100
AcDbEntity
  8
0
100
AcDbSpline
 62
7
  6
CONTINUOUS
 70
0
 71
3
 72
10
 73
6
 74
0
 42
0.0000001
 43
0.0000001
 44
0.0000000001
 40
0.0
 40
0.0
 40
0.0
 40
0.0
 40
0.4982496142
 40
0.7491894987
 40
1.0
 40
1.0
 40
1.0
 40
1.0
 10
3.6641701835
 20
3.9958874633
 30
0.0
 10
3.6716962943
 20
3.9904972643
 30
0.0
 10
3.6812527104
 20
3.97944433
 30
0.0
 10
3.6877123398
 20
3.9618915773
 30
0.0
 10
3.6888081997
 20
3.9525309509
 30
0.0
 10
3.6888468866
 20
3.9478711694
 30
0.0
  0
SPLINE
  5
794
100
AcDbEntity
  8
0
100
AcDbSpline
 62
7
  6
CONTINUOUS
 70
0
 71
3
 72
9
 73
5
 74
0
 42
0.0000001
 43
0.0000001
 44
0.0000000001
 40
0.0
 40
0.0
 40
0.0
 40
0.0
 40
0.5001321053
 40
1.0
 40
1.0
 40
1.0
 40
1.0
 10
4.0009793679
 20
1.8360238573
 30
0.0
 10
4.003455367
 20
1.8359781728
 30
0.0
 10
4.0084525197
 20
1.8350885358
 30
0.0
 10
4.0127319157
 20
1.8323167396
 30
0.0
 10
4.0145271679
 20
1.830612847
 30
0.0
  0
SPLINE
  5
795
100
AcDbEntity
  8
0
100
AcDbSpline
 62
7
  6
CONTINUOUS
 70
0
 71
3
 72
8
 73
4
 74
0
 42
0.0000001
 43
0.0000001
 44
0.0000000001
 40
0.0
 40
0.0
 40
0.0
 40
0.0
 40
1.0
 40
1.0
 40
1.0
 40
1.0
 10
4.0145271679
 20
1.830612847
 30
0.0
 10
4.0163089935
 20
1.8289216978
 30
0.0
 10
4.0178043162
 20
1.8268612768
 30
0.0
 10
4.0188279863
 20
1.8246281205
 30
0.0
  0
SPLINE
  5
796
100
AcDbEntity
  8
0
100
AcDbSpline
 62
7
  6
CONTINUOUS
 70
0
 71
3
 72
8
 73
4
 74
0
 42
0.0000001
 43
0.0000001
 44
0.0000000001
 40
0.0
 40
0.0
 40
0.0
 40
0.0
 40
1.0
 40
1.0
 40
1.0
 40
1.0
 10
4.0188279863
 20
1.8246281205
 30
0.0
 10
4.0198678919
 20
1.8223595463
 30
0.0
 10
4.0204563554
 20
1.8198511641
 30
0.0
 10
4.0206306358
 20
1.8173616945
 30
0.0
  0
SPLINE
  5
797
100
AcDbEntity
  8
0
100
AcDbSpline
 62
7
  6
CONTINUOUS
 70
0
 71
3
 72
17
 73
13
 74
0
 42
0.0000001
 43
0.0000001
 44
0.0000000001
 40
0.0
 40
0.0
 40
0.0
 40
0.0
 40
0.3825696904
 40
0.5554716286
 40
0.7068949514
 40
0.8311474496
 40
0.8816308174
 40
0.9236320601
 40
0.9566720675
 40
0.9805136625
 40
0.9949879648
 40
1.0
 40
1.0
 40
1.0
 40
1.0
 10
3.5177317129
 20
4.486145495
 30
0.0
 10
3.5202422072
 20
4.4861783535
 30
0.0
 10
3.5238873152
 20
4.4862173357
 30
0.0
 10
3.5285267167
 20
4.4862465927
 30
0.0
 10
3.5314698805
 20
4.486254011
 30
0.0
 10
3.5336122043
 20
4.486250517
 30
0.0
 10
3.5350316672
 20
4.4862370687
 30
0.0
 10
3.5358616383
 20
4.4862291624
 30
0.0
 10
3.5364940088
 20
4.4862055453
 30
0.0
 10
3.5369997049
 20
4.4862099494
 30
0.0
 10
3.5372163963
 20
4.4861546593
 30
0.0
 10
3.5374146352
 20
4.4861783849
 30
0.0
 10
3.5374150658
 20
4.486145495
 30
0.0
  0
SPLINE
  5
798
100
AcDbEntity
  8
0
100
AcDbSpline
 62
7
  6
CONTINUOUS
 70
0
 71
3
 72
17
 73
13
 74
0
 42
0.0000001
 43
0.0000001
 44
0.0000000001
 40
0.0
 40
0.0
 40
0.0
 40
0.0
 40
0.38225056
 40
0.5551072608
 40
0.7065426634
 40
0.8308505199
 40
0.8813738537
 40
0.9234214753
 40
0.9565121945
 40
0.9804071391
 40
0.9949363388
 40
1.0
 40
1.0
 40
1.0
 40
1.0
 10
5.779511139
 20
3.4796879387
 30
0.0
 10
5.7819876619
 20
3.4792513357
 30
0.0
 10
5.7855824819
 20
3.4786088209
 30
0.0
 10
5.7901548334
 20
3.4777712045
 30
0.0
 10
5.7930550448
 20
3.4772287184
 30
0.0
 10
5.7951649553
 20
3.4768251898
 30
0.0
 10
5.7965615354
 20
3.4765468263
 30
0.0
 10
5.7973781253
 20
3.4763842045
 30
0.0
 10
5.7979982779
 20
3.4762425366
 30
0.0
 10
5.798496607
 20
3.4761533704
 30
0.0
 10
5.7987035612
 20
3.4760569435
 30
0.0
 10
5.7989013664
 20
3.476045195
 30
0.0
 10
5.7988971417
 20
3.4760121517
 30
0.0
  0
LINE
  5
799
100
AcDbEntity
  8
0
100
AcDbLine
 62
7
  6
CONTINUOUS
 10
5.6417268992
 20
2.633152005
 11
5.6480473059
 21
2.6515369815
  0
SPLINE
  5
79A
100
AcDbEntity
  8
0
100
AcDbSpline
 62
7
  6
CONTINUOUS
 70
0
 71
3
 72
8
 73
4
 74
0
 42
0.0000001
 43
0.0000001
 44
0.0000000001
 40
0.0
 40
0.0
 40
0.0
 40
0.0
 40
1.0
 40
1.0
 40
1.0
 40
1.0
 10
3.0023908468
 20
2.6514927911
 30
0.0
 10
3.0027855341
 20
2.649261296
 30
0.0
 10
3.0035835745
 20
2.6470679007
 30
0.0
 10
3.0047130562
 20
2.6451033093
 30
0.0
  0
SPLINE
  5
79B
100
AcDbEntity
  8
0
100
AcDbSpline
 62
7
  6
CONTINUOUS
 70
0
 71
3
 72
17
 73
13
 74
0
 42
0.0000001
 43
0.0000001
 44
0.0000000001
 40
0.0
 40
0.0
 40
0.0
 40
0.0
 40
0.0050120435
 40
0.019486353
 40
0.043327954
 40
0.0763679663
 40
0.1183692125
 40
0.1688525824
 40
0.2931050812
 40
0.4445284003
 40
0.6174303311
 40
1.0
 40
1.0
 40
1.0
 40
1.0
 10
0.592282325
 20
4.4173504756
 30
0.0
 10
0.5922827558
 20
4.4173833656
 30
0.0
 10
0.5924809943
 20
4.4173596399
 30
0.0
 10
0.5926976863
 20
4.41741493
 30
0.0
 10
0.5932033823
 20
4.417410526
 30
0.0
 10
0.5938357529
 20
4.417434143
 30
0.0
 10
0.5946657241
 20
4.4174420493
 30
0.0
 10
0.596085187
 20
4.4174554976
 30
0.0
 10
0.5982275109
 20
4.4174589916
 30
0.0
 10
0.6011706746
 20
4.4174515733
 30
0.0
 10
0.6058100759
 20
4.4174223163
 30
0.0
 10
0.6094551836
 20
4.4173833341
 30
0.0
 10
0.6119656779
 20
4.4173504756
 30
0.0
  0
LINE
  5
79C
100
AcDbEntity
  8
0
100
AcDbLine
 62
7
  6
CONTINUOUS
 10
0.592792512
 20
2.9527180572
 11
0.5991129709
 21
2.9343331798
  0
SPLINE
  5
79D
100
AcDbEntity
  8
0
100
AcDbSpline
 62
7
  6
CONTINUOUS
 70
0
 71
3
 72
9
 73
5
 74
0
 42
0.0000001
 43
0.0000001
 44
0.0000000001
 40
0.0
 40
0.0
 40
0.0
 40
0.0
 40
0.4999877023
 40
1.0
 40
1.0
 40
1.0
 40
1.0
 10
0.6119656754
 20
4.4173502874
 30
0.0
 10
0.6121094954
 20
4.4215267575
 30
0.0
 10
0.6148749975
 20
4.4301390505
 30
0.0
 10
0.6225414089
 20
4.4349389131
 30
0.0
 10
0.6265539855
 20
4.4361070455
 30
0.0
  0
LINE
  5
79E
100
AcDbEntity
  8
0
100
AcDbLine
 62
7
  6
CONTINUOUS
 10
0.6265541677
 20
4.4361070943
 11
0.6214593118
 21
4.4548637148
  0
SPLINE
  5
79F
100
AcDbEntity
  8
0
100
AcDbSpline
 62
7
  6
CONTINUOUS
 70
0
 71
3
 72
11
 73
7
 74
0
 42
0.0000001
 43
0.0000001
 44
0.0000000001
 40
0.0
 40
0.0
 40
0.0
 40
0.0
 40
0.2500361924
 40
0.5000137636
 40
0.7499831105
 40
1.0
 40
1.0
 40
1.0
 40
1.0
 10
3.4980489459
 20
4.5055728651
 30
0.0
 10
3.5005879442
 20
4.5055236566
 30
0.0
 10
3.5057231557
 20
4.5045871418
 30
0.0
 10
3.5122225675
 20
4.5002475734
 30
0.0
 10
3.5166464092
 20
4.4938053994
 30
0.0
 10
3.5176494358
 20
4.4886830645
 30
0.0
 10
3.5177317178
 20
4.4861451189
 30
0.0
  0
SPLINE
  5
7A0
100
AcDbEntity
  8
0
100
AcDbSpline
 62
7
  6
CONTINUOUS
 70
0
 71
3
 72
11
 73
7
 74
0
 42
0.0000001
 43
0.0000001
 44
0.0000000001
 40
0.0
 40
0.0
 40
0.0
 40
0.0
 40
0.2500375743
 40
0.5000129753
 40
0.749980574
 40
1.0
 40
1.0
 40
1.0
 40
1.0
 10
5.7635539869
 20
3.502490325
 30
0.0
 10
5.7660652647
 20
3.5019946477
 30
0.0
 10
5.7709976245
 20
3.5001566824
 30
0.0
 10
5.7766631607
 20
3.4946788306
 30
0.0
 10
5.7798687456
 20
3.4874797107
 30
0.0
 10
5.7799055926
 20
3.4822164509
 30
0.0
 10
5.7795110612
 20
3.4796874974
 30
0.0
  0
SPLINE
  5
7A1
100
AcDbEntity
  8
0
100
AcDbSpline
 62
7
  6
CONTINUOUS
 70
0
 71
3
 72
17
 73
13
 74
0
 42
0.0000001
 43
0.0000001
 44
0.0000000001
 40
0.0
 40
0.0
 40
0.0
 40
0.0
 40
0.3826562061
 40
0.5554982871
 40
0.7068635681
 40
0.8311179778
 40
0.881614877
 40
0.9236172685
 40
0.9566561185
 40
0.9805050761
 40
0.9949878665
 40
1.0
 40
1.0
 40
1.0
 40
1.0
 10
3.0070565157
 20
2.7381469468
 30
0.0
 10
3.0045884411
 20
2.7377118286
 30
0.0
 10
3.0010041885
 20
2.7370886272
 30
0.0
 10
2.9964394504
 20
2.7363152338
 30
0.0
 10
2.9935425106
 20
2.7358355382
 30
0.0
 10
2.9914321571
 20
2.7354949121
 30
0.0
 10
2.9900318263
 20
2.7352800338
 30
0.0
 10
2.9892130057
 20
2.7351543175
 30
0.0
 10
2.9885863641
 20
2.735075958
 30
0.0
 10
2.9880888585
 20
2.7349898557
 30
0.0
 10
2.9878666037
 20
2.7350098021
 30
0.0
 10
2.9876749906
 20
2.7349537697
 30
0.0
 10
2.9876692921
 20
2.7349860974
 30
0.0
  0
SPLINE
  5
7A2
100
AcDbEntity
  8
0
100
AcDbSpline
 62
7
  6
CONTINUOUS
 70
0
 71
3
 72
17
 73
13
 74
0
 42
0.0000001
 43
0.0000001
 44
0.0000000001
 40
0.0
 40
0.0
 40
0.0
 40
0.0
 40
0.3827318301
 40
0.5556343571
 40
0.7070283856
 40
0.8312380385
 40
0.8816992452
 40
0.9236800109
 40
0.9567026488
 40
0.9805306329
 40
0.9949953253
 40
1.0
 40
1.0
 40
1.0
 40
1.0
 10
2.0638065094
 20
2.7869472905
 30
0.0
 10
2.0613381048
 20
2.7865121187
 30
0.0
 10
2.0577532037
 20
2.7858888102
 30
0.0
 10
2.0531876907
 20
2.7851153087
 30
0.0
 10
2.0502906483
 20
2.7846356074
 30
0.0
 10
2.0481807623
 20
2.784295074
 30
0.0
 10
2.046781177
 20
2.7840803342
 30
0.0
 10
2.0459628871
 20
2.7839547077
 30
0.0
 10
2.045336661
 20
2.7838763862
 30
0.0
 10
2.0448395738
 20
2.7837903957
 30
0.0
 10
2.0446175573
 20
2.7838102787
 30
0.0
 10
2.0444262214
 20
2.7837544113
 30
0.0
 10
2.04442053
 20
2.7837866885
 30
0.0
  0
SPLINE
  5
7A3
100
AcDbEntity
  8
0
100
AcDbSpline
 62
7
  6
CONTINUOUS
 70
0
 71
3
 72
10
 73
6
 74
0
 42
0.0000001
 43
0.0000001
 44
0.0000000001
 40
0.0
 40
0.0
 40
0.0
 40
0.0
 40
0.4981436057
 40
0.7491120732
 40
1.0
 40
1.0
 40
1.0
 40
1.0
 10
3.6651226502
 20
4.0000216782
 30
0.0
 10
3.6566249788
 20
4.0057764878
 30
0.0
 10
3.6413462938
 20
4.0113490244
 30
0.0
 10
3.6205985496
 20
4.0108130282
 30
0.0
 10
3.6105228026
 20
4.0080065219
 30
0.0
 10
3.6057245878
 20
4.0060843874
 30
0.0
  0
SPLINE
  5
7A4
100
AcDbEntity
  8
0
100
AcDbSpline
 62
6
  6
CONTINUOUS
 70
0
 71
3
 72
17
 73
13
 74
0
 42
0.0000001
 43
0.0000001
 44
0.0000000001
 40
0.0
 40
0.0
 40
0.0
 40
0.0
 40
0.3825079752
 40
0.5553501187
 40
0.7067423319
 40
0.8310356903
 40
0.8815526346
 40
0.9235734421
 40
0.9566278899
 40
0.9804891363
 40
0.9949807284
 40
1.0
 40
1.0
 40
1.0
 40
1.0
 10
3.5247870506
 20
3.9471881821
 30
0.0
 10
3.5272971393
 20
3.9472210354
 30
0.0
 10
3.5309414489
 20
3.9472600084
 30
0.0
 10
3.5355798474
 20
3.9472892731
 30
0.0
 10
3.5385226823
 20
3.9472966953
 30
0.0
 10
3.5406652901
 20
3.9472932124
 30
0.0
 10
3.5420853683
 20
3.947279778
 30
0.0
 10
3.5429157854
 20
3.9472718723
 30
0.0
 10
3.5435485003
 20
3.9472482259
 30
0.0
 10
3.5440545652
 20
3.9472526677
 30
0.0
 10
3.5442714611
 20
3.947197284
 30
0.0
 10
3.5444699723
 20
3.9472211195
 30
0.0
 10
3.5444704035
 20
3.9471881821
 30
0.0
  0
SPLINE
  5
7A5
100
AcDbEntity
  8
0
100
AcDbSpline
 62
6
  6
CONTINUOUS
 70
0
 71
3
 72
17
 73
13
 74
0
 42
0.0000001
 43
0.0000001
 44
0.0000000001
 40
0.0
 40
0.0
 40
0.0
 40
0.0
 40
0.0049879367
 40
0.019532834
 40
0.0434746462
 40
0.0766380055
 40
0.1187833742
 40
0.1694181033
 40
0.2939270704
 40
0.4454415248
 40
0.6182276123
 40
1.0
 40
1.0
 40
1.0
 40
1.0
 10
5.6667485242
 20
2.7265601641
 30
0.0
 10
5.6667480309
 20
2.7265930774
 30
0.0
 10
5.6665488746
 20
2.7265695596
 30
0.0
 10
5.6663344376
 20
2.7266611212
 30
0.0
 10
5.6658273615
 20
2.7266999164
 30
0.0
 10
5.6651940758
 20
2.7267910028
 30
0.0
 10
5.6643614844
 20
2.7268775096
 30
0.0
 10
5.6629379406
 20
2.727025625
 30
0.0
 10
5.6607900217
 20
2.7272283264
 30
0.0
 10
5.6578411847
 20
2.7274978518
 30
0.0
 10
5.6531991192
 20
2.7279050917
 30
0.0
 10
5.6495521483
 20
2.7282088633
 30
0.0
 10
5.6470409176
 20
2.7284119805
 30
0.0
  0
SPLINE
  5
7A6
100
AcDbEntity
  8
0
100
AcDbSpline
 62
6
  6
CONTINUOUS
 70
0
 71
3
 72
22
 73
18
 74
0
 42
0.0000001
 43
0.0000001
 44
0.0000000001
 40
0.0
 40
0.0
 40
0.0
 40
0.0
 40
0.1948933958
 40
0.3826638732
 40
0.555491449
 40
0.70696352
 40
0.7728823573
 40
0.8313468796
 40
0.881782399
 40
0.9237527553
 40
0.9568316571
 40
0.9699186642
 40
0.9806711944
 40
0.989070764
 40
0.9950994757
 40
0.998741573
 40
1.0
 40
1.0
 40
1.0
 40
1.0
 10
5.5897192296
 20
2.596381721
 30
0.0
 10
5.594834388
 20
2.5964153865
 30
0.0
 10
5.6048778037
 20
2.5964746855
 30
0.0
 10
5.6194573571
 20
2.5965416049
 30
0.0
 10
5.6328973526
 20
2.5965837092
 30
0.0
 10
5.6431391977
 20
2.5965974681
 30
0.0
 10
5.6503794783
 20
2.596593209
 30
0.0
 10
5.6549677542
 20
2.596583232
 30
0.0
 10
5.6589278408
 20
2.596566831
 30
0.0
 10
5.6622204587
 20
2.596543418
 30
0.0
 10
5.6645355617
 20
2.5965192143
 30
0.0
 10
5.6660262504
 20
2.5964925952
 30
0.0
 10
5.666878595
 20
2.5964776253
 30
0.0
 10
5.6675226558
 20
2.5964486911
 30
0.0
 10
5.6680342502
 20
2.5964495264
 30
0.0
 10
5.6682536182
 20
2.596392381
 30
0.0
 10
5.6684519392
 20
2.596414791
 30
0.0
 10
5.6684526406
 20
2.5963817691
 30
0.0
  0
SPLINE
  5
7A7
100
AcDbEntity
  8
0
100
AcDbSpline
 62
6
  6
CONTINUOUS
 70
0
 71
3
 72
10
 73
6
 74
0
 42
0.0000001
 43
0.0000001
 44
0.0000000001
 40
0.0
 40
0.0
 40
0.0
 40
0.0
 40
0.5698856381
 40
0.8209735385
 40
1.0
 40
1.0
 40
1.0
 40
1.0
 10
2.972224243
 20
2.5963818464
 30
0.0
 10
2.9812749737
 20
2.6035663384
 30
0.0
 10
2.9943181921
 20
2.6139106347
 30
0.0
 10
3.0102720154
 20
2.6264255391
 30
0.0
 10
3.017143491
 20
2.6317973462
 30
0.0
 10
3.0200389983
 20
2.6339868544
 30
0.0
  0
LINE
  5
7A8
100
AcDbEntity
  8
0
100
AcDbLine
 62
6
  6
CONTINUOUS
 10
3.0200389983
 20
2.6339868544
 11
3.0213134759
 21
2.6349343695
  0
LINE
  5
7A9
100
AcDbEntity
  8
0
100
AcDbLine
 62
6
  6
CONTINUOUS
 10
3.0213134759
 20
2.6349343695
 11
3.0217738144
 21
2.6352364558
  0
LINE
  5
7AA
100
AcDbEntity
  8
0
100
AcDbLine
 62
6
  6
CONTINUOUS
 10
3.0023903467
 20
2.6515080464
 11
2.9722243091
 21
2.596381799
  0
SPLINE
  5
7AB
100
AcDbEntity
  8
0
100
AcDbSpline
 62
6
  6
CONTINUOUS
 70
0
 71
3
 72
10
 73
6
 74
0
 42
0.0000001
 43
0.0000001
 44
0.0000000001
 40
0.0
 40
0.0
 40
0.0
 40
0.0
 40
0.5698856277
 40
0.8209735273
 40
1.0
 40
1.0
 40
1.0
 40
1.0
 10
2.0142534298
 20
2.728665311
 30
0.0
 10
2.0233041601
 20
2.7358498028
 30
0.0
 10
2.0363473781
 20
2.7461940986
 30
0.0
 10
2.0523012013
 20
2.7587090029
 30
0.0
 10
2.0591726768
 20
2.76408081
 30
0.0
 10
2.0620681843
 20
2.7662703184
 30
0.0
  0
LINE
  5
7AC
100
AcDbEntity
  8
0
100
AcDbLine
 62
6
  6
CONTINUOUS
 10
2.0620681843
 20
2.7662703184
 11
2.0633426623
 21
2.7672178339
  0
LINE
  5
7AD
100
AcDbEntity
  8
0
100
AcDbLine
 62
6
  6
CONTINUOUS
 10
2.0633426623
 20
2.7672178339
 11
2.0638030012
 21
2.7675199203
  0
SPLINE
  5
7AE
100
AcDbEntity
  8
0
100
AcDbSpline
 62
6
  6
CONTINUOUS
 70
0
 71
3
 72
10
 73
6
 74
0
 42
0.0000001
 43
0.0000001
 44
0.0000000001
 40
0.0
 40
0.0
 40
0.0
 40
0.0
 40
0.4912935385
 40
0.7420935728
 40
1.0
 40
1.0
 40
1.0
 40
1.0
 10
5.6684526166
 20
2.596383321
 30
0.0
 10
5.6683217441
 20
2.60627993
 30
0.0
 10
5.6662968575
 20
2.6213905552
 30
0.0
 10
5.6588193264
 20
2.6401136162
 30
0.0
 10
5.6523282621
 20
2.6485927695
 30
0.0
 10
5.6480472661
 20
2.6515370094
 30
0.0
  0
LINE
  5
7AF
100
AcDbEntity
  8
0
100
AcDbLine
 62
6
  6
CONTINUOUS
 10
2.0444191383
 20
2.7837931074
 11
2.0142534957
 21
2.7286652649
  0
SPLINE
  5
7B0
100
AcDbEntity
  8
0
100
AcDbSpline
 62
6
  6
CONTINUOUS
 70
0
 71
3
 72
18
 73
14
 74
0
 42
0.0000001
 43
0.0000001
 44
0.0000000001
 40
0.0
 40
0.0
 40
0.0
 40
0.0
 40
0.0049919156
 40
0.0194366412
 40
0.043269905
 40
0.076331331
 40
0.1182775684
 40
0.1686845798
 40
0.2930048054
 40
0.4444222981
 40
0.617223902
 40
0.8050164188
 40
1.0
 40
1.0
 40
1.0
 40
1.0
 10
2.0232441299
 20
2.9038840218
 30
0.0
 10
2.0232327762
 20
2.9039484115
 30
0.0
 10
2.022850815
 20
2.9038373943
 30
0.0
 10
2.0224070095
 20
2.9038768217
 30
0.0
 10
2.0214124878
 20
2.9037048893
 30
0.0
 10
2.0201599743
 20
2.9035480018
 30
0.0
 10
2.0185240422
 20
2.9032969308
 30
0.0
 10
2.015724583
 20
2.902867453
 30
0.0
 10
2.0115038049
 20
2.9021860874
 30
0.0
 10
2.0057092917
 20
2.9012267403
 30
0.0
 10
1.9990968127
 20
2.9001064375
 30
0.0
 10
1.9919258554
 20
2.8988705219
 30
0.0
 10
1.9869873599
 20
2.8980062374
 30
0.0
 10
1.9844722962
 20
2.8975628399
 30
0.0
  0
SPLINE
  5
7B1
100
AcDbEntity
  8
0
100
AcDbSpline
 62
6
  6
CONTINUOUS
 70
0
 71
3
 72
10
 73
6
 74
0
 42
0.0000001
 43
0.0000001
 44
0.0000000001
 40
0.0
 40
0.0
 40
0.0
 40
0.0
 40
0.2579042092
 40
0.5087048098
 40
1.0
 40
1.0
 40
1.0
 40
1.0
 10
0.59279259
 20
2.9527181118
 30
0.0
 10
0.5885118787
 20
2.9497732918
 30
0.0
 10
0.5820197712
 20
2.9412949636
 30
0.0
 10
0.5745430193
 20
2.9225707283
 30
0.0
 10
0.5725173152
 20
2.9074598421
 30
0.0
 10
0.5723872161
 20
2.8975629253
 30
0.0
  0
LINE
  5
7B2
100
AcDbEntity
  8
0
100
AcDbLine
 62
6
  6
CONTINUOUS
 10
3.5769806202
 20
3.9089350942
 11
3.5735523757
 21
3.8898085452
  0
LINE
  5
7B3
100
AcDbEntity
  8
0
100
AcDbLine
 62
6
  6
CONTINUOUS
 10
0.8858039539
 20
4.5055728651
 11
0.8832123693
 21
4.5250002353
  0
SPLINE
  5
7B4
100
AcDbEntity
  8
0
100
AcDbSpline
 62
6
  6
CONTINUOUS
 70
0
 71
3
 72
22
 73
18
 74
0
 42
0.0000001
 43
0.0000001
 44
0.0000000001
 40
0.0
 40
0.0
 40
0.0
 40
0.0
 40
0.0012584267
 40
0.0049005239
 40
0.0109292356
 40
0.0193288053
 40
0.0300813356
 40
0.0431683427
 40
0.0762472449
 40
0.1182176027
 40
0.1686531235
 40
0.2271176462
 40
0.2930364847
 40
0.4445085576
 40
0.6173361327
 40
0.8051066057
 40
1.0
 40
1.0
 40
1.0
 40
1.0
 10
0.5723872155
 20
2.8975628744
 30
0.0
 10
0.5723879169
 20
2.8975958962
 30
0.0
 10
0.5725862379
 20
2.8975734861
 30
0.0
 10
0.5728056059
 20
2.8976306314
 30
0.0
 10
0.5733172003
 20
2.8976297957
 30
0.0
 10
0.5739612611
 20
2.8976587295
 30
0.0
 10
0.5748136057
 20
2.897673699
 30
0.0
 10
0.5763042945
 20
2.8977003175
 30
0.0
 10
0.5786193975
 20
2.8977245205
 30
0.0
 10
0.5819120155
 20
2.8977479329
 30
0.0
 10
0.5858721022
 20
2.8977643334
 30
0.0
 10
0.5904603782
 20
2.8977743097
 30
0.0
 10
0.5977006589
 20
2.8977785679
 30
0.0
 10
0.6079425039
 20
2.897764808
 30
0.0
 10
0.6213824993
 20
2.8977227027
 30
0.0
 10
0.6359620526
 20
2.8976557823
 30
0.0
 10
0.6460054681
 20
2.8975964828
 30
0.0
 10
0.6511206264
 20
2.8975628173
 30
0.0
  0
SPLINE
  5
7B5
100
AcDbEntity
  8
0
100
AcDbSpline
 62
6
  6
CONTINUOUS
 70
0
 71
3
 72
10
 73
6
 74
0
 42
0.0000001
 43
0.0000001
 44
0.0000000001
 40
0.0
 40
0.0
 40
0.0
 40
0.0
 40
0.3490067097
 40
0.645323542
 40
1.0
 40
1.0
 40
1.0
 40
1.0
 10
3.4292985425
 20
4.5055728651
 30
0.0
 10
3.4293137675
 20
4.508162144
 30
0.0
 10
3.4298152919
 20
4.513053358
 30
0.0
 10
3.4316477312
 20
4.5198442542
 30
0.0
 10
3.4351451694
 20
4.5250002353
 30
0.0
 10
3.4377765576
 20
4.5250002353
 30
0.0
  0
SPLINE
  5
7B6
100
AcDbEntity
  8
0
100
AcDbSpline
 62
6
  6
CONTINUOUS
 70
0
 71
3
 72
11
 73
7
 74
0
 42
0.0000001
 43
0.0000001
 44
0.0000000001
 40
0.0
 40
0.0
 40
0.0
 40
0.0
 40
0.1592103819
 40
0.3813389142
 40
0.6674438068
 40
1.0
 40
1.0
 40
1.0
 40
1.0
 10
3.231257145
 20
2.6352364558
 30
0.0
 10
3.2325280832
 20
2.6352364558
 30
0.0
 10
3.2354685466
 20
2.6367032002
 30
0.0
 10
3.2388842384
 20
2.6408409604
 30
0.0
 10
3.24170241
 20
2.6470323131
 30
0.0
 10
3.2424008953
 20
2.6520091685
 30
0.0
 10
3.2423832286
 20
2.6546638259
 30
0.0
  0
SPLINE
  5
7B7
100
AcDbEntity
  8
0
100
AcDbSpline
 62
6
  6
CONTINUOUS
 70
0
 71
3
 72
9
 73
5
 74
0
 42
0.0000001
 43
0.0000001
 44
0.0000000001
 40
0.0
 40
0.0
 40
0.0
 40
0.0
 40
0.4999999999
 40
1.0
 40
1.0
 40
1.0
 40
1.0
 10
3.2423832286
 20
2.6546638259
 30
0.0
 10
3.2403302662
 20
2.9631478489
 30
0.0
 10
3.2365255196
 20
3.5801178514
 30
0.0
 10
3.2326408822
 20
4.1970873436
 30
0.0
 10
3.2308269834
 20
4.5055728651
 30
0.0
  0
SPLINE
  5
7B8
100
AcDbEntity
  8
0
100
AcDbSpline
 62
6
  6
CONTINUOUS
 70
0
 71
3
 72
9
 73
5
 74
0
 42
0.0000001
 43
0.0000001
 44
0.0000000001
 40
0.0
 40
0.0
 40
0.0
 40
0.0
 40
0.5000000001
 40
1.0
 40
1.0
 40
1.0
 40
1.0
 10
3.4292985425
 20
4.5055728651
 30
0.0
 10
3.4274846437
 20
4.1970873436
 30
0.0
 10
3.4236000064
 20
3.5801178514
 30
0.0
 10
3.4197952598
 20
2.9631478489
 30
0.0
 10
3.4177422973
 20
2.6546638259
 30
0.0
  0
SPLINE
  5
7B9
100
AcDbEntity
  8
0
100
AcDbSpline
 62
6
  6
CONTINUOUS
 70
0
 71
3
 72
11
 73
7
 74
0
 42
0.0000001
 43
0.0000001
 44
0.0000000001
 40
0.0
 40
0.0
 40
0.0
 40
0.0
 40
0.3325646178
 40
0.6186611886
 40
0.8407902386
 40
1.0
 40
1.0
 40
1.0
 40
1.0
 10
3.4177422973
 20
2.6546638259
 30
0.0
 10
3.4177246301
 20
2.6520091008
 30
0.0
 10
3.4184230916
 20
2.647032228
 30
0.0
 10
3.4212413552
 20
2.6408409194
 30
0.0
 10
3.4246569768
 20
2.6367031863
 30
0.0
 10
3.4275974474
 20
2.6352364558
 30
0.0
 10
3.4288683809
 20
2.6352364558
 30
0.0
  0
SPLINE
  5
7BA
100
AcDbEntity
  8
0
100
AcDbSpline
 62
6
  6
CONTINUOUS
 70
0
 71
3
 72
18
 73
14
 74
0
 42
0.0000001
 43
0.0000001
 44
0.0000000001
 40
0.0
 40
0.0
 40
0.0
 40
0.0
 40
0.0049910312
 40
0.0194351094
 40
0.0432680237
 40
0.0763293842
 40
0.1182757105
 40
0.1686828623
 40
0.2930033625
 40
0.4444211594
 40
0.6172231218
 40
0.8050160208
 40
1.0
 40
1.0
 40
1.0
 40
1.0
 10
2.9876708359
 20
2.7349873696
 30
0.0
 10
2.9876594836
 20
2.7350517476
 30
0.0
 10
2.9872775286
 20
2.7349404517
 30
0.0
 10
2.9868338106
 20
2.7349796925
 30
0.0
 10
2.9858393218
 20
2.7348074186
 30
0.0
 10
2.9845868392
 20
2.7346504595
 30
0.0
 10
2.9829509005
 20
2.7343994071
 30
0.0
 10
2.9801514241
 20
2.7339700509
 30
0.0
 10
2.9759306427
 20
2.7332886895
 30
0.0
 10
2.9701361377
 20
2.732329296
 30
0.0
 10
2.9635236512
 20
2.7312090363
 30
0.0
 10
2.9563527042
 20
2.7299730606
 30
0.0
 10
2.9514142282
 20
2.7291086647
 30
0.0
 10
2.948899176
 20
2.7286652021
 30
0.0
  0
SPLINE
  5
7BB
100
AcDbEntity
  8
0
100
AcDbSpline
 62
6
  6
CONTINUOUS
 70
0
 71
3
 72
17
 73
13
 74
0
 42
0.0000001
 43
0.0000001
 44
0.0000000001
 40
0.0
 40
0.0
 40
0.0
 40
0.0
 40
0.3826708519
 40
0.5555139923
 40
0.7068769866
 40
0.8311271239
 40
0.8816216604
 40
0.9236218566
 40
0.9566588218
 40
0.9805062995
 40
0.9949881424
 40
1.0
 40
1.0
 40
1.0
 40
1.0
 10
2.0426301063
 20
2.9070446408
 30
0.0
 10
2.0401620956
 20
2.9066095385
 30
0.0
 10
2.0365779718
 20
2.9059863658
 30
0.0
 10
2.03201344
 20
2.9052130165
 30
0.0
 10
2.0291167214
 20
2.9047333642
 30
0.0
 10
2.027006561
 20
2.9043927751
 30
0.0
 10
2.0256063767
 20
2.9041779239
 30
0.0
 10
2.0247876508
 20
2.9040522258
 30
0.0
 10
2.0241610834
 20
2.9039738777
 30
0.0
 10
2.0236636421
 20
2.9038877917
 30
0.0
 10
2.0234414107
 20
2.9039077334
 30
0.0
 10
2.0232498264
 20
2.9038517153
 30
0.0
 10
2.0232441269
 20
2.9038840388
 30
0.0
  0
SPLINE
  5
7BC
100
AcDbEntity
  8
0
100
AcDbSpline
 62
6
  6
CONTINUOUS
 70
0
 71
3
 72
10
 73
6
 74
0
 42
0.0000001
 43
0.0000001
 44
0.0000000001
 40
0.0
 40
0.0
 40
0.0
 40
0.0
 40
0.354677806
 40
0.6510200589
 40
1.0
 40
1.0
 40
1.0
 40
1.0
 10
3.2223477846
 20
4.5250002353
 30
0.0
 10
3.2249792885
 20
4.5250002353
 30
0.0
 10
3.2284779581
 20
4.5198448775
 30
0.0
 10
3.2303100851
 20
4.5130533474
 30
0.0
 10
3.230811759
 20
4.5081620494
 30
0.0
 10
3.2308269834
 20
4.5055728651
 30
0.0
  0
SPLINE
  5
7BD
100
AcDbEntity
  8
0
100
AcDbSpline
 62
7
  6
CONTINUOUS
 70
0
 71
3
 72
11
 73
7
 74
0
 42
0.0000001
 43
0.0000001
 44
0.0000000001
 40
0.0
 40
0.0
 40
0.0
 40
0.0
 40
0.2485074771
 40
0.4976620655
 40
0.7483154407
 40
1.0
 40
1.0
 40
1.0
 40
1.0
 10
5.7809684964
 20
7.2994591603
 30
0.0
 10
5.783369418
 20
7.2996398624
 30
0.0
 10
5.788158378
 20
7.3009279251
 30
0.0
 10
5.7940872333
 20
7.305387945
 30
0.0
 10
5.7979991683
 20
7.3117225479
 30
0.0
 10
5.798901133
 20
7.3166387039
 30
0.0
 10
5.7988971417
 20
7.3190771945
 30
0.0
  0
LINE
  5
7BE
100
AcDbEntity
  8
0
100
AcDbLine
 62
7
  6
CONTINUOUS
 10
5.7994929365
 20
7.319134343
 11
5.7669816485
 21
7.3193877234
  0
LINE
  5
7BF
100
AcDbEntity
  8
0
100
AcDbLine
 62
7
  6
CONTINUOUS
 10
3.4404054841
 20
8.3783076409
 11
3.460088837
 21
8.3979909938
  0
SPLINE
  5
7C0
100
AcDbEntity
  8
0
100
AcDbSpline
 62
7
  6
CONTINUOUS
 70
0
 71
3
 72
18
 73
14
 74
0
 42
0.0000001
 43
0.0000001
 44
0.0000000001
 40
0.0
 40
0.0
 40
0.0
 40
0.0
 40
0.0062119325
 40
0.0212238723
 40
0.0450357275
 40
0.0775220324
 40
0.1184968673
 40
0.167602047
 40
0.288595296
 40
0.4370615276
 40
0.6086866332
 40
0.7985282025
 40
1.0
 40
1.0
 40
1.0
 40
1.0
 10
3.5444712651
 20
7.3252091408
 30
0.0
 10
3.5445076603
 20
7.3251524478
 30
0.0
 10
3.5447808285
 20
7.3251400364
 30
0.0
 10
3.5452258999
 20
7.325051521
 30
0.0
 10
3.5460182382
 20
7.3250067303
 30
0.0
 10
3.5470623878
 20
7.3249385384
 30
0.0
 10
3.548393739
 20
7.3248812744
 30
0.0
 10
3.5506798291
 20
7.3247970554
 30
0.0
 10
3.5541345936
 20
7.3247065925
 30
0.0
 10
3.5589170282
 20
7.3246158837
 30
0.0
 10
3.564447047
 20
7.3245421255
 30
0.0
 10
3.5705519849
 20
7.3244876298
 30
0.0
 10
3.5747958408
 20
7.3244655923
 30
0.0
 10
3.57698084
 20
7.3244580245
 30
0.0
  0
SPLINE
  5
7C1
100
AcDbEntity
  8
0
100
AcDbSpline
 62
6
  6
CONTINUOUS
 70
0
 71
3
 72
18
 73
14
 74
0
 42
0.0000001
 43
0.0000001
 44
0.0000000001
 40
0.0
 40
0.0
 40
0.0
 40
0.0
 40
0.2017349187
 40
0.391470703
 40
0.5630656973
 40
0.7116008349
 40
0.8327162636
 40
0.8817845565
 40
0.9227258889
 40
0.9552254523
 40
0.9790208681
 40
0.9939687627
 40
1.0
 40
1.0
 40
1.0
 40
1.0
 10
3.5735507386
 20
7.3047746464
 30
0.0
 10
3.5702704465
 20
7.304781789
 30
0.0
 10
3.5639049757
 20
7.3048038495
 30
0.0
 10
3.5547494819
 20
7.304859082
 30
0.0
 10
3.5464589895
 20
7.304932427
 30
0.0
 10
3.5392851555
 20
7.305023448
 30
0.0
 10
3.5341022817
 20
7.3051131918
 30
0.0
 10
3.5306720625
 20
7.3051986063
 30
0.0
 10
3.528677031
 20
7.3052537133
 30
0.0
 10
3.5271073398
 20
7.3053274848
 30
0.0
 10
3.5259263525
 20
7.3053581901
 30
0.0
 10
3.525245529
 20
7.305471848
 30
0.0
 10
3.5248548333
 20
7.3054549053
 30
0.0
 10
3.5247870517
 20
7.3055257821
 30
0.0
  0
SPLINE
  5
7C2
100
AcDbEntity
  8
0
100
AcDbSpline
 62
7
  6
CONTINUOUS
 70
0
 71
3
 72
12
 73
8
 74
0
 42
0.0000001
 43
0.0000001
 44
0.0000000001
 40
0.0
 40
0.0
 40
0.0
 40
0.0
 40
0.3666060773
 40
0.6802310241
 40
0.8970820399
 40
0.9615119442
 40
1.0
 40
1.0
 40
1.0
 40
1.0
 10
5.7669816485
 20
7.3193877236
 30
0.0
 10
5.7669760515
 20
7.3168945708
 30
0.0
 10
5.7668171631
 20
7.3122605301
 30
0.0
 10
5.766168718
 20
7.3062111822
 30
0.0
 10
5.7653001024
 20
7.3021986596
 30
0.0
 10
5.7644079678
 20
7.3002412474
 30
0.0
 10
5.763814434
 20
7.2997236884
 30
0.0
 10
5.7635534041
 20
7.2997043707
 30
0.0
  0
SPLINE
  5
7C3
100
AcDbEntity
  8
0
100
AcDbSpline
 62
7
  6
CONTINUOUS
 70
0
 71
3
 72
18
 73
14
 74
0
 42
0.0000001
 43
0.0000001
 44
0.0000000001
 40
0.0
 40
0.0
 40
0.0
 40
0.0
 40
0.2034585566
 40
0.3948313337
 40
0.5675576816
 40
0.7165973719
 40
0.8375645389
 40
0.886331607
 40
0.92672721
 40
0.9584943234
 40
0.9813984677
 40
0.9952252414
 40
1.0
 40
1.0
 40
1.0
 40
1.0
 10
5.7669816485
 20
8.0155026452
 30
0.0
 10
5.7691874582
 20
8.0155081322
 30
0.0
 10
5.7734680713
 20
8.0155230046
 30
0.0
 10
5.7796210763
 20
8.0155593449
 30
0.0
 10
5.7851845145
 20
8.0156091391
 30
0.0
 10
5.7899828671
 20
8.0156709899
 30
0.0
 10
5.7934412742
 20
8.0157311412
 30
0.0
 10
5.7957141542
 20
8.0157895956
 30
0.0
 10
5.7970344686
 20
8.0158253833
 30
0.0
 10
5.7980385068
 20
8.0158791733
 30
0.0
 10
5.7988392202
 20
8.0158911561
 30
0.0
 10
5.7991827938
 20
8.0159798048
 30
0.0
 10
5.7994931753
 20
8.0159576387
 30
0.0
 10
5.7994929356
 20
8.0160094042
 30
0.0
  0
SPLINE
  5
7C4
100
AcDbEntity
  8
0
100
AcDbSpline
 62
7
  6
CONTINUOUS
 70
0
 71
3
 72
12
 73
8
 74
0
 42
0.0000001
 43
0.0000001
 44
0.0000000001
 40
0.0
 40
0.0
 40
0.0
 40
0.0
 40
0.3464872936
 40
0.6471402248
 40
0.7686657558
 40
0.8673429535
 40
1.0
 40
1.0
 40
1.0
 40
1.0
 10
5.6417268992
 20
7.2688814296
 30
0.0
 10
5.641736835
 20
7.2713788889
 30
0.0
 10
5.6420400375
 20
7.276047882
 30
0.0
 10
5.6430987697
 20
7.2815040812
 30
0.0
 10
5.6444465208
 20
7.2850449113
 30
0.0
 10
5.6456381745
 20
7.2872314515
 30
0.0
 10
5.6470918257
 20
7.2885279482
 30
0.0
 10
5.6480473059
 20
7.288564824
 30
0.0
  0
SPLINE
  5
7C5
100
AcDbEntity
  8
0
100
AcDbSpline
 62
7
  6
CONTINUOUS
 70
0
 71
3
 72
12
 73
8
 74
0
 42
0.0000001
 43
0.0000001
 44
0.0000000001
 40
0.0
 40
0.0
 40
0.0
 40
0.0
 40
0.1326037273
 40
0.2312320551
 40
0.3527223993
 40
0.6534510155
 40
1.0
 40
1.0
 40
1.0
 40
1.0
 10
0.592792512
 20
7.2925075292
 30
0.0
 10
0.593747614
 20
7.2924706738
 30
0.0
 10
0.5952009137
 20
7.291175232
 30
0.0
 10
0.59639233
 20
7.2889895671
 30
0.0
 10
0.5977405914
 20
7.285449005
 30
0.0
 10
0.5987996061
 20
7.2799920081
 30
0.0
 10
0.5991030152
 20
7.2753220229
 30
0.0
 10
0.5991129709
 20
7.2728241043
 30
0.0
  0
LINE
  5
7C6
100
AcDbEntity
  8
0
100
AcDbLine
 62
7
  6
CONTINUOUS
 10
0.6119656754
 20
7.3116805423
 11
0.6265539855
 21
7.3119260817
  0
SPLINE
  5
7C7
100
AcDbEntity
  8
0
100
AcDbSpline
 62
7
  6
CONTINUOUS
 70
0
 71
3
 72
12
 73
8
 74
0
 42
0.0000001
 43
0.0000001
 44
0.0000000001
 40
0.0
 40
0.0
 40
0.0
 40
0.0
 40
0.1184689951
 40
0.2151768973
 40
0.3371891001
 40
0.6439790414
 40
1.0
 40
1.0
 40
1.0
 40
1.0
 10
0.6265541677
 20
7.3119260824
 30
0.0
 10
0.6257248225
 20
7.3119665933
 30
0.0
 10
0.6245607196
 20
7.3133767365
 30
0.0
 10
0.6236480394
 20
7.3154604877
 30
0.0
 10
0.6225550357
 20
7.3190269227
 30
0.0
 10
0.6217130569
 20
7.3244591883
 30
0.0
 10
0.6214675501
 20
7.3291119484
 30
0.0
 10
0.6214593118
 20
7.3316072401
 30
0.0
  0
LINE
  5
7C8
100
AcDbEntity
  8
0
100
AcDbLine
 62
7
  6
CONTINUOUS
 10
0.6214593046
 20
7.3316094353
 11
0.592282325
 21
7.3313639007
  0
SPLINE
  5
7C9
100
AcDbEntity
  8
0
100
AcDbSpline
 62
7
  6
CONTINUOUS
 70
0
 71
3
 72
16
 73
12
 74
0
 42
0.0000001
 43
0.0000001
 44
0.0000000001
 40
0.0
 40
0.0
 40
0.0
 40
0.0
 40
0.0060576111
 40
0.0214955506
 40
0.0461713718
 40
0.0799063636
 40
0.173086409
 40
0.2975524173
 40
0.4484940943
 40
0.6202904093
 40
1.0
 40
1.0
 40
1.0
 40
1.0
 10
3.5374150658
 20
7.3322644738
 30
0.0
 10
3.5373444058
 20
7.3323008973
 30
0.0
 10
3.537045699
 20
7.332273433
 30
0.0
 10
3.536455065
 20
7.3323345199
 30
0.0
 10
3.5354782087
 20
7.3323356976
 30
0.0
 10
3.5334937581
 20
7.332381736
 30
0.0
 10
3.5301917091
 20
7.3324094409
 30
0.0
 10
3.5253562968
 20
7.3324500097
 30
0.0
 10
3.5194870806
 20
7.3324787403
 30
0.0
 10
3.5102689927
 20
7.33251061
 30
0.0
 10
3.503031367
 20
7.3325185514
 30
0.0
 10
3.4980483599
 20
7.3325187913
 30
0.0
  0
SPLINE
  5
7CA
100
AcDbEntity
  8
0
100
AcDbSpline
 62
7
  6
CONTINUOUS
 70
0
 71
3
 72
18
 73
14
 74
0
 42
0.0000001
 43
0.0000001
 44
0.0000000001
 40
0.0
 40
0.0
 40
0.0
 40
0.0
 40
0.1932923523
 40
0.3796372698
 40
0.5514005505
 40
0.7023142913
 40
0.8267612543
 40
0.8774908092
 40
0.9199372988
 40
0.953678753
 40
0.9783703279
 40
0.9938420374
 40
1.0
 40
1.0
 40
1.0
 40
1.0
 10
3.4980483599
 20
8.0317444449
 30
0.0
 10
3.5005855366
 20
8.0317446912
 30
0.0
 10
3.5055687081
 20
8.0317509161
 30
0.0
 10
3.5128063694
 20
8.0317785219
 30
0.0
 10
3.5194878319
 20
8.0318236775
 30
0.0
 10
3.5253561461
 20
8.0318847546
 30
0.0
 10
3.5296369372
 20
8.031947578
 30
0.0
 10
3.5324913472
 20
8.0320099068
 30
0.0
 10
3.5341600079
 20
8.0320495532
 30
0.0
 10
3.5354746369
 20
8.0321061203
 30
0.0
 10
3.5364643026
 20
8.0321238102
 30
0.0
 10
3.5370325171
 20
8.0322171541
 30
0.0
 10
3.5373587871
 20
8.0321950647
 30
0.0
 10
3.5374150658
 20
8.0322530838
 30
0.0
  0
SPLINE
  5
7CB
100
AcDbEntity
  8
0
100
AcDbSpline
 62
7
  6
CONTINUOUS
 70
0
 71
3
 72
14
 73
10
 74
0
 42
0.0000001
 43
0.0000001
 44
0.0000000001
 40
0.0
 40
0.0
 40
0.0
 40
0.0
 40
0.379642892
 40
0.5514243285
 40
0.7023730546
 40
0.8270206938
 40
0.9199581236
 40
0.9771805455
 40
1.0
 40
1.0
 40
1.0
 40
1.0
 10
3.4980489459
 20
7.3128354391
 30
0.0
 10
3.5005403713
 20
7.312834807
 30
0.0
 10
3.5041593649
 20
7.3128276293
 30
0.0
 10
3.5087680647
 20
7.312794853
 30
0.0
 10
3.511705192
 20
7.3127684741
 30
0.0
 10
3.5141197129
 20
7.3127209606
 30
0.0
 10
3.515931697
 20
7.3127077804
 30
0.0
 10
3.5170496068
 20
7.312617161
 30
0.0
 10
3.5175928564
 20
7.312637185
 30
0.0
 10
3.5177317178
 20
7.312581116
 30
0.0
  0
SPLINE
  5
7CC
100
AcDbEntity
  8
0
100
AcDbSpline
 62
7
  6
CONTINUOUS
 70
0
 71
3
 72
15
 73
11
 74
0
 42
0.0000001
 43
0.0000001
 44
0.0000000001
 40
0.0
 40
0.0
 40
0.0
 40
0.0
 40
0.2487166969
 40
0.4671170835
 40
0.6511656892
 40
0.7968681743
 40
0.9002948465
 40
0.9579803186
 40
0.9713596069
 40
1.0
 40
1.0
 40
1.0
 40
1.0
 10
5.7707615339
 20
7.299667447
 30
0.0
 10
5.7715315075
 20
7.2996610489
 30
0.0
 10
5.7729785283
 20
7.2996464766
 30
0.0
 10
5.7749906851
 20
7.2996226419
 30
0.0
 10
5.7766976646
 20
7.2995864522
 30
0.0
 10
5.7780116595
 20
7.2995724599
 30
0.0
 10
5.7790205344
 20
7.2995008801
 30
0.0
 10
5.7794644877
 20
7.2995341049
 30
0.0
 10
5.7798859722
 20
7.2994225102
 30
0.0
 10
5.7795994182
 20
7.2994132782
 30
0.0
 10
5.7795110612
 20
7.299405864
 30
0.0
  0
SPLINE
  5
7CD
100
AcDbEntity
  8
0
100
AcDbSpline
 62
7
  6
CONTINUOUS
 70
0
 71
3
 72
11
 73
7
 74
0
 42
0.0000001
 43
0.0000001
 44
0.0000000001
 40
0.0
 40
0.0
 40
0.0
 40
0.0
 40
0.2481314193
 40
0.4973569677
 40
0.7479685837
 40
1.0
 40
1.0
 40
1.0
 40
1.0
 10
3.0070565157
 20
7.2896969858
 30
0.0
 10
3.004687949
 20
7.2896917807
 30
0.0
 10
2.9998958336
 20
7.2887761155
 30
0.0
 10
2.9937223729
 20
7.2848825891
 30
0.0
 10
2.9893295249
 20
7.2790087952
 30
0.0
 10
2.9879937333
 20
7.2742705736
 30
0.0
 10
2.9877617256
 20
7.2718759863
 30
0.0
  0
SPLINE
  5
7CE
100
AcDbEntity
  8
0
100
AcDbSpline
 62
7
  6
CONTINUOUS
 70
0
 71
3
 72
11
 73
7
 74
0
 42
0.0000001
 43
0.0000001
 44
0.0000000001
 40
0.0
 40
0.0
 40
0.0
 40
0.0
 40
0.2481662103
 40
0.4975194803
 40
0.7483244716
 40
1.0
 40
1.0
 40
1.0
 40
1.0
 10
2.0638065094
 20
7.2903373979
 30
0.0
 10
2.0612861574
 20
7.2903315814
 30
0.0
 10
2.0561798658
 20
7.2892918769
 30
0.0
 10
2.0497443163
 20
7.2848983457
 30
0.0
 10
2.045439495
 20
7.2783651579
 30
0.0
 10
2.044426252
 20
7.2732100378
 30
0.0
 10
2.04442053
 20
7.270654045
 30
0.0
  0
LINE
  5
7CF
100
AcDbEntity
  8
0
100
AcDbLine
 62
7
  6
CONTINUOUS
 10
0.7038057945
 20
8.5140279119
 11
0.7046924198
 21
8.5140279119
  0
LINE
  5
7D0
100
AcDbEntity
  8
0
100
AcDbLine
 62
7
  6
CONTINUOUS
 10
0.6075671752
 20
8.5723100747
 11
0.6131295494
 21
8.5722033817
  0
LINE
  5
7D1
100
AcDbEntity
  8
0
100
AcDbLine
 62
7
  6
CONTINUOUS
 10
0.6131295494
 20
8.5722033817
 11
0.6272651776
 21
8.5723100253
  0
SPLINE
  5
7D2
100
AcDbEntity
  8
0
100
AcDbSpline
 62
7
  6
CONTINUOUS
 70
0
 71
3
 72
17
 73
13
 74
0
 42
0.0000001
 43
0.0000001
 44
0.0000000001
 40
0.0
 40
0.0
 40
0.0
 40
0.0
 40
0.3822658554
 40
0.5550436505
 40
0.7064139305
 40
0.8307286549
 40
0.8812723375
 40
0.9233303697
 40
0.9564323992
 40
0.9803509497
 40
0.9949086375
 40
1.0
 40
1.0
 40
1.0
 40
1.0
 10
0.6271366137
 20
8.5821525485
 30
0.0
 10
0.6246262472
 20
8.5821196818
 30
0.0
 10
0.6209812293
 20
8.5820807241
 30
0.0
 10
0.6163415572
 20
8.5820514665
 30
0.0
 10
0.6133969085
 20
8.5820440487
 30
0.0
 10
0.6112526575
 20
8.5820475241
 30
0.0
 10
0.609830767
 20
8.5820609753
 30
0.0
 10
0.6089994187
 20
8.5820688437
 30
0.0
 10
0.6083642107
 20
8.5820926037
 30
0.0
 10
0.6078590944
 20
8.5820878858
 30
0.0
 10
0.6076365774
 20
8.5821439156
 30
0.0
 10
0.6074410434
 20
8.5821192102
 30
0.0
 10
0.6074385582
 20
8.5821525559
 30
0.0
  0
SPLINE
  5
7D3
100
AcDbEntity
  8
0
100
AcDbSpline
 62
7
  6
CONTINUOUS
 70
0
 71
3
 72
17
 73
13
 74
0
 42
0.0000001
 43
0.0000001
 44
0.0000000001
 40
0.0
 40
0.0
 40
0.0
 40
0.0
 40
0.0049263137
 40
0.0193187779
 40
0.0430849953
 40
0.0760563561
 40
0.1179880541
 40
0.1684030085
 40
0.2925745341
 40
0.4440060381
 40
0.6170309887
 40
1.0
 40
1.0
 40
1.0
 40
1.0
 10
3.3027197265
 20
8.5821525932
 30
0.0
 10
3.3027216258
 20
8.582120346
 30
0.0
 10
3.3025200677
 20
8.5821426436
 30
0.0
 10
3.3023099733
 20
8.5820885056
 30
0.0
 10
3.3018033335
 20
8.5820923572
 30
0.0
 10
3.3011741617
 20
8.582068975
 30
0.0
 10
3.3003457514
 20
8.5820609806
 30
0.0
 10
3.2989291386
 20
8.5820475549
 30
0.0
 10
3.296789388
 20
8.5820440356
 30
0.0
 10
3.2938484153
 20
8.5820514404
 30
0.0
 10
3.2892093893
 20
8.5820806935
 30
0.0
 10
3.285563915
 20
8.5821196692
 30
0.0
 10
3.2830529018
 20
8.5821525429
 30
0.0
  0
SPLINE
  5
7D4
100
AcDbEntity
  8
0
100
AcDbSpline
 62
7
  6
CONTINUOUS
 70
0
 71
3
 72
17
 73
13
 74
0
 42
0.0000001
 43
0.0000001
 44
0.0000000001
 40
0.0
 40
0.0
 40
0.0
 40
0.0
 40
0.3827502676
 40
0.5556547776
 40
0.7070671437
 40
0.8313380027
 40
0.8818280131
 40
0.9238116401
 40
0.9568190048
 40
0.980623979
 40
0.9950509559
 40
1.0
 40
1.0
 40
1.0
 40
1.0
 10
3.2829237781
 20
8.5723100284
 30
0.0
 10
3.2854333649
 20
8.572277194
 30
0.0
 10
3.2890766278
 20
8.572238212
 30
0.0
 10
3.2937133135
 20
8.572208948
 30
0.0
 10
3.2966540415
 20
8.5722015211
 30
0.0
 10
3.2987947932
 20
8.5722050202
 30
0.0
 10
3.3002129297
 20
8.5722184253
 30
0.0
 10
3.3010423356
 20
8.5722263944
 30
0.0
 10
3.3016725401
 20
8.5722498574
 30
0.0
 10
3.3021794625
 20
8.572245847
 30
0.0
 10
3.3023908901
 20
8.5723003107
 30
0.0
 10
3.3025921937
 20
8.5722776189
 30
0.0
 10
3.3025906807
 20
8.5723100359
 30
0.0
  0
SPLINE
  5
7D5
100
AcDbEntity
  8
0
100
AcDbSpline
 62
6
  6
CONTINUOUS
 70
0
 71
3
 72
12
 73
8
 74
0
 42
0.0000001
 43
0.0000001
 44
0.0000000001
 40
0.0
 40
0.0
 40
0.0
 40
0.0
 40
0.3665509902
 40
0.6800907138
 40
0.8970288482
 40
0.9614944877
 40
1.0
 40
1.0
 40
1.0
 40
1.0
 10
3.5769806202
 20
7.3244579955
 30
0.0
 10
3.576975024
 20
7.3219652343
 30
0.0
 10
3.5768162634
 20
7.3173321214
 30
0.0
 10
3.576167794
 20
7.3112833737
 30
0.0
 10
3.5752997343
 20
7.3072701512
 30
0.0
 10
3.5744070396
 20
7.3053122966
 30
0.0
 10
3.5738135222
 20
7.304793969
 30
0.0
 10
3.5735523757
 20
7.3047746426
 30
0.0
  0
SPLINE
  5
7D6
100
AcDbEntity
  8
0
100
AcDbSpline
 62
6
  6
CONTINUOUS
 70
0
 71
3
 72
11
 73
7
 74
0
 42
0.0000001
 43
0.0000001
 44
0.0000000001
 40
0.0
 40
0.0
 40
0.0
 40
0.0
 40
0.2361079523
 40
0.477980063
 40
0.730233572
 40
1.0
 40
1.0
 40
1.0
 40
1.0
 10
5.663761528
 20
7.2859412373
 30
0.0
 10
5.6627860217
 20
7.2838498719
 30
0.0
 10
5.6604727926
 20
7.2797606463
 30
0.0
 10
5.6557813484
 20
7.2743060844
 30
0.0
 10
5.6495250649
 20
7.2700287897
 30
0.0
 10
5.6443634237
 20
7.2688636565
 30
0.0
 10
5.6417268226
 20
7.2688814274
 30
0.0
  0
SPLINE
  5
7D7
100
AcDbEntity
  8
0
100
AcDbSpline
 62
6
  6
CONTINUOUS
 70
0
 71
3
 72
12
 73
8
 74
0
 42
0.0000001
 43
0.0000001
 44
0.0000000001
 40
0.0
 40
0.0
 40
0.0
 40
0.0
 40
0.2293655167
 40
0.4656216418
 40
0.71830708
 40
0.8558811652
 40
1.0
 40
1.0
 40
1.0
 40
1.0
 10
2.972224243
 20
6.4217010274
 30
0.0
 10
2.9775365985
 20
6.4217568432
 30
0.0
 10
2.9883606666
 20
6.4232522608
 30
0.0
 10
3.0038328154
 20
6.429914197
 30
0.0
 10
3.0148330199
 20
6.4400450541
 30
0.0
 10
3.0205367135
 20
6.4511801945
 30
0.0
 10
3.0217189312
 20
6.457730049
 30
0.0
 10
3.0217738144
 20
6.4610677314
 30
0.0
  0
SPLINE
  5
7D8
100
AcDbEntity
  8
0
100
AcDbSpline
 62
6
  6
CONTINUOUS
 70
0
 71
3
 72
11
 73
7
 74
0
 42
0.0000001
 43
0.0000001
 44
0.0000000001
 40
0.0
 40
0.0
 40
0.0
 40
0.0
 40
0.3454271929
 40
0.6107223416
 40
0.8188330999
 40
1.0
 40
1.0
 40
1.0
 40
1.0
 10
3.0023903467
 20
6.4616001516
 30
0.0
 10
3.0023503939
 20
6.4552978629
 30
0.0
 10
3.0002843376
 20
6.4440223829
 30
0.0
 10
2.992362512
 20
6.4309879428
 30
0.0
 10
2.9826579298
 20
6.4235459435
 30
0.0
 10
2.97552877
 20
6.4217814968
 30
0.0
 10
2.9722243091
 20
6.4217010267
 30
0.0
  0
SPLINE
  5
7D9
100
AcDbEntity
  8
0
100
AcDbSpline
 62
6
  6
CONTINUOUS
 70
0
 71
3
 72
12
 73
8
 74
0
 42
0.0000001
 43
0.0000001
 44
0.0000000001
 40
0.0
 40
0.0
 40
0.0
 40
0.0
 40
0.2293655166
 40
0.4656216418
 40
0.7183070799
 40
0.8558811651
 40
1.0
 40
1.0
 40
1.0
 40
1.0
 10
2.0142534298
 20
6.4234327128
 30
0.0
 10
2.0195657853
 20
6.4234885286
 30
0.0
 10
2.0303898534
 20
6.4249839462
 30
0.0
 10
2.0458620022
 20
6.4316458824
 30
0.0
 10
2.0568622067
 20
6.4417767395
 30
0.0
 10
2.0625659003
 20
6.4529118799
 30
0.0
 10
2.063748118
 20
6.4594617344
 30
0.0
 10
2.0638030012
 20
6.4627994169
 30
0.0
  0
SPLINE
  5
7DA
100
AcDbEntity
  8
0
100
AcDbSpline
 62
6
  6
CONTINUOUS
 70
0
 71
3
 72
11
 73
7
 74
0
 42
0.0000001
 43
0.0000001
 44
0.0000000001
 40
0.0
 40
0.0
 40
0.0
 40
0.0
 40
0.3461901686
 40
0.611192601
 40
0.8189666186
 40
1.0
 40
1.0
 40
1.0
 40
1.0
 10
2.0444191383
 20
6.4632963664
 30
0.0
 10
2.0444028995
 20
6.4569840935
 30
0.0
 10
2.0422876617
 20
6.4457078038
 30
0.0
 10
2.0343648951
 20
6.4326901577
 30
0.0
 10
2.0246689221
 20
6.425271657
 30
0.0
 10
2.0175534008
 20
6.4235133687
 30
0.0
 10
2.0142534957
 20
6.4234327122
 30
0.0
  0
SPLINE
  5
7DB
100
AcDbEntity
  8
0
100
AcDbSpline
 62
6
  6
CONTINUOUS
 70
0
 71
3
 72
11
 73
7
 74
0
 42
0.0000001
 43
0.0000001
 44
0.0000000001
 40
0.0
 40
0.0
 40
0.0
 40
0.0
 40
0.2517068124
 40
0.5024800941
 40
0.7518029422
 40
1.0
 40
1.0
 40
1.0
 40
1.0
 10
2.0232441299
 20
6.465010408
 30
0.0
 10
2.0232326846
 20
6.4598978379
 30
0.0
 10
2.0212071835
 20
6.4495869531
 30
0.0
 10
2.0125940248
 20
6.4365243974
 30
0.0
 10
1.9997268199
 20
6.4277338353
 30
0.0
 10
1.9895135768
 20
6.4256553536
 30
0.0
 10
1.9844722962
 20
6.4256437025
 30
0.0
  0
SPLINE
  5
7DC
100
AcDbEntity
  8
0
100
AcDbSpline
 62
6
  6
CONTINUOUS
 70
0
 71
3
 72
11
 73
7
 74
0
 42
0.0000001
 43
0.0000001
 44
0.0000000001
 40
0.0
 40
0.0
 40
0.0
 40
0.0
 40
0.3431532232
 40
0.5933875181
 40
0.8047993409
 40
1.0
 40
1.0
 40
1.0
 40
1.0
 10
0.59279259
 20
7.2925074569
 30
0.0
 10
0.589294161
 20
7.2924757309
 30
0.0
 10
0.5831062813
 20
7.2940459213
 30
0.0
 10
0.5766720612
 20
7.2994226156
 30
0.0
 10
0.5732697007
 20
7.3053309696
 30
0.0
 10
0.5724530633
 20
7.3094797344
 30
0.0
 10
0.5723872161
 20
7.311468787
 30
0.0
  0
SPLINE
  5
7DD
100
AcDbEntity
  8
0
100
AcDbSpline
 62
6
  6
CONTINUOUS
 70
0
 71
3
 72
13
 73
9
 74
0
 42
0.0000001
 43
0.0000001
 44
0.0000000001
 40
0.0
 40
0.0
 40
0.0
 40
0.0
 40
0.2378792778
 40
0.4785635266
 40
0.6016436388
 40
0.7279018719
 40
0.8596289029
 40
1.0
 40
1.0
 40
1.0
 40
1.0
 10
0.5723872154
 20
7.3114688522
 30
0.0
 10
0.5724318503
 20
7.307382644
 30
0.0
 10
0.5733940899
 20
7.2991486139
 30
0.0
 10
0.5769461863
 20
7.2893060268
 30
0.0
 10
0.5815194588
 20
7.2821945925
 30
0.0
 10
0.586080574
 20
7.2774262274
 30
0.0
 10
0.5919780305
 20
7.2737730788
 30
0.0
 10
0.5967016985
 20
7.2728077951
 30
0.0
 10
0.5991130335
 20
7.272824104
 30
0.0
  0
SPLINE
  5
7DE
100
AcDbEntity
  8
0
100
AcDbSpline
 62
6
  6
CONTINUOUS
 70
0
 71
3
 72
13
 73
9
 74
0
 42
0.0000001
 43
0.0000001
 44
0.0000000001
 40
0.0
 40
0.0
 40
0.0
 40
0.0
 40
0.0323621769
 40
0.0938838056
 40
0.1872515618
 40
0.3100254852
 40
0.6271198694
 40
1.0
 40
1.0
 40
1.0
 40
1.0
 10
0.8858039539
 20
7.3128354391
 30
0.0
 10
0.8855879161
 20
7.312856917
 30
0.0
 10
0.885133811
 20
7.3134351813
 30
0.0
 10
0.8847454174
 20
7.3145765415
 30
0.0
 10
0.8843095373
 20
7.3164164483
 30
0.0
 10
0.8837781562
 20
7.3199426246
 30
0.0
 10
0.8833377833
 20
7.325391017
 30
0.0
 10
0.883213447
 20
7.3300173129
 30
0.0
 10
0.8832123693
 20
7.332518792
 30
0.0
  0
SPLINE
  5
7DF
100
AcDbEntity
  8
0
100
AcDbSpline
 62
6
  6
CONTINUOUS
 70
0
 71
3
 72
17
 73
13
 74
0
 42
0.0000001
 43
0.0000001
 44
0.0000000001
 40
0.0
 40
0.0
 40
0.0
 40
0.0
 40
0.3563171581
 40
0.522318817
 40
0.6732469808
 40
0.8040828805
 40
0.8597880001
 40
0.9075751184
 40
0.9463559174
 40
0.9751859282
 40
0.9933031412
 40
1.0
 40
1.0
 40
1.0
 40
1.0
 10
3.231257145
 20
7.2689223596
 30
0.0
 10
3.2323564387
 20
7.2713761618
 30
0.0
 10
3.2340953809
 20
7.2749179744
 30
0.0
 10
3.2365639712
 20
7.2793590346
 30
0.0
 10
3.238293741
 20
7.2822617116
 30
0.0
 10
3.2396560678
 20
7.2844147248
 30
0.0
 10
3.2406202427
 20
7.2858948742
 30
0.0
 10
3.2412194743
 20
7.2867906757
 30
0.0
 10
3.2416845398
 20
7.2875135516
 30
0.0
 10
3.2420834057
 20
7.2880577588
 30
0.0
 10
3.2422242718
 20
7.2883895729
 30
0.0
 10
3.2424061298
 20
7.2885606647
 30
0.0
 10
3.2423832286
 20
7.2886057125
 30
0.0
  0
LINE
  5
7E0
100
AcDbEntity
  8
0
100
AcDbLine
 62
6
  6
CONTINUOUS
 10
3.2423832286
 20
7.2886057125
 11
3.2308269834
 21
7.3128354391
  0
LINE
  5
7E1
100
AcDbEntity
  8
0
100
AcDbLine
 62
6
  6
CONTINUOUS
 10
3.4292985425
 20
7.3128354391
 11
3.4177422973
 21
7.2886057125
  0
SPLINE
  5
7E2
100
AcDbEntity
  8
0
100
AcDbSpline
 62
6
  6
CONTINUOUS
 70
0
 71
3
 72
17
 73
13
 74
0
 42
0.0000001
 43
0.0000001
 44
0.0000000001
 40
0.0
 40
0.0
 40
0.0
 40
0.0
 40
0.0066978545
 40
0.0248170355
 40
0.0536484003
 40
0.0924287929
 40
0.1402149124
 40
0.1959189906
 40
0.3267540122
 40
0.4776821674
 40
0.6436835746
 40
1.0
 40
1.0
 40
1.0
 40
1.0
 10
3.4177422973
 20
7.2886057125
 30
0.0
 10
3.4177193927
 20
7.288560658
 30
0.0
 10
3.4179012797
 20
7.288389549
 30
0.0
 10
3.4180421521
 20
7.2880577059
 30
0.0
 10
3.4184410294
 20
7.287513479
 30
0.0
 10
3.4189060864
 20
7.2867905974
 30
0.0
 10
3.4195053068
 20
7.285894811
 30
0.0
 10
3.420469472
 20
7.2844146815
 30
0.0
 10
3.4218317994
 20
7.282261686
 30
0.0
 10
3.4235615642
 20
7.2793590159
 30
0.0
 10
3.4260301561
 20
7.2749179654
 30
0.0
 10
3.4277690895
 20
7.2713761567
 30
0.0
 10
3.4288683809
 20
7.2689223596
 30
0.0
  0
SPLINE
  5
7E3
100
AcDbEntity
  8
0
100
AcDbSpline
 62
6
  6
CONTINUOUS
 70
0
 71
3
 72
11
 73
7
 74
0
 42
0.0000001
 43
0.0000001
 44
0.0000000001
 40
0.0
 40
0.0
 40
0.0
 40
0.0
 40
0.3472344319
 40
0.6525870715
 40
0.8792562692
 40
1.0
 40
1.0
 40
1.0
 40
1.0
 10
2.9488990509
 20
7.2706540489
 30
0.0
 10
2.9533878666
 20
7.270653126
 30
0.0
 10
2.9618233047
 20
7.2706207753
 30
0.0
 10
2.9731922365
 20
7.2705234198
 30
0.0
 10
2.9816222403
 20
7.2702962606
 30
0.0
 10
2.9861204137
 20
7.2701942223
 30
0.0
 10
2.9876710097
 20
7.2700152134
 30
0.0
  0
SPLINE
  5
7E4
100
AcDbEntity
  8
0
100
AcDbSpline
 62
6
  6
CONTINUOUS
 70
0
 71
3
 72
11
 73
7
 74
0
 42
0.0000001
 43
0.0000001
 44
0.0000000001
 40
0.0
 40
0.0
 40
0.0
 40
0.0
 40
0.3472984987
 40
0.6526261361
 40
0.8793050095
 40
1.0
 40
1.0
 40
1.0
 40
1.0
 10
2.9489011196
 20
7.2903373979
 30
0.0
 10
2.9556344451
 20
7.2903378493
 30
0.0
 10
2.9682868986
 20
7.2903039383
 30
0.0
 10
2.9853361369
 20
7.2902056378
 30
0.0
 10
2.9979851803
 20
7.2899824491
 30
0.0
 10
3.0047241858
 20
7.2898742924
 30
0.0
 10
3.0070575755
 20
7.2896985234
 30
0.0
  0
SPLINE
  5
7E5
100
AcDbEntity
  8
0
100
AcDbSpline
 62
6
  6
CONTINUOUS
 70
0
 71
3
 72
11
 73
7
 74
0
 42
0.0000001
 43
0.0000001
 44
0.0000000001
 40
0.0
 40
0.0
 40
0.0
 40
0.0
 40
0.2517067032
 40
0.5024803486
 40
0.7518033607
 40
1.0
 40
1.0
 40
1.0
 40
1.0
 10
2.9876708359
 20
6.462799431
 30
0.0
 10
2.98765939
 20
6.4576868669
 30
0.0
 10
2.9856341153
 20
6.4473759379
 30
0.0
 10
2.9770208424
 20
6.4343134195
 30
0.0
 10
2.9641536781
 20
6.4255228543
 30
0.0
 10
2.9539404443
 20
6.4234443641
 30
0.0
 10
2.948899176
 20
6.4234327113
 30
0.0
  0
SPLINE
  5
7E6
100
AcDbEntity
  8
0
100
AcDbSpline
 62
6
  6
CONTINUOUS
 70
0
 71
3
 72
11
 73
7
 74
0
 42
0.0000001
 43
0.0000001
 44
0.0000000001
 40
0.0
 40
0.0
 40
0.0
 40
0.0
 40
0.3472344311
 40
0.6525870705
 40
0.8792562686
 40
1.0
 40
1.0
 40
1.0
 40
1.0
 10
1.9844721711
 20
7.2728650402
 30
0.0
 10
1.9889609868
 20
7.2728641171
 30
0.0
 10
1.9973964248
 20
7.2728317661
 30
0.0
 10
2.0087653567
 20
7.2727344106
 30
0.0
 10
2.0171953605
 20
7.2725072518
 30
0.0
 10
2.0216935339
 20
7.2724052137
 30
0.0
 10
2.0232441298
 20
7.2722262044
 30
0.0
  0
SPLINE
  5
7E7
100
AcDbEntity
  8
0
100
AcDbSpline
 62
6
  6
CONTINUOUS
 70
0
 71
3
 72
11
 73
7
 74
0
 42
0.0000001
 43
0.0000001
 44
0.0000000001
 40
0.0
 40
0.0
 40
0.0
 40
0.0
 40
0.347298499
 40
0.6526261365
 40
0.8793050098
 40
1.0
 40
1.0
 40
1.0
 40
1.0
 10
1.9844742398
 20
7.2925483891
 30
0.0
 10
1.9912075653
 20
7.2925488405
 30
0.0
 10
2.0038600188
 20
7.2925149295
 30
0.0
 10
2.0209092571
 20
7.292416629
 30
0.0
 10
2.0335583006
 20
7.2921934403
 30
0.0
 10
2.0402973061
 20
7.2920852836
 30
0.0
 10
2.0426306958
 20
7.2919095146
 30
0.0
  0
SPLINE
  5
7E8
100
AcDbEntity
  8
0
100
AcDbSpline
 62
6
  6
CONTINUOUS
 70
0
 71
3
 72
11
 73
7
 74
0
 42
0.0000001
 43
0.0000001
 44
0.0000000001
 40
0.0
 40
0.0
 40
0.0
 40
0.0
 40
0.2481249018
 40
0.4973871213
 40
0.7482410154
 40
1.0
 40
1.0
 40
1.0
 40
1.0
 10
2.0426301063
 20
7.2919095584
 30
0.0
 10
2.0401101779
 20
7.2919037428
 30
0.0
 10
2.0350052455
 20
7.2908645922
 30
0.0
 10
2.0285699576
 20
7.2864724455
 30
0.0
 10
2.0242639626
 20
7.2799394888
 30
0.0
 10
2.0232498507
 20
7.2747830415
 30
0.0
 10
2.0232441269
 20
7.2722262055
 30
0.0
  0
SPLINE
  5
7E9
100
AcDbEntity
  8
0
100
AcDbSpline
 62
6
  6
CONTINUOUS
 70
0
 71
3
 72
11
 73
7
 74
0
 42
0.0000001
 43
0.0000001
 44
0.0000000001
 40
0.0
 40
0.0
 40
0.0
 40
0.0
 40
0.2500253832
 40
0.4999820379
 40
0.7499113777
 40
1.0
 40
1.0
 40
1.0
 40
1.0
 10
0.6666300993
 20
8.5334552821
 30
0.0
 10
0.6615195818
 20
8.5334553492
 30
0.0
 10
0.6511888603
 20
8.535496538
 30
0.0
 10
0.6381213248
 20
8.5442226147
 30
0.0
 10
0.6293601395
 20
8.5572692878
 30
0.0
 10
0.627267209
 20
8.5675763616
 30
0.0
 10
0.6272007589
 20
8.5726877398
 30
0.0
  0
SPLINE
  5
7EA
100
AcDbEntity
  8
0
100
AcDbSpline
 62
6
  6
CONTINUOUS
 70
0
 71
3
 72
11
 73
7
 74
0
 42
0.0000001
 43
0.0000001
 44
0.0000000001
 40
0.0
 40
0.0
 40
0.0
 40
0.0
 40
0.2499513806
 40
0.4999490099
 40
0.7499296898
 40
1.0
 40
1.0
 40
1.0
 40
1.0
 10
0.6272008616
 20
8.582590004
 30
0.0
 10
0.6271333863
 20
8.5877142449
 30
0.0
 10
0.6291493682
 20
8.5981027227
 30
0.0
 10
0.6379216245
 20
8.6111958045
 30
0.0
 10
0.6510086561
 20
8.6199852655
 30
0.0
 10
0.6613751211
 20
8.6220379158
 30
0.0
 10
0.6665022446
 20
8.6220379592
 30
0.0
  0
SPLINE
  5
7EB
100
AcDbEntity
  8
0
100
AcDbSpline
 62
6
  6
CONTINUOUS
 70
0
 71
3
 72
11
 73
7
 74
0
 42
0.0000001
 43
0.0000001
 44
0.0000000001
 40
0.0
 40
0.0
 40
0.0
 40
0.0
 40
0.2500712495
 40
0.5000513137
 40
0.7500482123
 40
1.0
 40
1.0
 40
1.0
 40
1.0
 10
3.243687927
 20
8.6220379592
 30
0.0
 10
3.2488150114
 20
8.6220378855
 30
0.0
 10
3.2591813716
 20
8.6199853072
 30
0.0
 10
3.2722682155
 20
8.6111958733
 30
0.0
 10
3.2810402606
 20
8.5981028729
 30
0.0
 10
3.2830560278
 20
8.5877144779
 30
0.0
 10
3.2829884837
 20
8.5825902879
 30
0.0
  0
SPLINE
  5
7EC
100
AcDbEntity
  8
0
100
AcDbSpline
 62
6
  6
CONTINUOUS
 70
0
 71
3
 72
11
 73
7
 74
0
 42
0.0000001
 43
0.0000001
 44
0.0000000001
 40
0.0
 40
0.0
 40
0.0
 40
0.0
 40
0.2500881922
 40
0.5000182858
 40
0.7499755383
 40
1.0
 40
1.0
 40
1.0
 40
1.0
 10
3.282988381
 20
8.5726878245
 30
0.0
 10
3.2829218559
 20
8.5675764057
 30
0.0
 10
3.2808286585
 20
8.5572692732
 30
0.0
 10
3.27206722
 20
8.5442225809
 30
0.0
 10
3.2589994822
 20
8.5354965427
 30
0.0
 10
3.2486686703
 20
8.5334553158
 30
0.0
 10
3.2435581213
 20
8.5334552821
 30
0.0
  0
LINE
  5
7ED
100
AcDbEntity
  8
0
100
AcDbLine
 62
7
  6
CONTINUOUS
 10
10.0677642825
 20
1.7211419667
 11
10.0656604909
 21
1.5604333062
  0
SPLINE
  5
7EE
100
AcDbEntity
  8
0
100
AcDbSpline
 62
7
  6
CONTINUOUS
 70
0
 71
3
 72
12
 73
8
 74
0
 42
0.0000001
 43
0.0000001
 44
0.0000000001
 40
0.0
 40
0.0
 40
0.0
 40
0.0
 40
0.0375044878
 40
0.1006434214
 40
0.3163401712
 40
0.6309508034
 40
1.0
 40
1.0
 40
1.0
 40
1.0
 10
8.78250384
 20
2.7869472905
 30
0.0
 10
8.7825005038
 20
2.786692439
 30
0.0
 10
8.782009868
 20
2.7860880289
 30
0.0
 10
8.7800616334
 20
2.7852256548
 30
0.0
 10
8.7760550926
 20
2.784405054
 30
0.0
 10
8.769983639
 20
2.7838461953
 30
0.0
 10
8.7653282731
 20
2.7837548497
 30
0.0
 10
8.7628204871
 20
2.7837866885
 30
0.0
  0
SPLINE
  5
7EF
100
AcDbEntity
  8
0
100
AcDbSpline
 62
7
  6
CONTINUOUS
 70
0
 71
3
 72
11
 73
7
 74
0
 42
0.0000001
 43
0.0000001
 44
0.0000000001
 40
0.0
 40
0.0
 40
0.0
 40
0.0
 40
0.2500275674
 40
0.5
 40
0.7499724326
 40
1.0
 40
1.0
 40
1.0
 40
1.0
 10
9.8876904169
 20
4.4675562088
 30
0.0
 10
9.8851304494
 20
4.4675054878
 30
0.0
 10
9.8799517031
 20
4.4665543799
 30
0.0
 10
9.8734172527
 20
4.4621443336
 30
0.0
 10
9.8690072065
 20
4.4556098832
 30
0.0
 10
9.8680560986
 20
4.450431137
 30
0.0
 10
9.8680053776
 20
4.4478711694
 30
0.0
  0
SPLINE
  5
7F0
100
AcDbEntity
  8
0
100
AcDbSpline
 62
7
  6
CONTINUOUS
 70
0
 71
3
 72
11
 73
7
 74
0
 42
0.0000001
 43
0.0000001
 44
0.0000000001
 40
0.0
 40
0.0
 40
0.0
 40
0.0
 40
0.2500275674
 40
0.5
 40
0.7499724326
 40
1.0
 40
1.0
 40
1.0
 40
1.0
 10
9.6514699445
 20
4.4478711694
 30
0.0
 10
9.6514192235
 20
4.450431137
 30
0.0
 10
9.6504681156
 20
4.4556098832
 30
0.0
 10
9.6460580693
 20
4.4621443336
 30
0.0
 10
9.6395236189
 20
4.4665543799
 30
0.0
 10
9.6343448727
 20
4.4675054878
 30
0.0
 10
9.6317849051
 20
4.4675562088
 30
0.0
  0
SPLINE
  5
7F1
100
AcDbEntity
  8
0
100
AcDbSpline
 62
7
  6
CONTINUOUS
 70
0
 71
3
 72
17
 73
13
 74
0
 42
0.0000001
 43
0.0000001
 44
0.0000000001
 40
0.0
 40
0.0
 40
0.0
 40
0.0
 40
0.0050120353
 40
0.0194863376
 40
0.0433279327
 40
0.0763679402
 40
0.1183691829
 40
0.1688525507
 40
0.2931050489
 40
0.4445283717
 40
0.6174303099
 40
1.0
 40
1.0
 40
1.0
 40
1.0
 10
8.804747563
 20
4.486145495
 30
0.0
 10
8.8047479935
 20
4.4861783849
 30
0.0
 10
8.8049462324
 20
4.4861546593
 30
0.0
 10
8.8051629238
 20
4.4862099494
 30
0.0
 10
8.8056686199
 20
4.4862055453
 30
0.0
 10
8.8063009904
 20
4.4862291624
 30
0.0
 10
8.8071309615
 20
4.4862370687
 30
0.0
 10
8.8085504244
 20
4.486250517
 30
0.0
 10
8.8106927483
 20
4.486254011
 30
0.0
 10
8.813635912
 20
4.4862465927
 30
0.0
 10
8.8182753136
 20
4.4862173357
 30
0.0
 10
8.8219204215
 20
4.4861783535
 30
0.0
 10
8.8244309159
 20
4.486145495
 30
0.0
  0
SPLINE
  5
7F2
100
AcDbEntity
  8
0
100
AcDbSpline
 62
7
  6
CONTINUOUS
 70
0
 71
3
 72
11
 73
7
 74
0
 42
0.0000001
 43
0.0000001
 44
0.0000000001
 40
0.0
 40
0.0
 40
0.0
 40
0.0
 40
0.2517755105
 40
0.5025025433
 40
0.7517674773
 40
1.0
 40
1.0
 40
1.0
 40
1.0
 10
8.8115541657
 20
3.5216169771
 30
0.0
 10
8.8090163046
 20
3.5216179848
 30
0.0
 10
8.803897313
 20
3.5206333162
 30
0.0
 10
8.7973895586
 20
3.5164008067
 30
0.0
 10
8.7929826829
 20
3.5100484949
 30
0.0
 10
8.7919035649
 20
3.5049923622
 30
0.0
 10
8.7918708128
 20
3.5024904282
 30
0.0
  0
LINE
  5
7F3
100
AcDbEntity
  8
0
100
AcDbLine
 62
7
  6
CONTINUOUS
 10
8.8112556648
 20
3.4760119983
 11
8.8115541655
 21
3.5216169771
  0
LINE
  5
7F4
100
AcDbEntity
  8
0
100
AcDbLine
 62
7
  6
CONTINUOUS
 10
9.5076690872
 20
3.5216169771
 11
9.5082660912
 21
3.4760119983
  0
SPLINE
  5
7F5
100
AcDbEntity
  8
0
100
AcDbSpline
 62
7
  6
CONTINUOUS
 70
0
 71
3
 72
11
 73
7
 74
0
 42
0.0000001
 43
0.0000001
 44
0.0000000001
 40
0.0
 40
0.0
 40
0.0
 40
0.0
 40
0.2484070646
 40
0.4976023508
 40
0.7482562897
 40
1.0
 40
1.0
 40
1.0
 40
1.0
 10
9.4662355801
 20
3.3551015199
 30
0.0
 10
9.4661642149
 20
3.3576452142
 30
0.0
 10
9.4652760587
 20
3.362801936
 30
0.0
 10
9.4609085926
 20
3.3693543211
 30
0.0
 10
9.4543840999
 20
3.3738157529
 30
0.0
 10
9.4491760977
 20
3.3747774123
 30
0.0
 10
9.4465977663
 20
3.3748304119
 30
0.0
  0
SPLINE
  5
7F6
100
AcDbEntity
  8
0
100
AcDbSpline
 62
7
  6
CONTINUOUS
 70
0
 71
3
 72
11
 73
7
 74
0
 42
0.0000001
 43
0.0000001
 44
0.0000000001
 40
0.0
 40
0.0
 40
0.0
 40
0.0
 40
0.2518562499
 40
0.5025056702
 40
0.7516960052
 40
1.0
 40
1.0
 40
1.0
 40
1.0
 10
8.8533301534
 20
3.3748304119
 30
0.0
 10
8.8507511726
 20
3.3747567081
 30
0.0
 10
8.8455423959
 20
3.3738215966
 30
0.0
 10
8.8390150911
 20
3.3693487736
 30
0.0
 10
8.8346550323
 20
3.3628011601
 30
0.0
 10
8.8337471478
 20
3.3576445736
 30
0.0
 10
8.8336923397
 20
3.3551015199
 30
0.0
  0
SPLINE
  5
7F7
100
AcDbEntity
  8
0
100
AcDbSpline
 62
7
  6
CONTINUOUS
 70
0
 71
3
 72
12
 73
8
 74
0
 42
0.0000001
 43
0.0000001
 44
0.0000000001
 40
0.0
 40
0.0
 40
0.0
 40
0.0
 40
0.0374786482
 40
0.100648787
 40
0.316498093
 40
0.6311934117
 40
1.0
 40
1.0
 40
1.0
 40
1.0
 10
8.7915723118
 20
3.4796879387
 30
0.0
 10
8.7915689653
 20
3.4794322976
 30
0.0
 10
8.7920466322
 20
3.4788134322
 30
0.0
 10
8.793980552
 20
3.4778988894
 30
0.0
 10
8.7979819496
 20
3.4769722795
 30
0.0
 10
8.8040599154
 20
3.4762556038
 30
0.0
 10
8.8087280045
 20
3.476044357
 30
0.0
 10
8.8112436366
 20
3.4760121517
 30
0.0
  0
SPLINE
  5
7F8
100
AcDbEntity
  8
0
100
AcDbSpline
 62
7
  6
CONTINUOUS
 70
0
 71
3
 72
9
 73
5
 74
0
 42
0.0000001
 43
0.0000001
 44
0.0000000001
 40
0.0
 40
0.0
 40
0.0
 40
0.0
 40
0.5035017535
 40
1.0
 40
1.0
 40
1.0
 40
1.0
 10
8.7610478716
 20
2.633152005
 30
0.0
 10
8.7635343896
 20
2.6331486386
 30
0.0
 10
8.768516558
 20
2.6340388666
 30
0.0
 10
8.7728505588
 20
2.6366693903
 30
0.0
 10
8.7746673898
 20
2.6383159334
 30
0.0
  0
SPLINE
  5
7F9
100
AcDbEntity
  8
0
100
AcDbSpline
 62
7
  6
CONTINUOUS
 70
0
 71
3
 72
8
 73
4
 74
0
 42
0.0000001
 43
0.0000001
 44
0.0000000001
 40
0.0
 40
0.0
 40
0.0
 40
0.0
 40
1.0
 40
1.0
 40
1.0
 40
1.0
 10
8.7746673898
 20
2.6383159334
 30
0.0
 10
8.7764984208
 20
2.6399753454
 30
0.0
 10
8.7780349258
 20
2.6420355903
 30
0.0
 10
8.7790731233
 20
2.644278015
 30
0.0
  0
SPLINE
  5
7FA
100
AcDbEntity
  8
0
100
AcDbSpline
 62
7
  6
CONTINUOUS
 70
0
 71
3
 72
8
 73
4
 74
0
 42
0.0000001
 43
0.0000001
 44
0.0000000001
 40
0.0
 40
0.0
 40
0.0
 40
0.0
 40
1.0
 40
1.0
 40
1.0
 40
1.0
 10
8.7790731233
 20
2.644278015
 30
0.0
 10
8.780115893
 20
2.6465303154
 30
0.0
 10
8.7806987877
 20
2.6490552138
 30
0.0
 10
8.7807312661
 20
2.6515369815
 30
0.0
  0
LINE
  5
7FB
100
AcDbEntity
  8
0
100
AcDbLine
 62
7
  6
CONTINUOUS
 10
8.7610888017
 20
2.6352364558
 11
8.7610478694
 21
2.6331519114
  0
SPLINE
  5
7FC
100
AcDbEntity
  8
0
100
AcDbSpline
 62
7
  6
CONTINUOUS
 70
0
 71
3
 72
8
 73
4
 74
0
 42
0.0000001
 43
0.0000001
 44
0.0000000001
 40
0.0
 40
0.0
 40
0.0
 40
0.0
 40
1.0
 40
1.0
 40
1.0
 40
1.0
 10
8.8351431684
 20
3.3536505452
 30
0.0
 10
8.8351942215
 20
3.3562307582
 30
0.0
 10
8.8356831641
 20
3.3588551809
 30
0.0
 10
8.8366658296
 20
3.3612414906
 30
0.0
  0
SPLINE
  5
7FD
100
AcDbEntity
  8
0
100
AcDbSpline
 62
7
  6
CONTINUOUS
 70
0
 71
3
 72
8
 73
4
 74
0
 42
0.0000001
 43
0.0000001
 44
0.0000000001
 40
0.0
 40
0.0
 40
0.0
 40
0.0
 40
1.0
 40
1.0
 40
1.0
 40
1.0
 10
8.8366658296
 20
3.3612414906
 30
0.0
 10
8.8376327404
 20
3.3635895416
 30
0.0
 10
8.8391128295
 20
3.3657732105
 30
0.0
 10
8.8409084157
 20
3.3675687967
 30
0.0
  0
SPLINE
  5
7FE
100
AcDbEntity
  8
0
100
AcDbSpline
 62
7
  6
CONTINUOUS
 70
0
 71
3
 72
9
 73
5
 74
0
 42
0.0000001
 43
0.0000001
 44
0.0000000001
 40
0.0
 40
0.0
 40
0.0
 40
0.0
 40
0.4999270409
 40
1.0
 40
1.0
 40
1.0
 40
1.0
 10
8.8409084157
 20
3.3675687967
 30
0.0
 10
8.8425833234
 20
3.3692437044
 30
0.0
 10
8.8465717938
 20
3.3720332945
 30
0.0
 10
8.8513005118
 20
3.3731147671
 30
0.0
 10
8.853663998
 20
3.3732816207
 30
0.0
  0
SPLINE
  5
7FF
100
AcDbEntity
  8
0
100
AcDbSpline
 62
7
  6
CONTINUOUS
 70
0
 71
3
 72
8
 73
4
 74
0
 42
0.0000001
 43
0.0000001
 44
0.0000000001
 40
0.0
 40
0.0
 40
0.0
 40
0.0
 40
1.0
 40
1.0
 40
1.0
 40
1.0
 10
9.4451012525
 20
3.373334044
 30
0.0
 10
9.4476814655
 20
3.373282991
 30
0.0
 10
9.4503058882
 20
3.3727940484
 30
0.0
 10
9.4526921979
 20
3.3718113829
 30
0.0
  0
SPLINE
  5
800
100
AcDbEntity
  8
0
100
AcDbSpline
 62
7
  6
CONTINUOUS
 70
0
 71
3
 72
8
 73
4
 74
0
 42
0.0000001
 43
0.0000001
 44
0.0000000001
 40
0.0
 40
0.0
 40
0.0
 40
0.0
 40
1.0
 40
1.0
 40
1.0
 40
1.0
 10
9.4526921979
 20
3.3718113829
 30
0.0
 10
9.4550402489
 20
3.370844472
 30
0.0
 10
9.4572239178
 20
3.369364383
 30
0.0
 10
9.459019504
 20
3.3675687967
 30
0.0
  0
SPLINE
  5
801
100
AcDbEntity
  8
0
100
AcDbSpline
 62
7
  6
CONTINUOUS
 70
0
 71
3
 72
9
 73
5
 74
0
 42
0.0000001
 43
0.0000001
 44
0.0000000001
 40
0.0
 40
0.0
 40
0.0
 40
0.0
 40
0.4999260512
 40
1.0
 40
1.0
 40
1.0
 40
1.0
 10
9.459019504
 20
3.3675687967
 30
0.0
 10
9.4606985516
 20
3.3658897492
 30
0.0
 10
9.4634935646
 20
3.3618895462
 30
0.0
 10
9.464571261
 20
3.3571472209
 30
0.0
 10
9.4647348125
 20
3.3547776241
 30
0.0
  0
LINE
  5
802
100
AcDbEntity
  8
0
100
AcDbLine
 62
7
  6
CONTINUOUS
 10
9.4450050432
 20
2.7846717158
 11
9.4253207533
 21
2.764987426
  0
LINE
  5
803
100
AcDbEntity
  8
0
100
AcDbLine
 62
7
  6
CONTINUOUS
 10
8.8746071664
 20
2.764987426
 11
8.8549228766
 21
2.7846717158
  0
LINE
  5
804
100
AcDbEntity
  8
0
100
AcDbLine
 62
7
  6
CONTINUOUS
 10
8.8549160753
 20
2.6671544259
 11
8.8746003652
 21
2.6865810465
  0
LINE
  5
805
100
AcDbEntity
  8
0
100
AcDbLine
 62
7
  6
CONTINUOUS
 10
9.4253275546
 20
2.6865810465
 11
9.4450118444
 21
2.6671544259
  0
LINE
  5
806
100
AcDbEntity
  8
0
100
AcDbLine
 62
7
  6
CONTINUOUS
 10
7.9534470691
 20
2.6514927911
 11
7.9532341735
 21
2.6352364558
  0
LINE
  5
807
100
AcDbEntity
  8
0
100
AcDbLine
 62
7
  6
CONTINUOUS
 10
7.9551787306
 20
2.7837639794
 11
7.9549658589
 21
2.7675199204
  0
LINE
  5
808
100
AcDbEntity
  8
0
100
AcDbLine
 62
7
  6
CONTINUOUS
 10
8.8244309159
 20
4.486145495
 11
8.8246852334
 21
4.5250002353
  0
LINE
  5
809
100
AcDbEntity
  8
0
100
AcDbLine
 62
7
  6
CONTINUOUS
 10
9.5239108869
 20
4.5250002353
 11
9.5244195258
 21
4.486145495
  0
SPLINE
  5
80A
100
AcDbEntity
  8
0
100
AcDbSpline
 62
7
  6
CONTINUOUS
 70
0
 71
3
 72
12
 73
8
 74
0
 42
0.0000001
 43
0.0000001
 44
0.0000000001
 40
0.0
 40
0.0
 40
0.0
 40
0.0
 40
0.037492403
 40
0.1005971965
 40
0.3161643714
 40
0.6308124342
 40
1.0
 40
1.0
 40
1.0
 40
1.0
 10
8.7818634278
 20
2.7381469468
 30
0.0
 10
8.7818602523
 20
2.7378921903
 30
0.0
 10
8.7813702535
 20
2.7372877289
 30
0.0
 10
8.7794231823
 20
2.7364256475
 30
0.0
 10
8.7754179533
 20
2.7356047655
 30
0.0
 10
8.7693464869
 20
2.7350457403
 30
0.0
 10
8.7646902159
 20
2.7349542481
 30
0.0
 10
8.762181637
 20
2.7349860974
 30
0.0
  0
SPLINE
  5
80B
100
AcDbEntity
  8
0
100
AcDbSpline
 62
7
  6
CONTINUOUS
 70
0
 71
3
 72
8
 73
4
 74
0
 42
0.0000001
 43
0.0000001
 44
0.0000000001
 40
0.0
 40
0.0
 40
0.0
 40
0.0
 40
1.0
 40
1.0
 40
1.0
 40
1.0
 10
10.0076921478
 20
2.7760114339
 30
0.0
 10
10.0086437808
 20
2.7783437708
 30
0.0
 10
10.01010012
 20
2.7805160517
 30
0.0
 10
10.0118697731
 20
2.7823087394
 30
0.0
  0
SPLINE
  5
80C
100
AcDbEntity
  8
0
100
AcDbSpline
 62
7
  6
CONTINUOUS
 70
0
 71
3
 72
8
 73
4
 74
0
 42
0.0000001
 43
0.0000001
 44
0.0000000001
 40
0.0
 40
0.0
 40
0.0
 40
0.0
 40
1.0
 40
1.0
 40
1.0
 40
1.0
 10
10.0259410597
 20
2.7862501788
 30
0.0
 10
10.0230628062
 20
2.7861280923
 30
0.0
 10
10.0201282726
 20
2.78553743
 30
0.0
 10
10.0175163633
 20
2.7843220376
 30
0.0
  0
SPLINE
  5
80D
100
AcDbEntity
  8
0
100
AcDbSpline
 62
7
  6
CONTINUOUS
 70
0
 71
3
 72
8
 73
4
 74
0
 42
0.0000001
 43
0.0000001
 44
0.0000000001
 40
0.0
 40
0.0
 40
0.0
 40
0.0
 40
1.0
 40
1.0
 40
1.0
 40
1.0
 10
10.0175163633
 20
2.7843220376
 30
0.0
 10
10.0153614956
 20
2.7833193191
 30
0.0
 10
10.0133695954
 20
2.7818814208
 30
0.0
 10
10.0117183738
 20
2.7801719276
 30
0.0
  0
SPLINE
  5
80E
100
AcDbEntity
  8
0
100
AcDbSpline
 62
7
  6
CONTINUOUS
 70
0
 71
3
 72
8
 73
4
 74
0
 42
0.0000001
 43
0.0000001
 44
0.0000000001
 40
0.0
 40
0.0
 40
0.0
 40
0.0
 40
1.0
 40
1.0
 40
1.0
 40
1.0
 10
10.0096207021
 20
2.7776019671
 30
0.0
 10
10.0088322921
 20
2.7764509156
 30
0.0
 10
10.0081629674
 20
2.7752075876
 30
0.0
 10
10.0076447342
 20
2.7739122328
 30
0.0
  0
LINE
  5
80F
100
AcDbEntity
  8
0
100
AcDbLine
 62
6
  6
CONTINUOUS
 10
10.0346144132
 20
2.7862390548
 11
10.0259410597
 21
2.7862501788
  0
SPLINE
  5
810
100
AcDbEntity
  8
0
100
AcDbSpline
 62
7
  6
CONTINUOUS
 70
0
 71
3
 72
17
 73
13
 74
0
 42
0.0000001
 43
0.0000001
 44
0.0000000001
 40
0.0
 40
0.0
 40
0.0
 40
0.0
 40
0.3822472799
 40
0.5550229857
 40
0.7063937593
 40
0.8307117757
 40
0.8812578884
 40
0.9233188205
 40
0.9564238199
 40
0.9803452323
 40
0.9949057616
 40
1.0
 40
1.0
 40
1.0
 40
1.0
 10
10.0743190353
 20
2.7670562766
 30
0.0
 10
10.0742861706
 20
2.7695669988
 30
0.0
 10
10.0742471865
 20
2.7732125746
 30
0.0
 10
10.0742179109
 20
2.7778529961
 30
0.0
 10
10.0742104868
 20
2.7807982181
 30
0.0
 10
10.0742139583
 20
2.7829429133
 30
0.0
 10
10.0742274065
 20
2.7843651384
 30
0.0
 10
10.0742352706
 20
2.7851966838
 30
0.0
 10
10.0742590298
 20
2.7858321109
 30
0.0
 10
10.074254301
 20
2.7863372884
 30
0.0
 10
10.0743103507
 20
2.7865600624
 30
0.0
 10
10.0742856199
 20
2.7867555175
 30
0.0
 10
10.0743189849
 20
2.7867580819
 30
0.0
  0
SPLINE
  5
811
100
AcDbEntity
  8
0
100
AcDbSpline
 62
7
  6
CONTINUOUS
 70
0
 71
3
 72
17
 73
13
 74
0
 42
0.0000001
 43
0.0000001
 44
0.0000000001
 40
0.0
 40
0.0
 40
0.0
 40
0.0
 40
0.0050849209
 40
0.0196224353
 40
0.0435142025
 40
0.0765899237
 40
0.1186032073
 40
0.1690763317
 40
0.2932933508
 40
0.4446753796
 40
0.6175592128
 40
1.0
 40
1.0
 40
1.0
 40
1.0
 10
10.0644764705
 20
2.7866291905
 30
0.0
 10
10.0644431712
 20
2.7866266392
 30
0.0
 10
10.0644677783
 20
2.7864315406
 30
0.0
 10
10.0644118406
 20
2.7862091216
 30
0.0
 10
10.0644165191
 20
2.7857045982
 30
0.0
 10
10.0643927959
 20
2.7850699615
 30
0.0
 10
10.0643849257
 20
2.7842395388
 30
0.0
 10
10.0643714545
 20
2.7828189937
 30
0.0
 10
10.0643679715
 20
2.7806757098
 30
0.0
 10
10.064375365
 20
2.777730837
 30
0.0
 10
10.0644046208
 20
2.7730890998
 30
0.0
 10
10.0644436037
 20
2.7694421242
 30
0.0
 10
10.064476478
 20
2.7669305315
 30
0.0
  0
SPLINE
  5
812
100
AcDbEntity
  8
0
100
AcDbSpline
 62
6
  6
CONTINUOUS
 70
0
 71
3
 72
12
 73
8
 74
0
 42
0.0000001
 43
0.0000001
 44
0.0000000001
 40
0.0
 40
0.0
 40
0.0
 40
0.0
 40
0.2901396125
 40
0.5676062909
 40
0.8145113283
 40
0.9170017679
 40
1.0
 40
1.0
 40
1.0
 40
1.0
 10
9.8643287117
 20
2.7336616526
 30
0.0
 10
9.862113009
 20
2.7367951294
 30
0.0
 10
9.8577428892
 20
2.7429044526
 30
0.0
 10
9.8518070764
 20
2.751883771
 30
0.0
 10
9.8474150508
 20
2.758955198
 30
0.0
 10
9.8451966687
 20
2.7642320435
 30
0.0
 10
9.8446656051
 20
2.7666709238
 30
0.0
 10
9.8446639747
 20
2.7677687497
 30
0.0
  0
LINE
  5
813
100
AcDbEntity
  8
0
100
AcDbLine
 62
6
  6
CONTINUOUS
 10
10.0743189841
 20
2.7670592708
 11
10.1341471099
 21
2.7676282021
  0
SPLINE
  5
814
100
AcDbEntity
  8
0
100
AcDbSpline
 62
6
  6
CONTINUOUS
 70
0
 71
3
 72
11
 73
7
 74
0
 42
0.0000001
 43
0.0000001
 44
0.0000000001
 40
0.0
 40
0.0
 40
0.0
 40
0.0
 40
0.2517345675
 40
0.5023728891
 40
0.7516864299
 40
1.0
 40
1.0
 40
1.0
 40
1.0
 10
8.8166244376
 20
3.9089350942
 30
0.0
 10
8.8140869937
 20
3.9089361016
 30
0.0
 10
8.8089693263
 20
3.9079519474
 30
0.0
 10
8.8024618624
 20
3.9037207557
 30
0.0
 10
8.7980538447
 20
3.8973687028
 30
0.0
 10
8.7969738474
 20
3.8923112917
 30
0.0
 10
8.7969410847
 20
3.8898085452
 30
0.0
  0
SPLINE
  5
815
100
AcDbEntity
  8
0
100
AcDbSpline
 62
6
  6
CONTINUOUS
 70
0
 71
3
 72
17
 73
13
 74
0
 42
0.0000001
 43
0.0000001
 44
0.0000000001
 40
0.0
 40
0.0
 40
0.0
 40
0.0
 40
0.005010541
 40
0.019479899
 40
0.0433125981
 40
0.0763392267
 40
0.1183140792
 40
0.1687596768
 40
0.292954846
 40
0.4443596843
 40
0.6173097227
 40
1.0
 40
1.0
 40
1.0
 40
1.0
 10
8.7976922253
 20
3.9471881821
 30
0.0
 10
8.7976926557
 20
3.9472210622
 30
0.0
 10
8.7978908256
 20
3.9471973596
 30
0.0
 10
8.7981074436
 20
3.947252625
 30
0.0
 10
8.7986129444
 20
3.9472482326
 30
0.0
 10
8.7992450045
 20
3.9472718357
 30
0.0
 10
8.8000744618
 20
3.9472797454
 30
0.0
 10
8.8014931298
 20
3.9472932007
 30
0.0
 10
8.8036347073
 20
3.9472966948
 30
0.0
 10
8.8065776895
 20
3.9472892964
 30
0.0
 10
8.8112180772
 20
3.9472600366
 30
0.0
 10
8.8148642923
 20
3.947221051
 30
0.0
 10
8.8173755782
 20
3.9471881821
 30
0.0
  0
SPLINE
  5
816
100
AcDbEntity
  8
0
100
AcDbSpline
 62
6
  6
CONTINUOUS
 70
0
 71
3
 72
14
 73
10
 74
0
 42
0.0000001
 43
0.0000001
 44
0.0000000001
 40
0.0
 40
0.0
 40
0.0
 40
0.0
 40
0.3796224123
 40
0.55118598
 40
0.7014592652
 40
0.8249409161
 40
0.9173393889
 40
0.9754266258
 40
1.0
 40
1.0
 40
1.0
 40
1.0
 10
8.8014327716
 20
2.726560085
 30
0.0
 10
8.798913217
 20
2.7265764678
 30
0.0
 10
8.7952535747
 20
2.7266937936
 30
0.0
 10
8.7906095054
 20
2.7269528313
 30
0.0
 10
8.7876517916
 20
2.7271818301
 30
0.0
 10
8.7852639881
 20
2.727434202
 30
0.0
 10
8.7833959378
 20
2.7277294316
 30
0.0
 10
8.7823969895
 20
2.7279685156
 30
0.0
 10
8.7817354359
 20
2.7282488975
 30
0.0
 10
8.7817375708
 20
2.7284119805
 30
0.0
  0
LINE
  5
817
100
AcDbEntity
  8
0
100
AcDbLine
 62
6
  6
CONTINUOUS
 10
9.6752028693
 20
2.7677816146
 11
9.6751309265
 21
2.7667253527
  0
SPLINE
  5
818
100
AcDbEntity
  8
0
100
AcDbSpline
 62
6
  6
CONTINUOUS
 70
0
 71
3
 72
11
 73
7
 74
0
 42
0.0000001
 43
0.0000001
 44
0.0000000001
 40
0.0
 40
0.0
 40
0.0
 40
0.0
 40
0.1929170705
 40
0.4403846523
 40
0.7145379576
 40
1.0
 40
1.0
 40
1.0
 40
1.0
 10
9.6751309265
 20
2.7667253527
 30
0.0
 10
9.674815649
 20
2.764262147
 30
0.0
 10
9.6724516224
 20
2.7589506452
 30
0.0
 10
9.6676163152
 20
2.751182616
 30
0.0
 10
9.6618496544
 20
2.7425191114
 30
0.0
 10
9.6576618275
 20
2.7366619298
 30
0.0
 10
9.6555403112
 20
2.7336616526
 30
0.0
  0
SPLINE
  5
819
100
AcDbEntity
  8
0
100
AcDbSpline
 62
6
  6
CONTINUOUS
 70
0
 71
3
 72
13
 73
9
 74
0
 42
0.0000001
 43
0.0000001
 44
0.0000000001
 40
0.0
 40
0.0
 40
0.0
 40
0.0
 40
0.2721731851
 40
0.5394008005
 40
0.6687948183
 40
0.7927279869
 40
0.9066415289
 40
1.0
 40
1.0
 40
1.0
 40
1.0
 10
8.7997042014
 20
2.5963525622
 30
0.0
 10
8.7977443632
 20
2.6012839007
 30
0.0
 10
8.7938582853
 20
2.6110556577
 30
0.0
 10
8.7891340253
 20
2.6232113501
 30
0.0
 10
8.7856432132
 20
2.6327390299
 30
0.0
 10
8.7833230202
 20
2.6395212614
 30
0.0
 10
8.7815304298
 20
2.6457058094
 30
0.0
 10
8.7807072569
 20
2.6497169739
 30
0.0
 10
8.7807312223
 20
2.6515370094
 30
0.0
  0
SPLINE
  5
81A
100
AcDbEntity
  8
0
100
AcDbSpline
 62
6
  6
CONTINUOUS
 70
0
 71
3
 72
15
 73
11
 74
0
 42
0.0000001
 43
0.0000001
 44
0.0000000001
 40
0.0
 40
0.0
 40
0.0
 40
0.0
 40
0.2945444117
 40
0.4388148941
 40
0.5789387632
 40
0.7121523109
 40
0.8335797064
 40
0.9340571582
 40
0.9720415982
 40
1.0
 40
1.0
 40
1.0
 40
1.0
 10
8.7996925529
 20
2.5963817155
 30
0.0
 10
8.7956309364
 20
2.5997514904
 30
0.0
 10
8.7895747555
 20
2.6047655057
 30
0.0
 10
8.7816434999
 20
2.6114518239
 30
0.0
 10
8.775978355
 20
2.6163389204
 30
0.0
 10
8.7707097863
 20
2.6210642143
 30
0.0
 10
8.7661430077
 20
2.6254840437
 30
0.0
 10
8.7630034157
 20
2.6289645437
 30
0.0
 10
8.7614184232
 20
2.6314846117
 30
0.0
 10
8.7610379151
 20
2.6326510647
 30
0.0
 10
8.7610478694
 20
2.6331519114
 30
0.0
  0
LINE
  5
81B
100
AcDbEntity
  8
0
100
AcDbLine
 62
6
  6
CONTINUOUS
 10
7.9537665936
 20
2.6515080464
 11
7.9489686802
 21
2.6511156881
  0
SPLINE
  5
81C
100
AcDbEntity
  8
0
100
AcDbSpline
 62
6
  6
CONTINUOUS
 70
0
 71
3
 72
12
 73
8
 74
0
 42
0.0000001
 43
0.0000001
 44
0.0000000001
 40
0.0
 40
0.0
 40
0.0
 40
0.0
 40
0.1344011098
 40
0.2649212509
 40
0.515322918
 40
0.758993168
 40
1.0
 40
1.0
 40
1.0
 40
1.0
 10
7.9489686802
 20
2.6511156881
 30
0.0
 10
7.9458785008
 20
2.650603722
 30
0.0
 10
7.9399283091
 20
2.6485444356
 30
0.0
 10
7.9300214157
 20
2.641565895
 30
0.0
 10
7.9211726852
 20
2.6295693524
 30
0.0
 10
7.9152982243
 20
2.6133202119
 30
0.0
 10
7.9139415671
 20
2.601998126
 30
0.0
 10
7.9138674688
 20
2.596381799
 30
0.0
  0
SPLINE
  5
81D
100
AcDbEntity
  8
0
100
AcDbSpline
 62
6
  6
CONTINUOUS
 70
0
 71
3
 72
13
 73
9
 74
0
 42
0.0000001
 43
0.0000001
 44
0.0000000001
 40
0.0
 40
0.0
 40
0.0
 40
0.0
 40
0.1353256735
 40
0.2668307595
 40
0.3941493049
 40
0.5183267001
 40
0.7606473807
 40
1.0
 40
1.0
 40
1.0
 40
1.0
 10
7.9554628085
 20
2.7837931074
 30
0.0
 10
7.9520924919
 20
2.7837723087
 30
0.0
 10
7.9453915166
 20
2.782588052
 30
0.0
 10
7.9367072803
 20
2.7777180487
 30
0.0
 10
7.9297717451
 20
2.7710558474
 30
0.0
 10
7.9227178717
 20
2.7609076541
 30
0.0
 10
7.9171901108
 20
2.7466418195
 30
0.0
 10
7.915677198
 20
2.7346259988
 30
0.0
 10
7.9155991542
 20
2.7286652649
 30
0.0
  0
SPLINE
  5
81E
100
AcDbEntity
  8
0
100
AcDbSpline
 62
6
  6
CONTINUOUS
 70
0
 71
3
 72
13
 73
9
 74
0
 42
0.0000001
 43
0.0000001
 44
0.0000000001
 40
0.0
 40
0.0
 40
0.0
 40
0.0
 40
0.3689721874
 40
0.6834077852
 40
0.8058165377
 40
0.8993491731
 40
0.9624888926
 40
1.0
 40
1.0
 40
1.0
 40
1.0
 10
7.9571768501
 20
2.9038840218
 30
0.0
 10
7.9521607081
 20
2.9039477067
 30
0.0
 10
7.9428656137
 20
2.9037674292
 30
0.0
 10
7.9319336539
 20
2.9027580539
 30
0.0
 10
7.9248432354
 20
2.9014431546
 30
0.0
 10
7.9211871118
 20
2.9003387317
 30
0.0
 10
7.9187958703
 20
2.8992842752
 30
0.0
 10
7.9178168298
 20
2.8980727971
 30
0.0
 10
7.9178101446
 20
2.8975628399
 30
0.0
  0
LINE
  5
81F
100
AcDbEntity
  8
0
100
AcDbLine
 62
6
  6
CONTINUOUS
 10
10.0061943539
 20
2.7664686888
 11
10.0644764645
 21
2.7669305307
  0
SPLINE
  5
820
100
AcDbEntity
  8
0
100
AcDbSpline
 62
6
  6
CONTINUOUS
 70
0
 71
3
 72
12
 73
8
 74
0
 42
0.0000001
 43
0.0000001
 44
0.0000000001
 40
0.0
 40
0.0
 40
0.0
 40
0.0
 40
0.0374995451
 40
0.1006159074
 40
0.3161959341
 40
0.6308358407
 40
1.0
 40
1.0
 40
1.0
 40
1.0
 10
8.7840760004
 20
2.9070446408
 30
0.0
 10
8.7840726647
 20
2.9067898224
 30
0.0
 10
8.7835822925
 20
2.9061854997
 30
0.0
 10
8.78163491
 20
2.905323426
 30
0.0
 10
8.7776292496
 20
2.9045026528
 30
0.0
 10
8.7715575647
 20
2.9039436593
 30
0.0
 10
8.7669012194
 20
2.90385219
 30
0.0
 10
8.7643926475
 20
2.9038840388
 30
0.0
  0
SPLINE
  5
821
100
AcDbEntity
  8
0
100
AcDbSpline
 62
6
  6
CONTINUOUS
 70
0
 71
3
 72
22
 73
18
 74
0
 42
0.0000001
 43
0.0000001
 44
0.0000000001
 40
0.0
 40
0.0
 40
0.0
 40
0.0
 40
0.0012584839
 40
0.0049006423
 40
0.0109294211
 40
0.0193290607
 40
0.0300816598
 40
0.0431687307
 40
0.0762477311
 40
0.118218148
 40
0.1686536989
 40
0.2271182322
 40
0.293037064
 40
0.4445090707
 40
0.617336513
 40
0.8051068072
 40
1.0
 40
1.0
 40
1.0
 40
1.0
 10
7.9138674685
 20
2.5963817761
 30
0.0
 10
7.9138681741
 20
2.5964147993
 30
0.0
 10
7.9140664891
 20
2.5963923936
 30
0.0
 10
7.9142858716
 20
2.5964495365
 30
0.0
 10
7.9147974654
 20
2.5964487024
 30
0.0
 10
7.9154415343
 20
2.5964776341
 30
0.0
 10
7.9162938832
 20
2.5964926023
 30
0.0
 10
7.9177845785
 20
2.5965192181
 30
0.0
 10
7.9200996871
 20
2.5965434201
 30
0.0
 10
7.9233923101
 20
2.5965668326
 30
0.0
 10
7.9273523994
 20
2.5965832337
 30
0.0
 10
7.9319406764
 20
2.5965932101
 30
0.0
 10
7.9391809555
 20
2.5965974675
 30
0.0
 10
7.9494227952
 20
2.596583707
 30
0.0
 10
7.9628627807
 20
2.5965416043
 30
0.0
 10
7.9774423206
 20
2.5964746757
 30
0.0
 10
7.9874857262
 20
2.5964153745
 30
0.0
 10
7.9926008793
 20
2.5963817149
 30
0.0
  0
SPLINE
  5
822
100
AcDbEntity
  8
0
100
AcDbSpline
 62
6
  6
CONTINUOUS
 70
0
 71
3
 72
13
 73
9
 74
0
 42
0.0000001
 43
0.0000001
 44
0.0000000001
 40
0.0
 40
0.0
 40
0.0
 40
0.0
 40
0.3689712354
 40
0.6834050557
 40
0.8058133682
 40
0.8993454957
 40
0.9624856455
 40
1.0
 40
1.0
 40
1.0
 40
1.0
 10
7.9549658731
 20
2.7349873696
 30
0.0
 10
7.9499497208
 20
2.7350510546
 30
0.0
 10
7.9406546545
 20
2.7348694776
 30
0.0
 10
7.9297226556
 20
2.7338607277
 30
0.0
 10
7.9226322484
 20
2.7325457048
 30
0.0
 10
7.9189761229
 20
2.7314413279
 30
0.0
 10
7.9165848008
 20
2.7303868017
 30
0.0
 10
7.9156058392
 20
2.7291752058
 30
0.0
 10
7.9155991534
 20
2.7286652021
 30
0.0
  0
ELLIPSE
  5
823
100
AcDbEntity
  8
0
100
AcDbEllipse
 62
6
  6
CONTINUOUS
 10
13.6809216144
 20
5.341806238
 30
0.0
 11
0.0787401575
 21
-0.0000000001
 31
0.0
 40
0.5774409443
 41
-2.3561149041
 42
-0.7854694185
  0
ELLIPSE
  5
824
100
AcDbEntity
  8
0
100
AcDbEllipse
 62
6
  6
CONTINUOUS
 10
12.7988681388
 20
5.9789665676
 30
0.0
 11
-0.2006610836
 21
0.338745553
 31
0.0
 40
0.5697507884
 41
0.9780156975
 42
1.4298952604
  0
ELLIPSE
  5
825
100
AcDbEntity
  8
0
100
AcDbEllipse
 62
6
  6
CONTINUOUS
 10
11.5721107567
 20
10.5004165474
 30
0.0
 11
-0.0200661084
 21
0.0338745553
 31
0.0
 40
0.5697507884
 41
-0.5299485737
 42
-0.0059280411
  0
ELLIPSE
  5
826
100
AcDbEntity
  8
0
100
AcDbEllipse
 62
6
  6
CONTINUOUS
 10
13.2483527865
 20
8.6511122187
 30
0.0
 11
0.0391614322
 21
-0.0073894788
 31
0.0
 40
0.6647533539
 41
-2.4171448128
 42
-2.2291787759
  0
ELLIPSE
  5
827
100
AcDbEntity
  8
0
100
AcDbEllipse
 62
6
  6
CONTINUOUS
 10
10.1935194485
 20
7.3552132679
 30
0.0
 11
0.0787536498
 21
0.0000000001
 31
0.0
 40
0.5772431036
 41
-3.1284019115
 42
-2.3562657482
  0
ELLIPSE
  5
828
100
AcDbEntity
  8
0
100
AcDbEllipse
 62
6
  6
CONTINUOUS
 10
11.2590613642
 20
6.8679543118
 30
0.0
 11
-0.2006610836
 21
0.338745553
 31
0.0
 40
0.5697507884
 41
-3.013426357
 42
-2.5615467941
  0
ELLIPSE
  5
829
100
AcDbEntity
  8
0
100
AcDbEllipse
 62
6
  6
CONTINUOUS
 10
13.6809216699
 20
5.9223730494
 30
0.0
 11
0.0787401575
 21
-0.0000000001
 31
0.0
 40
0.5774409443
 41
-2.3561149054
 42
-0.7854694198
  0
ELLIPSE
  5
82A
100
AcDbEntity
  8
0
100
AcDbEllipse
 62
6
  6
CONTINUOUS
 10
11.7544943193
 20
8.0954328398
 30
0.0
 11
-0.0096464146
 21
0.0171604518
 31
0.0
 40
0.5848638399
 41
7.2498240882
 42
7.7750443074
  0
ELLIPSE
  5
82B
100
AcDbEntity
  8
0
100
AcDbEllipse
 62
6
  6
CONTINUOUS
 10
12.4306603163
 20
7.5956333932
 30
0.0
 11
-0.0096464146
 21
0.0171604518
 31
0.0
 40
0.5848638399
 41
7.2498240883
 42
7.7750443074
  0
ELLIPSE
  5
82C
100
AcDbEntity
  8
0
100
AcDbEllipse
 62
6
  6
CONTINUOUS
 10
10.1801812921
 20
7.9434807253
 30
0.0
 11
0.0787536498
 21
0.0000000001
 31
0.0
 40
0.5772431036
 41
9.0795287877
 42
10.2101048649
  0
ELLIPSE
  5
82D
100
AcDbEntity
  8
0
100
AcDbEllipse
 62
6
  6
CONTINUOUS
 10
5.5938355441
 20
6.4963181229
 30
0.0
 11
-0.0556872398
 21
0.0556872398
 31
0.0
 40
0.9998286772
 41
-2.9850244236
 42
-2.796339318
  0
ELLIPSE
  5
82E
100
AcDbEntity
  8
0
100
AcDbEllipse
 62
6
  6
CONTINUOUS
 10
0.6430616354
 20
6.4963181229
 30
0.0
 11
0.0556872398
 21
0.0556872398
 31
0.0
 40
0.9998286772
 41
8.6394552186
 42
10.2101007042
  0
ELLIPSE
  5
82F
100
AcDbEntity
  8
0
100
AcDbEllipse
 62
6
  6
CONTINUOUS
 10
5.5938355441
 20
6.4963181229
 30
0.0
 11
0.0556872398
 21
-0.0556872398
 31
0.0
 40
0.9998286772
 41
5.497862565
 42
7.0685080506
  0
ELLIPSE
  5
830
100
AcDbEntity
  8
0
100
AcDbEllipse
 62
6
  6
CONTINUOUS
 10
0.6316490308
 20
8.4762245449
 30
0.0
 11
0.0393700787
 21
-0.0
 31
0.0
 40
0.0130907171
 41
-3.1285189369
 42
-1.8326133014
  0
ENDSEC
  0
SECTION
  2
OBJECTS
  0
DICTIONARY
  5
C
100
AcDbDictionary
280
0
281
1
  3
ACAD_GROUP
350
D
  3
ACAD_MLINESTYLE
350
17
  3
ACAD_LAYOUT
350
1A
  3
ACAD_PLOTSETTINGS
350
19
  3
ACAD_PLOTSTYLENAME
350
E
  0
DICTIONARY
  5
D
102
{ACAD_REACTORS
330
C
102
}
100
AcDbDictionary
280
0
281
1
  0
ACDBDICTIONARYWDFLT
  5
E
102
{ACAD_REACTORS
330
C
102
}
100
AcDbDictionary
281
1
  3
Normal
350
F
100
AcDbDictionaryWithDefault
340
F
  0
DICTIONARY
  5
17
102
{ACAD_REACTORS
330
C
102
}
100
AcDbDictionary
280
0
281
1
  3
Standard
350
18
  0
DICTIONARY
  5
19
102
{ACAD_REACTORS
330
C
102
}
100
AcDbDictionary
281
1
  0
DICTIONARY
  5
1A
102
{ACAD_REACTORS
330
C
102
}
100
AcDbDictionary
281
1
  3
Model
350
831
  3
Layout1
350
832
  0
ACDBPLACEHOLDER
  5
F
102
{ACAD_REACTORS
330
E
102
}
  0
MLINESTYLE
  5
18
102
{ACAD_REACTORS
330
17
102
}
100
AcDbMlineStyle
  2
STANDARD
 70
0
  3

 62
256
 51
90.0
 52
90.0
 71
2
 49
0.5
 62
256
  6
BYLAYER
 49
-0.5
 62
256
  6
BYLAYER
  0
LAYOUT
  5
831
102
{ACAD_REACTORS
330
1A
102
}
100
AcDbPlotSettings
  1

  2
none_device
  4
ANSI_B_(17.00_x_11.00_Inches)
  6

 40
0.0
 41
0.0
 42
0.0
 43
0.0
 44
431.8
 45
279.4
 46
0.0
 47
0.0
 48
0.0
 49
0.0
140
0.0
141
0.0
142
1.0
143
1.0
 70
1024
 72
0
 73
0
 74
0
  7

 75
0
147
1.0
148
0.0
149
0.0
100
AcDbLayout
  1
Model
 70
0
 71
0
 10
0.0
 20
0.0
 11
17.0
 21
11.0
 12
0.0
 22
0.0
 32
0.0
 14
0.0
 24
0.0
 34
0.0
 15
0.0
 25
0.0
 35
0.0
146
0.0
 13
0.0
 23
0.0
 33
0.0
 16
1.0
 26
0.0
 36
0.0
 17
0.0
 27
1.0
 37
0.0
 76
0
330
200
345
0
346
0
  0
LAYOUT
  5
832
102
{ACAD_REACTORS
330
1A
102
}
100
AcDbPlotSettings
  1

  2
none_device
  4
ANSI_B_(17.00_x_11.00_Inches)
  6

 40
0.0
 41
0.0
 42
0.0
 43
0.0
 44
431.8
 45
279.4
 46
0.0
 47
0.0
 48
0.0
 49
0.0
140
0.0
141
0.0
142
1.0
143
1.0
 70
0
 72
0
 73
0
 74
0
  7

 75
0
147
1.0
148
0.0
149
0.0
100
AcDbLayout
  1
Layout1
 70
0
 71
1
 10
0.0
 20
0.0
 11
17.0
 21
11.0
 12
0.0
 22
0.0
 32
0.0
 14
0.0
 24
0.0
 34
0.0
 15
0.0
 25
0.0
 35
0.0
146
0.0
 13
0.0
 23
0.0
 33
0.0
 16
1.0
 26
0.0
 36
0.0
 17
0.0
 27
1.0
 37
0.0
 76
0
330
201
345
0
346
0
  0
ENDSEC
  0
EOF
